  0
SECTION
  2
HEADER
  9
$ACADVER
  1
AC1009
  9
$INSBASE
 10
0
 20
0
 30
0
  9
$EXTMIN
 10
0
 20
0
  9
$EXTMAX
 10
1485
 20
1050
  9
$LIMMIN
 10
0
 20
0
  9
$LIMMAX
 10
1485
 20
1050
  9
$LTSCALE
 40
5
  0
ENDSEC
  0
SECTION
  2
TABLES
  0
TABLE
  2
LTYPE
 70
     9
  0
LTYPE
  2
CONTINUOUS
 70
    64
  3
実線
 72
    65
 73
     0
 40
0.0
  0
LTYPE
  2
DASHED1
 70
    64
  3
--  --  --  --  --  --  --  --  
 72
    65
 73
     2
 40
2.5
 49
1.25
 49
-1.25
  0
LTYPE
  2
DASHED2
 70
    64
  3
----    ----    ----    ----    
 72
    65
 73
     2
 40
5.0
 49
2.5
 49
-2.5
  0
LTYPE
  2
DASHED3
 70
    64
  3
------  ------  ------  ------  
 72
    65
 73
     2
 40
5.0
 49
3.75
 49
-1.25
  0
LTYPE
  2
CENTER1
 70
    64
  3
----- - ----- - ----- - ----- - 
 72
    65
 73
     4
 40
10.0
 49
6.25
 49
-1.25
 49
1.25
 49
-1.25
  0
LTYPE
  2
CENTER2
 70
    64
  3
----------  --  ----------  --  
 72
    65
 73
     4
 40
20.0
 49
12.5
 49
-2.5
 49
2.5
 49
-2.5
  0
LTYPE
  2
PHANTOM1
 70
    64
  3
--- - - --- - - --- - - --- - - 
 72
    65
 73
     6
 40
10.0
 49
3.25
 49
-1.25
 49
1.25
 49
-1.25
 49
1.25
 49
-1.25
  0
LTYPE
  2
PHANTOM2
 70
    64
  3
--------  -  -  --------  -  -  
 72
    65
 73
     6
 40
20.0
 49
10.0
 49
-2.5
 49
1.25
 49
-2.5
 49
1.25
 49
-2.5
  0
LTYPE
  2
DOT
 70
    64
  3
-   -   -   -   -   -   -   -   
 72
    65
 73
     2
 40
2.5
 49
0.625
 49
-1.875
  0
LTYPE
  2
DUMMY
 70
    64
  3
ダミー
 72
    65
 73
     0
 40
0.0
  0
LTYPE
  2
RAND1
 70
    64
  3
ランダム線1
 72
    65
 73
     4
 40
10.0
 49
1.0
 49
-2.0
 49
3.0
 49
-4.0
  0
LTYPE
  2
RAND2
 70
    64
  3
ランダム線2
 72
    65
 73
     4
 40
14.0
 49
2.0
 49
-3.0
 49
4.0
 49
-5.0
  0
LTYPE
  2
RAND3
 70
    64
  3
ランダム線3
 72
    65
 73
     4
 40
18.0
 49
3.0
 49
-4.0
 49
5.0
 49
-6.0
  0
LTYPE
  2
RAND4
 70
    64
  3
ランダム線4
 72
    65
 73
     4
 40
22.0
 49
4.0
 49
-5.0
 49
6.0
 49
-7.0
  0
LTYPE
  2
RAND5
 70
    64
  3
ランダム線5
 72
    65
 73
     4
 40
26.0
 49
5.0
 49
-6.0
 49
7.0
 49
-8.0
  0
LTYPE
  2
LONG1
 70
    64
  3
----------  --  ----------  --  
 72
    65
 73
     4
 40
40.0
 49
32.5
 49
-2.5
 49
2.5
 49
-2.5
  0
LTYPE
  2
LONG2
 70
    64
  3
--------  -  -  --------  -  -  
 72
    65
 73
     6
 40
40.0
 49
30.0
 49
-2.5
 49
1.25
 49
-2.5
 49
1.25
 49
-2.5
  0
LTYPE
  2
LONG3
 70
    64
  3
+++++++++++++++..+++++++++++++++
 72
    65
 73
     2
 40
40.0
 49
37.5
 49
-2.5
  0
LTYPE
  2
LONG4
 70
    64
  3
+++++++++++++++..+++++++++++++++
 72
    65
 73
     2
 40
80.0
 49
75.0
 49
-5.0
  0
LTYPE
  2
LONG5
 70
    64
  3
----------  --  ----------  --  
 72
    65
 73
     4
 40
60.0
 49
37.5
 49
-7.5
 49
7.5
 49
-7.5
  0
LTYPE
  2
dashed
 70
   64
  3
-------   -------------   ------
 72
   65
 73
    2
 40
7.5
 49
6
 49
-1.5
  0
LTYPE
  2
dashed_spaced
 70
   64
  3
----        --------        ----
 72
   65
 73
    2
 40
12
 49
6
 49
-6
  0
LTYPE
  2
long_dashed_dotted
 70
   64
  3
------------- --- --------------
 72
   65
 73
    4
 40
15.25
 49
12
 49
-1.5
 49
0.25
 49
-1.5
  0
LTYPE
  2
long_dashed_double-dotted
 70
   64
  3
----------- --- --- ------------
 72
   65
 73
    6
 40
17
 49
12
 49
-1.5
 49
0.25
 49
-1.5
 49
0.25
 49
-1.5
  0
LTYPE
  2
long_dashed_triplicate-dotted
 70
   64
  3
--------- --- --- --- ----------
 72
   65
 73
    8
 40
18.75
 49
12
 49
-1.5
 49
0.25
 49
-1.5
 49
0.25
 49
-1.5
 49
0.25
 49
-1.5
  0
LTYPE
  2
dotted
 70
   64
  3
   -       -       -       -    
 72
   65
 73
    2
 40
1.75
 49
0.25
 49
-1.5
  0
LTYPE
  2
chain
 70
   64
  3
-------------- -- --------------
 72
   65
 73
    4
 40
18.5
 49
12
 49
-1.5
 49
3.5
 49
-1.5
  0
LTYPE
  2
chain_double_dash
 70
   64
  3
------------ -- -- -------------
 72
   65
 73
    6
 40
23.5
 49
12
 49
-1.5
 49
3.5
 49
-1.5
 49
3.5
 49
-1.5
  0
LTYPE
  2
dashed_dotted
 70
   64
  3
-----------     -     ----------
 72
   65
 73
    4
 40
9.25
 49
6
 49
-1.5
 49
0.25
 49
-1.5
  0
LTYPE
  2
double-dashed_dotted
 70
   64
  3
------   -----------   -   -----
 72
   65
 73
    6
 40
16.75
 49
6
 49
-1.5
 49
6
 49
-1.5
 49
0.25
 49
-1.5
  0
LTYPE
  2
dashed_double-dotted
 70
   64
  3
---------    -    -    ---------
 72
   65
 73
    6
 40
11
 49
6
 49
-1.5
 49
0.25
 49
-1.5
 49
0.25
 49
-1.5
  0
LTYPE
  2
double-dashed_double-dotted
 70
   64
  3
-----   ---------   -   -   ----
 72
   65
 73
    8
 40
18.5
 49
6
 49
-1.5
 49
6
 49
-1.5
 49
0.25
 49
-1.5
 49
0.25
 49
-1.5
  0
LTYPE
  2
dashed_triplicate-dotted
 70
   64
  3
-------    -    -    -    ------
 72
   65
 73
    8
 40
12.75
 49
6
 49
-1.5
 49
0.25
 49
-1.5
 49
0.25
 49
-1.5
 49
0.25
 49
-1.5
  0
LTYPE
  2
double-dashed_triplicate-dotted
 70
   64
  3
-----  ---------  -  -  -  -----
 72
   65
 73
   10
 40
20.25
 49
6
 49
-1.5
 49
6
 49
-1.5
 49
0.25
 49
-1.5
 49
0.25
 49
-1.5
 49
0.25
 49
-1.5
  0
LTYPE
  2
undefined
 70
   64
  3
--------------------------------
 72
   65
 73
    0
 40
0
  0
ENDTAB
  0
TABLE
  2
STYLE
  5
3
100
AcDbSymbolTable
 70
     1
  0
STYLE
  5
10
100
AcDbSymbolTableRecord
100
AcDbTextStyleTableRecord
  2
STANDARD
 70
     0
 40
0.0
 41
1.0
 50
0.0
 71
     0
 42
0.2
  3
txt
  4
bigfont.shx
  0
STYLE
  5
26
100
AcDbSymbolTableRecord
100
AcDbTextStyleTableRecord
  2
TATEGAKI
 70
    68
 40
0.0
 41
1.0
 50
0.0
 71
     0
 42
1.0
  3
txt
  4
bigfont.shx
  0
ENDTAB
  0
TABLE
  2
LAYER
 70
   10
  0
LAYER
  2
_0-0_計極細
 70
   64
 62
    7
  6
CONTINUOUS
  0
LAYER
  2
_0-1_計細線
 70
   64
 62
    7
  6
CONTINUOUS
  0
LAYER
  2
_0-5_寸法線
 70
   64
 62
    7
  6
CONTINUOUS
  0
LAYER
  2
_0-7_枠細線
 70
   64
 62
    7
  6
CONTINUOUS
  0
LAYER
  2
_0-8_枠中線
 70
   64
 62
    7
  6
CONTINUOUS
  0
LAYER
  2
_0-9_枠極太
 70
   64
 62
    7
  6
CONTINUOUS
  0
LAYER
  2
_0-a_極細3
 70
   64
 62
    7
  6
CONTINUOUS
  0
LAYER
  2
_0-b_細線3
 70
   64
 62
    7
  6
CONTINUOUS
  0
LAYER
  2
_0-d_寸法3
 70
   64
 62
    7
  6
CONTINUOUS
  0
LAYER
  2
ADD_LINE
 70
   64
 62
    7
  6
CONTINUOUS
  0
ENDTAB
  0
ENDSEC
  0
SECTION
  2
BLOCKS
  0
ENDSEC
  0
SECTION
  2
ENTITIES
  0
LINE
  8
ADD_LINE
  6
DOT
 62
    7
 10
944.58010541112253
 20
679.86665508896067
 11
944.58010541112253
 21
644.8666550889609
  0
LINE
  8
ADD_LINE
  6
DOT
 62
    7
 10
1359.1801054111224
 20
679.86665508896067
 11
1359.1801054111224
 21
644.8666550889609
  0
LINE
  8
_0-7_枠細線
  6
CONTINUOUS
 62
    5
 10
1425
 20
942.5
 11
890
 21
942.5
  0
TEXT
  8
_0-7_枠細線
 62
    5
 10
895
 20
945
 40
12.5
 41
1
 50
0
  1
記号
  0
TEXT
  8
_0-7_枠細線
 62
    5
 10
996.875
 20
945
 40
12.5
 41
1
 50
0
  1
訂　 正　 記　 事
  0
TEXT
  8
_0-7_枠細線
 62
    5
 10
1181.25
 20
945
 40
12.5
 41
1
 50
0
  1
訂 正 年 月 日
  0
TEXT
  8
_0-7_枠細線
 62
    5
 10
1306.25
 20
945
 40
12.5
 41
1
 50
0
  1
備　　　　　考
  0
LINE
  8
_0-7_枠細線
  6
CONTINUOUS
 62
    5
 10
1185
 20
180
 11
1185
 21
100
  0
TEXT
  8
_0-7_枠細線
 62
    5
 10
937.5
 20
97.5
 40
17.5
 41
1
 50
0
  1
備考
  7
TATEGAKI
  0
TEXT
  8
_0-7_枠細線
 62
    5
 10
937.5
 20
137.5
 40
17.5
 41
1
 50
0
  1
品番
  7
TATEGAKI
  0
TEXT
  8
_0-7_枠細線
 62
    5
 10
937.5
 20
177.5
 40
17.5
 41
1
 50
0
  1
品名
  7
TATEGAKI
  0
LINE
  8
_0-7_枠細線
  6
CONTINUOUS
 62
    5
 10
1185
 20
140
 11
925
 21
140
  0
LINE
  8
_0-7_枠細線
  6
CONTINUOUS
 62
    5
 10
950
 20
180
 11
950
 21
60
  0
LINE
  8
_0-8_枠中線
  6
CONTINUOUS
 62
    5
 10
1425
 20
180
 11
925
 21
180
  0
LINE
  8
_0-8_枠中線
  6
CONTINUOUS
 62
    5
 10
925
 20
180
 11
925
 21
60
  0
LINE
  8
_0-7_枠細線
  6
CONTINUOUS
 62
    5
 10
1245
 20
180
 11
1245
 21
60
  0
TEXT
  8
_0-7_枠細線
 62
    5
 10
1192.5
 20
160
 40
15
 41
1
 50
0
  1
縮　尺
  0
LINE
  8
_0-7_枠細線
  6
CONTINUOUS
 62
    5
 10
1185
 20
155
 11
1245
 21
155
  0
LINE
  8
_0-7_枠細線
  6
CONTINUOUS
 62
    5
 10
1245
 20
100
 11
925
 21
100
  0
LINE
  8
_0-7_枠細線
  6
CONTINUOUS
 62
    5
 10
1425
 20
90
 11
1245
 21
90
  0
LINE
  8
_0-7_枠細線
  6
CONTINUOUS
 62
    5
 10
1245
 20
120
 11
1425
 21
120
  0
LINE
  8
_0-7_枠細線
  6
CONTINUOUS
 62
    5
 10
1425
 20
140
 11
1245
 21
140
  0
TEXT
  8
_0-7_枠細線
 62
    5
 10
1255
 20
147.5
 40
25
 41
0.8
 50
0
  1
株式会社シマブン
  0
TEXT
  8
_0-7_枠細線
 62
    5
 10
1252.5
 20
60
 40
15
 41
1
 50
0
  1
年月日
  0
TEXT
  8
_0-7_枠細線
 62
    5
 10
1252.5
 20
75
 40
15
 41
1
 50
0
  1
作　成
  0
TEXT
  8
_0-7_枠細線
 62
    5
 10
1256.25
 20
122.5
 40
15
 41
1
 50
0
  1
承 認
  0
LINE
  8
_0-7_枠細線
  6
CONTINUOUS
 62
    5
 10
1305
 20
140
 11
1305
 21
60
  0
TEXT
  8
_0-7_枠細線
 62
    5
 10
1316.25
 20
122.5
 40
15
 41
1
 50
0
  1
検 図
  0
LINE
  8
_0-7_枠細線
  6
CONTINUOUS
 62
    5
 10
1365
 20
140
 11
1365
 21
90
  0
TEXT
  8
_0-7_枠細線
 62
    5
 10
1375
 20
95
 40
20
 41
1
 50
0
  1
藤戸
  0
TEXT
  8
_0-7_枠細線
 62
    5
 10
1376.25
 20
122.5
 40
15
 41
1
 50
0
  1
設 計
  0
TEXT
  8
_0-7_枠細線
 62
    5
 10
1255
 20
95
 40
20
 41
1
 50
0
  1
隠塚
  0
TEXT
  8
_0-7_枠細線
 62
    5
 10
1315
 20
95
 40
20
 41
1
 50
0
  1
渋田
  0
TEXT
  8
_0-7_枠細線
 62
    5
 10
1193.9999999999998
 20
117.5
 40
20
 41
0.7000000000000001
 50
0
  1
１：５
  0
LINE
  8
_0-1_計細線
  6
CONTINUOUS
 62
    3
 10
643.86751290833899
 20
393.86665508896112
 11
646.86751290833899
 21
393.86665508896112
  0
LINE
  8
_0-1_計細線
  6
CONTINUOUS
 62
    3
 10
646.86751290833899
 20
393.86665508896112
 11
646.86751290833899
 21
787.86665508896078
  0
LINE
  8
_0-1_計細線
  6
CONTINUOUS
 62
    3
 10
646.86751290833899
 20
787.86665508896078
 11
643.86751290833899
 21
787.86665508896078
  0
LINE
  8
_0-1_計細線
  6
CONTINUOUS
 62
    3
 10
643.86751290833899
 20
787.86665508896078
 11
643.86751290833899
 21
393.86665508896112
  0
LINE
  8
_0-1_計細線
  6
CONTINUOUS
 62
    3
 10
638.36751290833899
 20
393.86665508896112
 11
635.36751290833899
 21
393.86665508896112
  0
LINE
  8
_0-1_計細線
  6
CONTINUOUS
 62
    3
 10
635.36751290833899
 20
393.86665508896112
 11
635.36751290833899
 21
787.86665508896078
  0
LINE
  8
_0-1_計細線
  6
CONTINUOUS
 62
    3
 10
635.36751290833899
 20
787.86665508896078
 11
638.36751290833899
 21
787.86665508896078
  0
LINE
  8
_0-1_計細線
  6
CONTINUOUS
 62
    3
 10
638.36751290833899
 20
787.86665508896078
 11
638.36751290833899
 21
393.86665508896112
  0
LINE
  8
_0-1_計細線
  6
CONTINUOUS
 62
    3
 10
628.36751290833899
 20
393.86665508896112
 11
625.36751290833899
 21
393.86665508896112
  0
LINE
  8
_0-1_計細線
  6
CONTINUOUS
 62
    3
 10
625.36751290833899
 20
393.86665508896112
 11
625.36751290833899
 21
787.86665508896078
  0
LINE
  8
_0-1_計細線
  6
CONTINUOUS
 62
    3
 10
625.36751290833899
 20
787.86665508896078
 11
628.36751290833899
 21
787.86665508896078
  0
LINE
  8
_0-1_計細線
  6
CONTINUOUS
 62
    3
 10
628.36751290833899
 20
787.86665508896078
 11
628.36751290833899
 21
393.86665508896112
  0
LINE
  8
_0-1_計細線
  6
CONTINUOUS
 62
    3
 10
618.36751290833899
 20
393.86665508896112
 11
615.36751290833899
 21
393.86665508896112
  0
LINE
  8
_0-1_計細線
  6
CONTINUOUS
 62
    3
 10
615.36751290833899
 20
393.86665508896112
 11
615.36751290833899
 21
787.86665508896078
  0
LINE
  8
_0-1_計細線
  6
CONTINUOUS
 62
    3
 10
615.36751290833899
 20
787.86665508896078
 11
618.36751290833899
 21
787.86665508896078
  0
LINE
  8
_0-1_計細線
  6
CONTINUOUS
 62
    3
 10
618.36751290833899
 20
787.86665508896078
 11
618.36751290833899
 21
393.86665508896112
  0
LINE
  8
_0-1_計細線
  6
CONTINUOUS
 62
    3
 10
608.36751290833899
 20
393.86665508896112
 11
605.36751290833899
 21
393.86665508896112
  0
LINE
  8
_0-1_計細線
  6
CONTINUOUS
 62
    3
 10
605.36751290833899
 20
393.86665508896112
 11
605.36751290833899
 21
787.86665508896078
  0
LINE
  8
_0-1_計細線
  6
CONTINUOUS
 62
    3
 10
605.36751290833899
 20
787.86665508896078
 11
608.36751290833899
 21
787.86665508896078
  0
LINE
  8
_0-1_計細線
  6
CONTINUOUS
 62
    3
 10
608.36751290833899
 20
787.86665508896078
 11
608.36751290833899
 21
393.86665508896112
  0
LINE
  8
_0-1_計細線
  6
CONTINUOUS
 62
    3
 10
598.36751290833899
 20
393.86665508896112
 11
595.36751290833899
 21
393.86665508896112
  0
LINE
  8
_0-1_計細線
  6
CONTINUOUS
 62
    3
 10
595.36751290833899
 20
393.86665508896112
 11
595.36751290833899
 21
787.86665508896078
  0
LINE
  8
_0-1_計細線
  6
CONTINUOUS
 62
    3
 10
595.36751290833899
 20
787.86665508896078
 11
598.36751290833899
 21
787.86665508896078
  0
LINE
  8
_0-1_計細線
  6
CONTINUOUS
 62
    3
 10
598.36751290833899
 20
787.86665508896078
 11
598.36751290833899
 21
393.86665508896112
  0
LINE
  8
_0-1_計細線
  6
CONTINUOUS
 62
    3
 10
588.36751290833899
 20
393.86665508896112
 11
585.36751290833899
 21
393.86665508896112
  0
LINE
  8
_0-1_計細線
  6
CONTINUOUS
 62
    3
 10
585.36751290833899
 20
393.86665508896112
 11
585.36751290833899
 21
787.86665508896078
  0
LINE
  8
_0-1_計細線
  6
CONTINUOUS
 62
    3
 10
585.36751290833899
 20
787.86665508896078
 11
588.36751290833899
 21
787.86665508896078
  0
LINE
  8
_0-1_計細線
  6
CONTINUOUS
 62
    3
 10
588.36751290833899
 20
787.86665508896078
 11
588.36751290833899
 21
393.86665508896112
  0
LINE
  8
_0-1_計細線
  6
CONTINUOUS
 62
    3
 10
578.36751290833899
 20
393.86665508896112
 11
575.36751290833899
 21
393.86665508896112
  0
LINE
  8
_0-1_計細線
  6
CONTINUOUS
 62
    3
 10
575.36751290833899
 20
393.86665508896112
 11
575.36751290833899
 21
787.86665508896078
  0
LINE
  8
_0-1_計細線
  6
CONTINUOUS
 62
    3
 10
575.36751290833899
 20
787.86665508896078
 11
578.36751290833899
 21
787.86665508896078
  0
LINE
  8
_0-1_計細線
  6
CONTINUOUS
 62
    3
 10
578.36751290833899
 20
787.86665508896078
 11
578.36751290833899
 21
393.86665508896112
  0
LINE
  8
_0-1_計細線
  6
CONTINUOUS
 62
    3
 10
568.36751290833899
 20
393.86665508896112
 11
565.36751290833899
 21
393.86665508896112
  0
LINE
  8
_0-1_計細線
  6
CONTINUOUS
 62
    3
 10
565.36751290833899
 20
393.86665508896112
 11
565.36751290833899
 21
787.86665508896078
  0
LINE
  8
_0-1_計細線
  6
CONTINUOUS
 62
    3
 10
565.36751290833899
 20
787.86665508896078
 11
568.36751290833899
 21
787.86665508896078
  0
LINE
  8
_0-1_計細線
  6
CONTINUOUS
 62
    3
 10
568.36751290833899
 20
787.86665508896078
 11
568.36751290833899
 21
393.86665508896112
  0
LINE
  8
_0-1_計細線
  6
CONTINUOUS
 62
    3
 10
558.36751290833899
 20
393.86665508896112
 11
555.36751290833899
 21
393.86665508896112
  0
LINE
  8
_0-1_計細線
  6
CONTINUOUS
 62
    3
 10
555.36751290833899
 20
393.86665508896112
 11
555.36751290833899
 21
787.86665508896078
  0
LINE
  8
_0-1_計細線
  6
CONTINUOUS
 62
    3
 10
555.36751290833899
 20
787.86665508896078
 11
558.36751290833899
 21
787.86665508896078
  0
LINE
  8
_0-1_計細線
  6
CONTINUOUS
 62
    3
 10
558.36751290833899
 20
787.86665508896078
 11
558.36751290833899
 21
393.86665508896112
  0
LINE
  8
_0-1_計細線
  6
CONTINUOUS
 62
    3
 10
548.36751290833899
 20
393.86665508896112
 11
545.36751290833899
 21
393.86665508896112
  0
LINE
  8
_0-1_計細線
  6
CONTINUOUS
 62
    3
 10
545.36751290833899
 20
393.86665508896112
 11
545.36751290833899
 21
787.86665508896078
  0
LINE
  8
_0-1_計細線
  6
CONTINUOUS
 62
    3
 10
545.36751290833899
 20
787.86665508896078
 11
548.36751290833899
 21
787.86665508896078
  0
LINE
  8
_0-1_計細線
  6
CONTINUOUS
 62
    3
 10
548.36751290833899
 20
787.86665508896078
 11
548.36751290833899
 21
393.86665508896112
  0
LINE
  8
_0-1_計細線
  6
CONTINUOUS
 62
    3
 10
538.36751290833899
 20
393.86665508896112
 11
535.36751290833899
 21
393.86665508896112
  0
LINE
  8
_0-1_計細線
  6
CONTINUOUS
 62
    3
 10
535.36751290833899
 20
393.86665508896112
 11
535.36751290833899
 21
787.86665508896078
  0
LINE
  8
_0-1_計細線
  6
CONTINUOUS
 62
    3
 10
535.36751290833899
 20
787.86665508896078
 11
538.36751290833899
 21
787.86665508896078
  0
LINE
  8
_0-1_計細線
  6
CONTINUOUS
 62
    3
 10
538.36751290833899
 20
787.86665508896078
 11
538.36751290833899
 21
393.86665508896112
  0
LINE
  8
_0-1_計細線
  6
CONTINUOUS
 62
    3
 10
528.36751290833899
 20
393.86665508896112
 11
525.36751290833899
 21
393.86665508896112
  0
LINE
  8
_0-1_計細線
  6
CONTINUOUS
 62
    3
 10
525.36751290833899
 20
393.86665508896112
 11
525.36751290833899
 21
787.86665508896078
  0
LINE
  8
_0-1_計細線
  6
CONTINUOUS
 62
    3
 10
525.36751290833899
 20
787.86665508896078
 11
528.36751290833899
 21
787.86665508896078
  0
LINE
  8
_0-1_計細線
  6
CONTINUOUS
 62
    3
 10
528.36751290833899
 20
787.86665508896078
 11
528.36751290833899
 21
393.86665508896112
  0
LINE
  8
_0-1_計細線
  6
CONTINUOUS
 62
    3
 10
518.36751290833899
 20
393.86665508896112
 11
515.36751290833899
 21
393.86665508896112
  0
LINE
  8
_0-1_計細線
  6
CONTINUOUS
 62
    3
 10
515.36751290833899
 20
393.86665508896112
 11
515.36751290833899
 21
787.86665508896078
  0
LINE
  8
_0-1_計細線
  6
CONTINUOUS
 62
    3
 10
515.36751290833899
 20
787.86665508896078
 11
518.36751290833899
 21
787.86665508896078
  0
LINE
  8
_0-1_計細線
  6
CONTINUOUS
 62
    3
 10
518.36751290833899
 20
787.86665508896078
 11
518.36751290833899
 21
393.86665508896112
  0
LINE
  8
_0-1_計細線
  6
CONTINUOUS
 62
    3
 10
508.36751290833899
 20
393.86665508896112
 11
505.36751290833905
 21
393.86665508896112
  0
LINE
  8
_0-1_計細線
  6
CONTINUOUS
 62
    3
 10
505.36751290833905
 20
393.86665508896112
 11
505.36751290833905
 21
787.86665508896078
  0
LINE
  8
_0-1_計細線
  6
CONTINUOUS
 62
    3
 10
505.36751290833905
 20
787.86665508896078
 11
508.36751290833899
 21
787.86665508896078
  0
LINE
  8
_0-1_計細線
  6
CONTINUOUS
 62
    3
 10
508.36751290833899
 20
787.86665508896078
 11
508.36751290833899
 21
393.86665508896112
  0
LINE
  8
_0-1_計細線
  6
CONTINUOUS
 62
    3
 10
498.36751290833899
 20
393.86665508896112
 11
495.36751290833905
 21
393.86665508896112
  0
LINE
  8
_0-1_計細線
  6
CONTINUOUS
 62
    3
 10
495.36751290833905
 20
393.86665508896112
 11
495.36751290833905
 21
787.86665508896078
  0
LINE
  8
_0-1_計細線
  6
CONTINUOUS
 62
    3
 10
495.36751290833905
 20
787.86665508896078
 11
498.36751290833899
 21
787.86665508896078
  0
LINE
  8
_0-1_計細線
  6
CONTINUOUS
 62
    3
 10
498.36751290833899
 20
787.86665508896078
 11
498.36751290833899
 21
393.86665508896112
  0
LINE
  8
_0-1_計細線
  6
CONTINUOUS
 62
    3
 10
488.36751290833899
 20
393.86665508896112
 11
485.36751290833905
 21
393.86665508896112
  0
LINE
  8
_0-1_計細線
  6
CONTINUOUS
 62
    3
 10
485.36751290833905
 20
393.86665508896112
 11
485.36751290833905
 21
787.86665508896078
  0
LINE
  8
_0-1_計細線
  6
CONTINUOUS
 62
    3
 10
485.36751290833905
 20
787.86665508896078
 11
488.36751290833899
 21
787.86665508896078
  0
LINE
  8
_0-1_計細線
  6
CONTINUOUS
 62
    3
 10
488.36751290833899
 20
787.86665508896078
 11
488.36751290833899
 21
393.86665508896112
  0
LINE
  8
_0-1_計細線
  6
CONTINUOUS
 62
    3
 10
478.36751290833899
 20
393.86665508896112
 11
475.36751290833905
 21
393.86665508896112
  0
LINE
  8
_0-1_計細線
  6
CONTINUOUS
 62
    3
 10
475.36751290833905
 20
393.86665508896112
 11
475.36751290833905
 21
787.86665508896078
  0
LINE
  8
_0-1_計細線
  6
CONTINUOUS
 62
    3
 10
475.36751290833905
 20
787.86665508896078
 11
478.36751290833899
 21
787.86665508896078
  0
LINE
  8
_0-1_計細線
  6
CONTINUOUS
 62
    3
 10
478.36751290833899
 20
787.86665508896078
 11
478.36751290833899
 21
393.86665508896112
  0
LINE
  8
_0-1_計細線
  6
CONTINUOUS
 62
    3
 10
468.36751290833899
 20
393.86665508896112
 11
465.36751290833905
 21
393.86665508896112
  0
LINE
  8
_0-1_計細線
  6
CONTINUOUS
 62
    3
 10
465.36751290833905
 20
393.86665508896112
 11
465.36751290833905
 21
787.86665508896078
  0
LINE
  8
_0-1_計細線
  6
CONTINUOUS
 62
    3
 10
465.36751290833905
 20
787.86665508896078
 11
468.36751290833899
 21
787.86665508896078
  0
LINE
  8
_0-1_計細線
  6
CONTINUOUS
 62
    3
 10
468.36751290833899
 20
787.86665508896078
 11
468.36751290833899
 21
393.86665508896112
  0
LINE
  8
_0-1_計細線
  6
CONTINUOUS
 62
    3
 10
458.36751290833899
 20
393.86665508896112
 11
455.36751290833905
 21
393.86665508896112
  0
LINE
  8
_0-1_計細線
  6
CONTINUOUS
 62
    3
 10
455.36751290833905
 20
393.86665508896112
 11
455.36751290833905
 21
787.86665508896078
  0
LINE
  8
_0-1_計細線
  6
CONTINUOUS
 62
    3
 10
455.36751290833905
 20
787.86665508896078
 11
458.36751290833899
 21
787.86665508896078
  0
LINE
  8
_0-1_計細線
  6
CONTINUOUS
 62
    3
 10
458.36751290833899
 20
787.86665508896078
 11
458.36751290833899
 21
393.86665508896112
  0
LINE
  8
_0-1_計細線
  6
CONTINUOUS
 62
    3
 10
448.36751290833899
 20
393.86665508896112
 11
445.36751290833905
 21
393.86665508896112
  0
LINE
  8
_0-1_計細線
  6
CONTINUOUS
 62
    3
 10
445.36751290833905
 20
393.86665508896112
 11
445.36751290833905
 21
787.86665508896078
  0
LINE
  8
_0-1_計細線
  6
CONTINUOUS
 62
    3
 10
445.36751290833905
 20
787.86665508896078
 11
448.36751290833899
 21
787.86665508896078
  0
LINE
  8
_0-1_計細線
  6
CONTINUOUS
 62
    3
 10
448.36751290833899
 20
787.86665508896078
 11
448.36751290833899
 21
393.86665508896112
  0
LINE
  8
_0-1_計細線
  6
CONTINUOUS
 62
    3
 10
438.36751290833899
 20
393.86665508896112
 11
435.36751290833905
 21
393.86665508896112
  0
LINE
  8
_0-1_計細線
  6
CONTINUOUS
 62
    3
 10
435.36751290833905
 20
393.86665508896112
 11
435.36751290833905
 21
787.86665508896078
  0
LINE
  8
_0-1_計細線
  6
CONTINUOUS
 62
    3
 10
435.36751290833905
 20
787.86665508896078
 11
438.36751290833899
 21
787.86665508896078
  0
LINE
  8
_0-1_計細線
  6
CONTINUOUS
 62
    3
 10
438.36751290833899
 20
787.86665508896078
 11
438.36751290833899
 21
393.86665508896112
  0
LINE
  8
_0-1_計細線
  6
CONTINUOUS
 62
    3
 10
428.36751290833899
 20
393.86665508896112
 11
425.36751290833905
 21
393.86665508896112
  0
LINE
  8
_0-1_計細線
  6
CONTINUOUS
 62
    3
 10
425.36751290833905
 20
393.86665508896112
 11
425.36751290833905
 21
787.86665508896078
  0
LINE
  8
_0-1_計細線
  6
CONTINUOUS
 62
    3
 10
425.36751290833905
 20
787.86665508896078
 11
428.36751290833899
 21
787.86665508896078
  0
LINE
  8
_0-1_計細線
  6
CONTINUOUS
 62
    3
 10
428.36751290833899
 20
787.86665508896078
 11
428.36751290833899
 21
393.86665508896112
  0
LINE
  8
_0-1_計細線
  6
CONTINUOUS
 62
    3
 10
418.36751290833899
 20
393.86665508896112
 11
415.36751290833905
 21
393.86665508896112
  0
LINE
  8
_0-1_計細線
  6
CONTINUOUS
 62
    3
 10
415.36751290833905
 20
393.86665508896112
 11
415.36751290833905
 21
787.86665508896078
  0
LINE
  8
_0-1_計細線
  6
CONTINUOUS
 62
    3
 10
415.36751290833905
 20
787.86665508896078
 11
418.36751290833899
 21
787.86665508896078
  0
LINE
  8
_0-1_計細線
  6
CONTINUOUS
 62
    3
 10
418.36751290833899
 20
787.86665508896078
 11
418.36751290833899
 21
393.86665508896112
  0
LINE
  8
_0-1_計細線
  6
CONTINUOUS
 62
    3
 10
408.36751290833899
 20
393.86665508896112
 11
405.36751290833905
 21
393.86665508896112
  0
LINE
  8
_0-1_計細線
  6
CONTINUOUS
 62
    3
 10
405.36751290833905
 20
393.86665508896112
 11
405.36751290833905
 21
787.86665508896078
  0
LINE
  8
_0-1_計細線
  6
CONTINUOUS
 62
    3
 10
405.36751290833905
 20
787.86665508896078
 11
408.36751290833899
 21
787.86665508896078
  0
LINE
  8
_0-1_計細線
  6
CONTINUOUS
 62
    3
 10
408.36751290833899
 20
787.86665508896078
 11
408.36751290833899
 21
393.86665508896112
  0
LINE
  8
_0-1_計細線
  6
CONTINUOUS
 62
    3
 10
398.36751290833899
 20
393.86665508896112
 11
395.36751290833905
 21
393.86665508896112
  0
LINE
  8
_0-1_計細線
  6
CONTINUOUS
 62
    3
 10
395.36751290833905
 20
393.86665508896112
 11
395.36751290833905
 21
787.86665508896078
  0
LINE
  8
_0-1_計細線
  6
CONTINUOUS
 62
    3
 10
395.36751290833905
 20
787.86665508896078
 11
398.36751290833899
 21
787.86665508896078
  0
LINE
  8
_0-1_計細線
  6
CONTINUOUS
 62
    3
 10
398.36751290833899
 20
787.86665508896078
 11
398.36751290833899
 21
393.86665508896112
  0
LINE
  8
_0-1_計細線
  6
CONTINUOUS
 62
    3
 10
388.36751290833899
 20
393.86665508896112
 11
385.36751290833905
 21
393.86665508896112
  0
LINE
  8
_0-1_計細線
  6
CONTINUOUS
 62
    3
 10
385.36751290833905
 20
393.86665508896112
 11
385.36751290833905
 21
787.86665508896078
  0
LINE
  8
_0-1_計細線
  6
CONTINUOUS
 62
    3
 10
385.36751290833905
 20
787.86665508896078
 11
388.36751290833899
 21
787.86665508896078
  0
LINE
  8
_0-1_計細線
  6
CONTINUOUS
 62
    3
 10
388.36751290833899
 20
787.86665508896078
 11
388.36751290833899
 21
393.86665508896112
  0
LINE
  8
_0-1_計細線
  6
CONTINUOUS
 62
    3
 10
378.36751290833899
 20
393.86665508896112
 11
375.36751290833899
 21
393.86665508896112
  0
LINE
  8
_0-1_計細線
  6
CONTINUOUS
 62
    3
 10
375.36751290833899
 20
393.86665508896112
 11
375.36751290833899
 21
787.86665508896078
  0
LINE
  8
_0-1_計細線
  6
CONTINUOUS
 62
    3
 10
375.36751290833899
 20
787.86665508896078
 11
378.36751290833899
 21
787.86665508896078
  0
LINE
  8
_0-1_計細線
  6
CONTINUOUS
 62
    3
 10
378.36751290833899
 20
787.86665508896078
 11
378.36751290833899
 21
393.86665508896112
  0
LINE
  8
_0-1_計細線
  6
CONTINUOUS
 62
    3
 10
368.36751290833899
 20
393.86665508896112
 11
365.36751290833899
 21
393.86665508896112
  0
LINE
  8
_0-1_計細線
  6
CONTINUOUS
 62
    3
 10
365.36751290833899
 20
393.86665508896112
 11
365.36751290833899
 21
787.86665508896078
  0
LINE
  8
_0-1_計細線
  6
CONTINUOUS
 62
    3
 10
365.36751290833899
 20
787.86665508896078
 11
368.36751290833899
 21
787.86665508896078
  0
LINE
  8
_0-1_計細線
  6
CONTINUOUS
 62
    3
 10
368.36751290833899
 20
787.86665508896078
 11
368.36751290833899
 21
393.86665508896112
  0
LINE
  8
_0-1_計細線
  6
CONTINUOUS
 62
    3
 10
358.36751290833899
 20
393.86665508896112
 11
355.36751290833899
 21
393.86665508896112
  0
LINE
  8
_0-1_計細線
  6
CONTINUOUS
 62
    3
 10
355.36751290833899
 20
393.86665508896112
 11
355.36751290833899
 21
787.86665508896078
  0
LINE
  8
_0-1_計細線
  6
CONTINUOUS
 62
    3
 10
355.36751290833899
 20
787.86665508896078
 11
358.36751290833899
 21
787.86665508896078
  0
LINE
  8
_0-1_計細線
  6
CONTINUOUS
 62
    3
 10
358.36751290833899
 20
787.86665508896078
 11
358.36751290833899
 21
393.86665508896112
  0
LINE
  8
_0-1_計細線
  6
CONTINUOUS
 62
    3
 10
348.36751290833899
 20
393.86665508896112
 11
345.36751290833899
 21
393.86665508896112
  0
LINE
  8
_0-1_計細線
  6
CONTINUOUS
 62
    3
 10
345.36751290833899
 20
393.86665508896112
 11
345.36751290833899
 21
787.86665508896078
  0
LINE
  8
_0-1_計細線
  6
CONTINUOUS
 62
    3
 10
345.36751290833899
 20
787.86665508896078
 11
348.36751290833899
 21
787.86665508896078
  0
LINE
  8
_0-1_計細線
  6
CONTINUOUS
 62
    3
 10
348.36751290833899
 20
787.86665508896078
 11
348.36751290833899
 21
393.86665508896112
  0
LINE
  8
_0-1_計細線
  6
CONTINUOUS
 62
    3
 10
338.36751290833899
 20
393.86665508896112
 11
335.36751290833899
 21
393.86665508896112
  0
LINE
  8
_0-1_計細線
  6
CONTINUOUS
 62
    3
 10
335.36751290833899
 20
393.86665508896112
 11
335.36751290833899
 21
787.86665508896078
  0
LINE
  8
_0-1_計細線
  6
CONTINUOUS
 62
    3
 10
335.36751290833899
 20
787.86665508896078
 11
338.36751290833899
 21
787.86665508896078
  0
LINE
  8
_0-1_計細線
  6
CONTINUOUS
 62
    3
 10
338.36751290833899
 20
787.86665508896078
 11
338.36751290833899
 21
393.86665508896112
  0
LINE
  8
_0-1_計細線
  6
CONTINUOUS
 62
    3
 10
328.36751290833899
 20
393.86665508896112
 11
325.36751290833899
 21
393.86665508896112
  0
LINE
  8
_0-1_計細線
  6
CONTINUOUS
 62
    3
 10
325.36751290833899
 20
393.86665508896112
 11
325.36751290833899
 21
787.86665508896078
  0
LINE
  8
_0-1_計細線
  6
CONTINUOUS
 62
    3
 10
325.36751290833899
 20
787.86665508896078
 11
328.36751290833899
 21
787.86665508896078
  0
LINE
  8
_0-1_計細線
  6
CONTINUOUS
 62
    3
 10
328.36751290833899
 20
787.86665508896078
 11
328.36751290833899
 21
393.86665508896112
  0
LINE
  8
_0-1_計細線
  6
CONTINUOUS
 62
    3
 10
318.36751290833899
 20
393.86665508896112
 11
315.36751290833905
 21
393.86665508896112
  0
LINE
  8
_0-1_計細線
  6
CONTINUOUS
 62
    3
 10
315.36751290833905
 20
393.86665508896112
 11
315.36751290833905
 21
787.86665508896078
  0
LINE
  8
_0-1_計細線
  6
CONTINUOUS
 62
    3
 10
315.36751290833905
 20
787.86665508896078
 11
318.36751290833899
 21
787.86665508896078
  0
LINE
  8
_0-1_計細線
  6
CONTINUOUS
 62
    3
 10
318.36751290833899
 20
787.86665508896078
 11
318.36751290833899
 21
393.86665508896112
  0
LINE
  8
_0-1_計細線
  6
CONTINUOUS
 62
    3
 10
308.36751290833899
 20
393.86665508896112
 11
305.36751290833905
 21
393.86665508896112
  0
LINE
  8
_0-1_計細線
  6
CONTINUOUS
 62
    3
 10
305.36751290833905
 20
393.86665508896112
 11
305.36751290833905
 21
787.86665508896078
  0
LINE
  8
_0-1_計細線
  6
CONTINUOUS
 62
    3
 10
305.36751290833905
 20
787.86665508896078
 11
308.36751290833899
 21
787.86665508896078
  0
LINE
  8
_0-1_計細線
  6
CONTINUOUS
 62
    3
 10
308.36751290833899
 20
787.86665508896078
 11
308.36751290833899
 21
393.86665508896112
  0
LINE
  8
_0-1_計細線
  6
CONTINUOUS
 62
    3
 10
298.36751290833899
 20
393.86665508896112
 11
295.36751290833905
 21
393.86665508896112
  0
LINE
  8
_0-1_計細線
  6
CONTINUOUS
 62
    3
 10
295.36751290833905
 20
393.86665508896112
 11
295.36751290833905
 21
787.86665508896078
  0
LINE
  8
_0-1_計細線
  6
CONTINUOUS
 62
    3
 10
295.36751290833905
 20
787.86665508896078
 11
298.36751290833899
 21
787.86665508896078
  0
LINE
  8
_0-1_計細線
  6
CONTINUOUS
 62
    3
 10
298.36751290833899
 20
787.86665508896078
 11
298.36751290833899
 21
393.86665508896112
  0
LINE
  8
_0-1_計細線
  6
CONTINUOUS
 62
    3
 10
288.36751290833899
 20
393.86665508896112
 11
285.36751290833905
 21
393.86665508896112
  0
LINE
  8
_0-1_計細線
  6
CONTINUOUS
 62
    3
 10
285.36751290833905
 20
393.86665508896112
 11
285.36751290833905
 21
787.86665508896078
  0
LINE
  8
_0-1_計細線
  6
CONTINUOUS
 62
    3
 10
285.36751290833905
 20
787.86665508896078
 11
288.36751290833899
 21
787.86665508896078
  0
LINE
  8
_0-1_計細線
  6
CONTINUOUS
 62
    3
 10
288.36751290833899
 20
787.86665508896078
 11
288.36751290833899
 21
393.86665508896112
  0
LINE
  8
_0-1_計細線
  6
CONTINUOUS
 62
    3
 10
278.36751290833899
 20
393.86665508896112
 11
275.36751290833905
 21
393.86665508896112
  0
LINE
  8
_0-1_計細線
  6
CONTINUOUS
 62
    3
 10
275.36751290833905
 20
393.86665508896112
 11
275.36751290833905
 21
787.86665508896078
  0
LINE
  8
_0-1_計細線
  6
CONTINUOUS
 62
    3
 10
275.36751290833905
 20
787.86665508896078
 11
278.36751290833899
 21
787.86665508896078
  0
LINE
  8
_0-1_計細線
  6
CONTINUOUS
 62
    3
 10
278.36751290833899
 20
787.86665508896078
 11
278.36751290833899
 21
393.86665508896112
  0
LINE
  8
_0-1_計細線
  6
CONTINUOUS
 62
    3
 10
249.86751290833899
 20
393.86665508896112
 11
246.86751290833897
 21
393.86665508896112
  0
LINE
  8
_0-1_計細線
  6
CONTINUOUS
 62
    3
 10
246.86751290833897
 20
393.86665508896112
 11
246.86751290833897
 21
787.86665508896078
  0
LINE
  8
_0-1_計細線
  6
CONTINUOUS
 62
    3
 10
246.86751290833897
 20
787.86665508896078
 11
249.86751290833899
 21
787.86665508896078
  0
LINE
  8
_0-1_計細線
  6
CONTINUOUS
 62
    3
 10
249.86751290833899
 20
787.86665508896078
 11
249.86751290833899
 21
393.86665508896112
  0
LINE
  8
_0-1_計細線
  6
CONTINUOUS
 62
    3
 10
268.36751290833899
 20
393.86665508896112
 11
265.36751290833905
 21
393.86665508896112
  0
LINE
  8
_0-1_計細線
  6
CONTINUOUS
 62
    3
 10
265.36751290833905
 20
393.86665508896112
 11
265.36751290833905
 21
787.86665508896078
  0
LINE
  8
_0-1_計細線
  6
CONTINUOUS
 62
    3
 10
265.36751290833905
 20
787.86665508896078
 11
268.36751290833899
 21
787.86665508896078
  0
LINE
  8
_0-1_計細線
  6
CONTINUOUS
 62
    3
 10
268.36751290833899
 20
787.86665508896078
 11
268.36751290833899
 21
393.86665508896112
  0
LINE
  8
_0-1_計細線
  6
CONTINUOUS
 62
    3
 10
258.36751290833899
 20
393.86665508896112
 11
255.36751290833905
 21
393.86665508896112
  0
LINE
  8
_0-1_計細線
  6
CONTINUOUS
 62
    3
 10
255.36751290833905
 20
393.86665508896112
 11
255.36751290833905
 21
787.86665508896078
  0
LINE
  8
_0-1_計細線
  6
CONTINUOUS
 62
    3
 10
255.36751290833905
 20
787.86665508896078
 11
258.36751290833899
 21
787.86665508896078
  0
LINE
  8
_0-1_計細線
  6
CONTINUOUS
 62
    3
 10
258.36751290833899
 20
787.86665508896078
 11
258.36751290833899
 21
393.86665508896112
  0
LINE
  8
_0-1_計細線
  6
CONTINUOUS
 62
    3
 10
648.86751290833899
 20
792.86665508896078
 11
244.86751290833899
 21
792.86665508896078
  0
LINE
  8
_0-1_計細線
  6
CONTINUOUS
 62
    3
 10
244.86751290833899
 20
792.86665508896078
 11
244.86751290833899
 21
388.86665508896112
  0
LINE
  8
_0-1_計細線
  6
CONTINUOUS
 62
    3
 10
244.86751290833899
 20
388.86665508896112
 11
648.86751290833899
 21
388.86665508896112
  0
LINE
  8
_0-1_計細線
  6
CONTINUOUS
 62
    3
 10
648.86751290833899
 20
388.86665508896112
 11
648.86751290833899
 21
792.86665508896078
  0
LINE
  8
_0-1_計細線
  6
CONTINUOUS
 62
    3
 10
646.86751290833899
 20
393.86665508896112
 11
246.86751290833897
 21
393.86665508896112
  0
LINE
  8
_0-1_計細線
  6
CONTINUOUS
 62
    3
 10
246.86751290833897
 20
393.86665508896112
 11
246.86751290833897
 21
390.86665508896118
  0
LINE
  8
_0-1_計細線
  6
CONTINUOUS
 62
    3
 10
246.86751290833897
 20
390.86665508896118
 11
646.86751290833899
 21
390.86665508896118
  0
LINE
  8
_0-1_計細線
  6
CONTINUOUS
 62
    3
 10
646.86751290833899
 20
390.86665508896118
 11
646.86751290833899
 21
393.86665508896112
  0
LINE
  8
_0-1_計細線
  6
CONTINUOUS
 62
    3
 10
646.86751290833899
 20
790.86665508896078
 11
246.86751290833897
 21
790.86665508896078
  0
LINE
  8
_0-1_計細線
  6
CONTINUOUS
 62
    3
 10
246.86751290833897
 20
790.86665508896078
 11
246.86751290833897
 21
787.86665508896078
  0
LINE
  8
_0-1_計細線
  6
CONTINUOUS
 62
    3
 10
246.86751290833897
 20
787.86665508896078
 11
646.86751290833899
 21
787.86665508896078
  0
LINE
  8
_0-1_計細線
  6
CONTINUOUS
 62
    3
 10
646.86751290833899
 20
787.86665508896078
 11
646.86751290833899
 21
790.86665508896078
  0
LINE
  8
_0-1_計細線
  6
CONTINUOUS
 62
    3
 10
651.86751290833899
 20
795.86665508896078
 11
241.86751290833897
 21
795.86665508896078
  0
LINE
  8
_0-1_計細線
  6
CONTINUOUS
 62
    3
 10
241.86751290833897
 20
795.86665508896078
 11
241.86751290833897
 21
385.86665508896118
  0
LINE
  8
_0-1_計細線
  6
CONTINUOUS
 62
    3
 10
241.86751290833897
 20
385.86665508896118
 11
651.86751290833899
 21
385.86665508896118
  0
LINE
  8
_0-1_計細線
  6
CONTINUOUS
 62
    3
 10
651.86751290833899
 20
385.86665508896118
 11
651.86751290833899
 21
795.86665508896078
  0
LINE
  8
_0-0_計極細
  6
CONTINUOUS
 62
    2
 10
643.86751290833899
 20
488.36665508896118
 11
638.36751290833899
 21
488.36665508896118
  0
LINE
  8
_0-0_計極細
  6
CONTINUOUS
 62
    2
 10
643.86751290833899
 20
493.36665508896118
 11
638.36751290833899
 21
493.36665508896118
  0
LINE
  8
_0-0_計極細
  6
CONTINUOUS
 62
    2
 10
643.86751290833899
 20
588.36665508896067
 11
638.36751290833899
 21
588.36665508896067
  0
LINE
  8
_0-0_計極細
  6
CONTINUOUS
 62
    2
 10
643.86751290833899
 20
593.36665508896067
 11
638.36751290833899
 21
593.36665508896067
  0
LINE
  8
_0-0_計極細
  6
CONTINUOUS
 62
    2
 10
643.86751290833899
 20
693.36665508896078
 11
638.36751290833899
 21
693.36665508896078
  0
LINE
  8
_0-0_計極細
  6
CONTINUOUS
 62
    2
 10
643.86751290833899
 20
688.36665508896078
 11
638.36751290833899
 21
688.36665508896078
  0
LINE
  8
_0-0_計極細
  6
CONTINUOUS
 62
    2
 10
628.36751290833899
 20
488.36665508896118
 11
635.36751290833899
 21
488.36665508896118
  0
LINE
  8
_0-0_計極細
  6
CONTINUOUS
 62
    2
 10
628.36751290833899
 20
493.36665508896118
 11
635.36751290833899
 21
493.36665508896118
  0
LINE
  8
_0-0_計極細
  6
CONTINUOUS
 62
    2
 10
628.36751290833899
 20
588.36665508896067
 11
635.36751290833899
 21
588.36665508896067
  0
LINE
  8
_0-0_計極細
  6
CONTINUOUS
 62
    2
 10
628.36751290833899
 20
593.36665508896067
 11
635.36751290833899
 21
593.36665508896067
  0
LINE
  8
_0-0_計極細
  6
CONTINUOUS
 62
    2
 10
628.36751290833899
 20
693.36665508896078
 11
635.36751290833899
 21
693.36665508896078
  0
LINE
  8
_0-0_計極細
  6
CONTINUOUS
 62
    2
 10
628.36751290833899
 20
688.36665508896078
 11
635.36751290833899
 21
688.36665508896078
  0
LINE
  8
_0-0_計極細
  6
CONTINUOUS
 62
    2
 10
618.36751290833899
 20
488.36665508896118
 11
625.36751290833899
 21
488.36665508896118
  0
LINE
  8
_0-0_計極細
  6
CONTINUOUS
 62
    2
 10
618.36751290833899
 20
493.36665508896118
 11
625.36751290833899
 21
493.36665508896118
  0
LINE
  8
_0-0_計極細
  6
CONTINUOUS
 62
    2
 10
618.36751290833899
 20
588.36665508896067
 11
625.36751290833899
 21
588.36665508896067
  0
LINE
  8
_0-0_計極細
  6
CONTINUOUS
 62
    2
 10
618.36751290833899
 20
593.36665508896067
 11
625.36751290833899
 21
593.36665508896067
  0
LINE
  8
_0-0_計極細
  6
CONTINUOUS
 62
    2
 10
618.36751290833899
 20
693.36665508896078
 11
625.36751290833899
 21
693.36665508896078
  0
LINE
  8
_0-0_計極細
  6
CONTINUOUS
 62
    2
 10
618.36751290833899
 20
688.36665508896078
 11
625.36751290833899
 21
688.36665508896078
  0
LINE
  8
_0-0_計極細
  6
CONTINUOUS
 62
    2
 10
608.36751290833899
 20
488.36665508896118
 11
615.36751290833899
 21
488.36665508896118
  0
LINE
  8
_0-0_計極細
  6
CONTINUOUS
 62
    2
 10
608.36751290833899
 20
493.36665508896118
 11
615.36751290833899
 21
493.36665508896118
  0
LINE
  8
_0-0_計極細
  6
CONTINUOUS
 62
    2
 10
608.36751290833899
 20
588.36665508896067
 11
615.36751290833899
 21
588.36665508896067
  0
LINE
  8
_0-0_計極細
  6
CONTINUOUS
 62
    2
 10
608.36751290833899
 20
593.36665508896067
 11
615.36751290833899
 21
593.36665508896067
  0
LINE
  8
_0-0_計極細
  6
CONTINUOUS
 62
    2
 10
608.36751290833899
 20
693.36665508896078
 11
615.36751290833899
 21
693.36665508896078
  0
LINE
  8
_0-0_計極細
  6
CONTINUOUS
 62
    2
 10
608.36751290833899
 20
688.36665508896078
 11
615.36751290833899
 21
688.36665508896078
  0
LINE
  8
_0-0_計極細
  6
CONTINUOUS
 62
    2
 10
598.36751290833899
 20
488.36665508896118
 11
605.36751290833899
 21
488.36665508896118
  0
LINE
  8
_0-0_計極細
  6
CONTINUOUS
 62
    2
 10
598.36751290833899
 20
493.36665508896118
 11
605.36751290833899
 21
493.36665508896118
  0
LINE
  8
_0-0_計極細
  6
CONTINUOUS
 62
    2
 10
598.36751290833899
 20
588.36665508896067
 11
605.36751290833899
 21
588.36665508896067
  0
LINE
  8
_0-0_計極細
  6
CONTINUOUS
 62
    2
 10
598.36751290833899
 20
593.36665508896067
 11
605.36751290833899
 21
593.36665508896067
  0
LINE
  8
_0-0_計極細
  6
CONTINUOUS
 62
    2
 10
598.36751290833899
 20
693.36665508896078
 11
605.36751290833899
 21
693.36665508896078
  0
LINE
  8
_0-0_計極細
  6
CONTINUOUS
 62
    2
 10
598.36751290833899
 20
688.36665508896078
 11
605.36751290833899
 21
688.36665508896078
  0
LINE
  8
_0-0_計極細
  6
CONTINUOUS
 62
    2
 10
588.36751290833899
 20
488.36665508896118
 11
595.36751290833899
 21
488.36665508896118
  0
LINE
  8
_0-0_計極細
  6
CONTINUOUS
 62
    2
 10
588.36751290833899
 20
493.36665508896118
 11
595.36751290833899
 21
493.36665508896118
  0
LINE
  8
_0-0_計極細
  6
CONTINUOUS
 62
    2
 10
588.36751290833899
 20
588.36665508896067
 11
595.36751290833899
 21
588.36665508896067
  0
LINE
  8
_0-0_計極細
  6
CONTINUOUS
 62
    2
 10
588.36751290833899
 20
593.36665508896067
 11
595.36751290833899
 21
593.36665508896067
  0
LINE
  8
_0-0_計極細
  6
CONTINUOUS
 62
    2
 10
588.36751290833899
 20
693.36665508896078
 11
595.36751290833899
 21
693.36665508896078
  0
LINE
  8
_0-0_計極細
  6
CONTINUOUS
 62
    2
 10
588.36751290833899
 20
688.36665508896078
 11
595.36751290833899
 21
688.36665508896078
  0
LINE
  8
_0-0_計極細
  6
CONTINUOUS
 62
    2
 10
578.36751290833899
 20
488.36665508896118
 11
585.36751290833899
 21
488.36665508896118
  0
LINE
  8
_0-0_計極細
  6
CONTINUOUS
 62
    2
 10
578.36751290833899
 20
493.36665508896118
 11
585.36751290833899
 21
493.36665508896118
  0
LINE
  8
_0-0_計極細
  6
CONTINUOUS
 62
    2
 10
578.36751290833899
 20
588.36665508896067
 11
585.36751290833899
 21
588.36665508896067
  0
LINE
  8
_0-0_計極細
  6
CONTINUOUS
 62
    2
 10
578.36751290833899
 20
593.36665508896067
 11
585.36751290833899
 21
593.36665508896067
  0
LINE
  8
_0-0_計極細
  6
CONTINUOUS
 62
    2
 10
578.36751290833899
 20
693.36665508896078
 11
585.36751290833899
 21
693.36665508896078
  0
LINE
  8
_0-0_計極細
  6
CONTINUOUS
 62
    2
 10
578.36751290833899
 20
688.36665508896078
 11
585.36751290833899
 21
688.36665508896078
  0
LINE
  8
_0-0_計極細
  6
CONTINUOUS
 62
    2
 10
568.36751290833899
 20
488.36665508896118
 11
575.36751290833899
 21
488.36665508896118
  0
LINE
  8
_0-0_計極細
  6
CONTINUOUS
 62
    2
 10
568.36751290833899
 20
493.36665508896118
 11
575.36751290833899
 21
493.36665508896118
  0
LINE
  8
_0-0_計極細
  6
CONTINUOUS
 62
    2
 10
568.36751290833899
 20
588.36665508896067
 11
575.36751290833899
 21
588.36665508896067
  0
LINE
  8
_0-0_計極細
  6
CONTINUOUS
 62
    2
 10
568.36751290833899
 20
593.36665508896067
 11
575.36751290833899
 21
593.36665508896067
  0
LINE
  8
_0-0_計極細
  6
CONTINUOUS
 62
    2
 10
568.36751290833899
 20
693.36665508896078
 11
575.36751290833899
 21
693.36665508896078
  0
LINE
  8
_0-0_計極細
  6
CONTINUOUS
 62
    2
 10
568.36751290833899
 20
688.36665508896078
 11
575.36751290833899
 21
688.36665508896078
  0
LINE
  8
_0-0_計極細
  6
CONTINUOUS
 62
    2
 10
558.36751290833899
 20
488.36665508896118
 11
565.36751290833899
 21
488.36665508896118
  0
LINE
  8
_0-0_計極細
  6
CONTINUOUS
 62
    2
 10
558.36751290833899
 20
493.36665508896118
 11
565.36751290833899
 21
493.36665508896118
  0
LINE
  8
_0-0_計極細
  6
CONTINUOUS
 62
    2
 10
558.36751290833899
 20
588.36665508896067
 11
565.36751290833899
 21
588.36665508896067
  0
LINE
  8
_0-0_計極細
  6
CONTINUOUS
 62
    2
 10
558.36751290833899
 20
593.36665508896067
 11
565.36751290833899
 21
593.36665508896067
  0
LINE
  8
_0-0_計極細
  6
CONTINUOUS
 62
    2
 10
558.36751290833899
 20
693.36665508896078
 11
565.36751290833899
 21
693.36665508896078
  0
LINE
  8
_0-0_計極細
  6
CONTINUOUS
 62
    2
 10
558.36751290833899
 20
688.36665508896078
 11
565.36751290833899
 21
688.36665508896078
  0
LINE
  8
_0-0_計極細
  6
CONTINUOUS
 62
    2
 10
548.36751290833899
 20
488.36665508896118
 11
555.36751290833899
 21
488.36665508896118
  0
LINE
  8
_0-0_計極細
  6
CONTINUOUS
 62
    2
 10
548.36751290833899
 20
493.36665508896118
 11
555.36751290833899
 21
493.36665508896118
  0
LINE
  8
_0-0_計極細
  6
CONTINUOUS
 62
    2
 10
548.36751290833899
 20
588.36665508896067
 11
555.36751290833899
 21
588.36665508896067
  0
LINE
  8
_0-0_計極細
  6
CONTINUOUS
 62
    2
 10
548.36751290833899
 20
593.36665508896067
 11
555.36751290833899
 21
593.36665508896067
  0
LINE
  8
_0-0_計極細
  6
CONTINUOUS
 62
    2
 10
548.36751290833899
 20
693.36665508896078
 11
555.36751290833899
 21
693.36665508896078
  0
LINE
  8
_0-0_計極細
  6
CONTINUOUS
 62
    2
 10
548.36751290833899
 20
688.36665508896078
 11
555.36751290833899
 21
688.36665508896078
  0
LINE
  8
_0-0_計極細
  6
CONTINUOUS
 62
    2
 10
538.36751290833899
 20
488.36665508896118
 11
545.36751290833899
 21
488.36665508896118
  0
LINE
  8
_0-0_計極細
  6
CONTINUOUS
 62
    2
 10
538.36751290833899
 20
493.36665508896118
 11
545.36751290833899
 21
493.36665508896118
  0
LINE
  8
_0-0_計極細
  6
CONTINUOUS
 62
    2
 10
538.36751290833899
 20
588.36665508896067
 11
545.36751290833899
 21
588.36665508896067
  0
LINE
  8
_0-0_計極細
  6
CONTINUOUS
 62
    2
 10
538.36751290833899
 20
593.36665508896067
 11
545.36751290833899
 21
593.36665508896067
  0
LINE
  8
_0-0_計極細
  6
CONTINUOUS
 62
    2
 10
538.36751290833899
 20
693.36665508896078
 11
545.36751290833899
 21
693.36665508896078
  0
LINE
  8
_0-0_計極細
  6
CONTINUOUS
 62
    2
 10
538.36751290833899
 20
688.36665508896078
 11
545.36751290833899
 21
688.36665508896078
  0
LINE
  8
_0-0_計極細
  6
CONTINUOUS
 62
    2
 10
528.36751290833899
 20
488.36665508896118
 11
535.36751290833899
 21
488.36665508896118
  0
LINE
  8
_0-0_計極細
  6
CONTINUOUS
 62
    2
 10
528.36751290833899
 20
493.36665508896118
 11
535.36751290833899
 21
493.36665508896118
  0
LINE
  8
_0-0_計極細
  6
CONTINUOUS
 62
    2
 10
528.36751290833899
 20
588.36665508896067
 11
535.36751290833899
 21
588.36665508896067
  0
LINE
  8
_0-0_計極細
  6
CONTINUOUS
 62
    2
 10
528.36751290833899
 20
593.36665508896067
 11
535.36751290833899
 21
593.36665508896067
  0
LINE
  8
_0-0_計極細
  6
CONTINUOUS
 62
    2
 10
528.36751290833899
 20
693.36665508896078
 11
535.36751290833899
 21
693.36665508896078
  0
LINE
  8
_0-0_計極細
  6
CONTINUOUS
 62
    2
 10
528.36751290833899
 20
688.36665508896078
 11
535.36751290833899
 21
688.36665508896078
  0
LINE
  8
_0-0_計極細
  6
CONTINUOUS
 62
    2
 10
518.36751290833899
 20
488.36665508896118
 11
525.36751290833899
 21
488.36665508896118
  0
LINE
  8
_0-0_計極細
  6
CONTINUOUS
 62
    2
 10
518.36751290833899
 20
493.36665508896118
 11
525.36751290833899
 21
493.36665508896118
  0
LINE
  8
_0-0_計極細
  6
CONTINUOUS
 62
    2
 10
518.36751290833899
 20
588.36665508896067
 11
525.36751290833899
 21
588.36665508896067
  0
LINE
  8
_0-0_計極細
  6
CONTINUOUS
 62
    2
 10
518.36751290833899
 20
593.36665508896067
 11
525.36751290833899
 21
593.36665508896067
  0
LINE
  8
_0-0_計極細
  6
CONTINUOUS
 62
    2
 10
518.36751290833899
 20
693.36665508896078
 11
525.36751290833899
 21
693.36665508896078
  0
LINE
  8
_0-0_計極細
  6
CONTINUOUS
 62
    2
 10
518.36751290833899
 20
688.36665508896078
 11
525.36751290833899
 21
688.36665508896078
  0
LINE
  8
_0-0_計極細
  6
CONTINUOUS
 62
    2
 10
508.36751290833899
 20
488.36665508896118
 11
515.36751290833899
 21
488.36665508896118
  0
LINE
  8
_0-0_計極細
  6
CONTINUOUS
 62
    2
 10
508.36751290833899
 20
493.36665508896118
 11
515.36751290833899
 21
493.36665508896118
  0
LINE
  8
_0-0_計極細
  6
CONTINUOUS
 62
    2
 10
508.36751290833899
 20
588.36665508896067
 11
515.36751290833899
 21
588.36665508896067
  0
LINE
  8
_0-0_計極細
  6
CONTINUOUS
 62
    2
 10
508.36751290833899
 20
593.36665508896067
 11
515.36751290833899
 21
593.36665508896067
  0
LINE
  8
_0-0_計極細
  6
CONTINUOUS
 62
    2
 10
508.36751290833899
 20
693.36665508896078
 11
515.36751290833899
 21
693.36665508896078
  0
LINE
  8
_0-0_計極細
  6
CONTINUOUS
 62
    2
 10
508.36751290833899
 20
688.36665508896078
 11
515.36751290833899
 21
688.36665508896078
  0
LINE
  8
_0-0_計極細
  6
CONTINUOUS
 62
    2
 10
498.36751290833899
 20
488.36665508896118
 11
505.36751290833905
 21
488.36665508896118
  0
LINE
  8
_0-0_計極細
  6
CONTINUOUS
 62
    2
 10
498.36751290833899
 20
493.36665508896118
 11
505.36751290833905
 21
493.36665508896118
  0
LINE
  8
_0-0_計極細
  6
CONTINUOUS
 62
    2
 10
498.36751290833899
 20
588.36665508896067
 11
505.36751290833905
 21
588.36665508896067
  0
LINE
  8
_0-0_計極細
  6
CONTINUOUS
 62
    2
 10
498.36751290833899
 20
593.36665508896067
 11
505.36751290833905
 21
593.36665508896067
  0
LINE
  8
_0-0_計極細
  6
CONTINUOUS
 62
    2
 10
498.36751290833899
 20
693.36665508896078
 11
505.36751290833905
 21
693.36665508896078
  0
LINE
  8
_0-0_計極細
  6
CONTINUOUS
 62
    2
 10
498.36751290833899
 20
688.36665508896078
 11
505.36751290833905
 21
688.36665508896078
  0
LINE
  8
_0-0_計極細
  6
CONTINUOUS
 62
    2
 10
488.36751290833899
 20
488.36665508896118
 11
495.36751290833905
 21
488.36665508896118
  0
LINE
  8
_0-0_計極細
  6
CONTINUOUS
 62
    2
 10
488.36751290833899
 20
493.36665508896118
 11
495.36751290833905
 21
493.36665508896118
  0
LINE
  8
_0-0_計極細
  6
CONTINUOUS
 62
    2
 10
488.36751290833899
 20
588.36665508896067
 11
495.36751290833905
 21
588.36665508896067
  0
LINE
  8
_0-0_計極細
  6
CONTINUOUS
 62
    2
 10
488.36751290833899
 20
593.36665508896067
 11
495.36751290833905
 21
593.36665508896067
  0
LINE
  8
_0-0_計極細
  6
CONTINUOUS
 62
    2
 10
488.36751290833899
 20
693.36665508896078
 11
495.36751290833905
 21
693.36665508896078
  0
LINE
  8
_0-0_計極細
  6
CONTINUOUS
 62
    2
 10
488.36751290833899
 20
688.36665508896078
 11
495.36751290833905
 21
688.36665508896078
  0
LINE
  8
_0-0_計極細
  6
CONTINUOUS
 62
    2
 10
478.36751290833899
 20
488.36665508896118
 11
485.36751290833905
 21
488.36665508896118
  0
LINE
  8
_0-0_計極細
  6
CONTINUOUS
 62
    2
 10
478.36751290833899
 20
493.36665508896118
 11
485.36751290833905
 21
493.36665508896118
  0
LINE
  8
_0-0_計極細
  6
CONTINUOUS
 62
    2
 10
478.36751290833899
 20
588.36665508896067
 11
485.36751290833905
 21
588.36665508896067
  0
LINE
  8
_0-0_計極細
  6
CONTINUOUS
 62
    2
 10
478.36751290833899
 20
593.36665508896067
 11
485.36751290833905
 21
593.36665508896067
  0
LINE
  8
_0-0_計極細
  6
CONTINUOUS
 62
    2
 10
478.36751290833899
 20
693.36665508896078
 11
485.36751290833905
 21
693.36665508896078
  0
LINE
  8
_0-0_計極細
  6
CONTINUOUS
 62
    2
 10
478.36751290833899
 20
688.36665508896078
 11
485.36751290833905
 21
688.36665508896078
  0
LINE
  8
_0-0_計極細
  6
CONTINUOUS
 62
    2
 10
468.36751290833899
 20
488.36665508896118
 11
475.36751290833905
 21
488.36665508896118
  0
LINE
  8
_0-0_計極細
  6
CONTINUOUS
 62
    2
 10
468.36751290833899
 20
493.36665508896118
 11
475.36751290833905
 21
493.36665508896118
  0
LINE
  8
_0-0_計極細
  6
CONTINUOUS
 62
    2
 10
468.36751290833899
 20
588.36665508896067
 11
475.36751290833905
 21
588.36665508896067
  0
LINE
  8
_0-0_計極細
  6
CONTINUOUS
 62
    2
 10
468.36751290833899
 20
593.36665508896067
 11
475.36751290833905
 21
593.36665508896067
  0
LINE
  8
_0-0_計極細
  6
CONTINUOUS
 62
    2
 10
468.36751290833899
 20
693.36665508896078
 11
475.36751290833905
 21
693.36665508896078
  0
LINE
  8
_0-0_計極細
  6
CONTINUOUS
 62
    2
 10
468.36751290833899
 20
688.36665508896078
 11
475.36751290833905
 21
688.36665508896078
  0
LINE
  8
_0-0_計極細
  6
CONTINUOUS
 62
    2
 10
458.36751290833899
 20
488.36665508896118
 11
465.36751290833905
 21
488.36665508896118
  0
LINE
  8
_0-0_計極細
  6
CONTINUOUS
 62
    2
 10
458.36751290833899
 20
493.36665508896118
 11
465.36751290833905
 21
493.36665508896118
  0
LINE
  8
_0-0_計極細
  6
CONTINUOUS
 62
    2
 10
458.36751290833899
 20
588.36665508896067
 11
465.36751290833905
 21
588.36665508896067
  0
LINE
  8
_0-0_計極細
  6
CONTINUOUS
 62
    2
 10
458.36751290833899
 20
593.36665508896067
 11
465.36751290833905
 21
593.36665508896067
  0
LINE
  8
_0-0_計極細
  6
CONTINUOUS
 62
    2
 10
458.36751290833899
 20
693.36665508896078
 11
465.36751290833905
 21
693.36665508896078
  0
LINE
  8
_0-0_計極細
  6
CONTINUOUS
 62
    2
 10
458.36751290833899
 20
688.36665508896078
 11
465.36751290833905
 21
688.36665508896078
  0
LINE
  8
_0-0_計極細
  6
CONTINUOUS
 62
    2
 10
448.36751290833899
 20
488.36665508896118
 11
455.36751290833905
 21
488.36665508896118
  0
LINE
  8
_0-0_計極細
  6
CONTINUOUS
 62
    2
 10
448.36751290833899
 20
493.36665508896118
 11
455.36751290833905
 21
493.36665508896118
  0
LINE
  8
_0-0_計極細
  6
CONTINUOUS
 62
    2
 10
448.36751290833899
 20
588.36665508896067
 11
455.36751290833905
 21
588.36665508896067
  0
LINE
  8
_0-0_計極細
  6
CONTINUOUS
 62
    2
 10
448.36751290833899
 20
593.36665508896067
 11
455.36751290833905
 21
593.36665508896067
  0
LINE
  8
_0-0_計極細
  6
CONTINUOUS
 62
    2
 10
448.36751290833899
 20
693.36665508896078
 11
455.36751290833905
 21
693.36665508896078
  0
LINE
  8
_0-0_計極細
  6
CONTINUOUS
 62
    2
 10
448.36751290833899
 20
688.36665508896078
 11
455.36751290833905
 21
688.36665508896078
  0
LINE
  8
_0-0_計極細
  6
CONTINUOUS
 62
    2
 10
438.36751290833899
 20
488.36665508896118
 11
445.36751290833905
 21
488.36665508896118
  0
LINE
  8
_0-0_計極細
  6
CONTINUOUS
 62
    2
 10
438.36751290833899
 20
493.36665508896118
 11
445.36751290833905
 21
493.36665508896118
  0
LINE
  8
_0-0_計極細
  6
CONTINUOUS
 62
    2
 10
438.36751290833899
 20
588.36665508896067
 11
445.36751290833905
 21
588.36665508896067
  0
LINE
  8
_0-0_計極細
  6
CONTINUOUS
 62
    2
 10
438.36751290833899
 20
593.36665508896067
 11
445.36751290833905
 21
593.36665508896067
  0
LINE
  8
_0-0_計極細
  6
CONTINUOUS
 62
    2
 10
438.36751290833899
 20
693.36665508896078
 11
445.36751290833905
 21
693.36665508896078
  0
LINE
  8
_0-0_計極細
  6
CONTINUOUS
 62
    2
 10
438.36751290833899
 20
688.36665508896078
 11
445.36751290833905
 21
688.36665508896078
  0
LINE
  8
_0-0_計極細
  6
CONTINUOUS
 62
    2
 10
428.36751290833899
 20
488.36665508896118
 11
435.36751290833905
 21
488.36665508896118
  0
LINE
  8
_0-0_計極細
  6
CONTINUOUS
 62
    2
 10
428.36751290833899
 20
493.36665508896118
 11
435.36751290833905
 21
493.36665508896118
  0
LINE
  8
_0-0_計極細
  6
CONTINUOUS
 62
    2
 10
428.36751290833899
 20
588.36665508896067
 11
435.36751290833905
 21
588.36665508896067
  0
LINE
  8
_0-0_計極細
  6
CONTINUOUS
 62
    2
 10
428.36751290833899
 20
593.36665508896067
 11
435.36751290833905
 21
593.36665508896067
  0
LINE
  8
_0-0_計極細
  6
CONTINUOUS
 62
    2
 10
428.36751290833899
 20
693.36665508896078
 11
435.36751290833905
 21
693.36665508896078
  0
LINE
  8
_0-0_計極細
  6
CONTINUOUS
 62
    2
 10
428.36751290833899
 20
688.36665508896078
 11
435.36751290833905
 21
688.36665508896078
  0
LINE
  8
_0-0_計極細
  6
CONTINUOUS
 62
    2
 10
418.36751290833899
 20
488.36665508896118
 11
425.36751290833905
 21
488.36665508896118
  0
LINE
  8
_0-0_計極細
  6
CONTINUOUS
 62
    2
 10
418.36751290833899
 20
493.36665508896118
 11
425.36751290833905
 21
493.36665508896118
  0
LINE
  8
_0-0_計極細
  6
CONTINUOUS
 62
    2
 10
418.36751290833899
 20
588.36665508896067
 11
425.36751290833905
 21
588.36665508896067
  0
LINE
  8
_0-0_計極細
  6
CONTINUOUS
 62
    2
 10
418.36751290833899
 20
593.36665508896067
 11
425.36751290833905
 21
593.36665508896067
  0
LINE
  8
_0-0_計極細
  6
CONTINUOUS
 62
    2
 10
418.36751290833899
 20
693.36665508896078
 11
425.36751290833905
 21
693.36665508896078
  0
LINE
  8
_0-0_計極細
  6
CONTINUOUS
 62
    2
 10
418.36751290833899
 20
688.36665508896078
 11
425.36751290833905
 21
688.36665508896078
  0
LINE
  8
_0-0_計極細
  6
CONTINUOUS
 62
    2
 10
408.36751290833899
 20
488.36665508896118
 11
415.36751290833905
 21
488.36665508896118
  0
LINE
  8
_0-0_計極細
  6
CONTINUOUS
 62
    2
 10
408.36751290833899
 20
493.36665508896118
 11
415.36751290833905
 21
493.36665508896118
  0
LINE
  8
_0-0_計極細
  6
CONTINUOUS
 62
    2
 10
408.36751290833899
 20
588.36665508896067
 11
415.36751290833905
 21
588.36665508896067
  0
LINE
  8
_0-0_計極細
  6
CONTINUOUS
 62
    2
 10
408.36751290833899
 20
593.36665508896067
 11
415.36751290833905
 21
593.36665508896067
  0
LINE
  8
_0-0_計極細
  6
CONTINUOUS
 62
    2
 10
408.36751290833899
 20
693.36665508896078
 11
415.36751290833905
 21
693.36665508896078
  0
LINE
  8
_0-0_計極細
  6
CONTINUOUS
 62
    2
 10
408.36751290833899
 20
688.36665508896078
 11
415.36751290833905
 21
688.36665508896078
  0
LINE
  8
_0-0_計極細
  6
CONTINUOUS
 62
    2
 10
398.36751290833899
 20
488.36665508896118
 11
405.36751290833905
 21
488.36665508896118
  0
LINE
  8
_0-0_計極細
  6
CONTINUOUS
 62
    2
 10
398.36751290833899
 20
493.36665508896118
 11
405.36751290833905
 21
493.36665508896118
  0
LINE
  8
_0-0_計極細
  6
CONTINUOUS
 62
    2
 10
398.36751290833899
 20
588.36665508896067
 11
405.36751290833905
 21
588.36665508896067
  0
LINE
  8
_0-0_計極細
  6
CONTINUOUS
 62
    2
 10
398.36751290833899
 20
593.36665508896067
 11
405.36751290833905
 21
593.36665508896067
  0
LINE
  8
_0-0_計極細
  6
CONTINUOUS
 62
    2
 10
398.36751290833899
 20
693.36665508896078
 11
405.36751290833905
 21
693.36665508896078
  0
LINE
  8
_0-0_計極細
  6
CONTINUOUS
 62
    2
 10
398.36751290833899
 20
688.36665508896078
 11
405.36751290833905
 21
688.36665508896078
  0
LINE
  8
_0-0_計極細
  6
CONTINUOUS
 62
    2
 10
388.36751290833899
 20
488.36665508896118
 11
395.36751290833905
 21
488.36665508896118
  0
LINE
  8
_0-0_計極細
  6
CONTINUOUS
 62
    2
 10
388.36751290833899
 20
493.36665508896118
 11
395.36751290833905
 21
493.36665508896118
  0
LINE
  8
_0-0_計極細
  6
CONTINUOUS
 62
    2
 10
388.36751290833899
 20
588.36665508896067
 11
395.36751290833905
 21
588.36665508896067
  0
LINE
  8
_0-0_計極細
  6
CONTINUOUS
 62
    2
 10
388.36751290833899
 20
593.36665508896067
 11
395.36751290833905
 21
593.36665508896067
  0
LINE
  8
_0-0_計極細
  6
CONTINUOUS
 62
    2
 10
388.36751290833899
 20
693.36665508896078
 11
395.36751290833905
 21
693.36665508896078
  0
LINE
  8
_0-0_計極細
  6
CONTINUOUS
 62
    2
 10
388.36751290833899
 20
688.36665508896078
 11
395.36751290833905
 21
688.36665508896078
  0
LINE
  8
_0-0_計極細
  6
CONTINUOUS
 62
    2
 10
378.36751290833899
 20
488.36665508896118
 11
385.36751290833905
 21
488.36665508896118
  0
LINE
  8
_0-0_計極細
  6
CONTINUOUS
 62
    2
 10
378.36751290833899
 20
493.36665508896118
 11
385.36751290833905
 21
493.36665508896118
  0
LINE
  8
_0-0_計極細
  6
CONTINUOUS
 62
    2
 10
378.36751290833899
 20
588.36665508896067
 11
385.36751290833905
 21
588.36665508896067
  0
LINE
  8
_0-0_計極細
  6
CONTINUOUS
 62
    2
 10
378.36751290833899
 20
593.36665508896067
 11
385.36751290833905
 21
593.36665508896067
  0
LINE
  8
_0-0_計極細
  6
CONTINUOUS
 62
    2
 10
378.36751290833899
 20
693.36665508896078
 11
385.36751290833905
 21
693.36665508896078
  0
LINE
  8
_0-0_計極細
  6
CONTINUOUS
 62
    2
 10
378.36751290833899
 20
688.36665508896078
 11
385.36751290833905
 21
688.36665508896078
  0
LINE
  8
_0-0_計極細
  6
CONTINUOUS
 62
    2
 10
368.36751290833899
 20
488.36665508896118
 11
375.36751290833899
 21
488.36665508896118
  0
LINE
  8
_0-0_計極細
  6
CONTINUOUS
 62
    2
 10
368.36751290833899
 20
493.36665508896118
 11
375.36751290833899
 21
493.36665508896118
  0
LINE
  8
_0-0_計極細
  6
CONTINUOUS
 62
    2
 10
368.36751290833899
 20
588.36665508896067
 11
375.36751290833899
 21
588.36665508896067
  0
LINE
  8
_0-0_計極細
  6
CONTINUOUS
 62
    2
 10
368.36751290833899
 20
593.36665508896067
 11
375.36751290833899
 21
593.36665508896067
  0
LINE
  8
_0-0_計極細
  6
CONTINUOUS
 62
    2
 10
368.36751290833899
 20
693.36665508896078
 11
375.36751290833899
 21
693.36665508896078
  0
LINE
  8
_0-0_計極細
  6
CONTINUOUS
 62
    2
 10
368.36751290833899
 20
688.36665508896078
 11
375.36751290833899
 21
688.36665508896078
  0
LINE
  8
_0-0_計極細
  6
CONTINUOUS
 62
    2
 10
358.36751290833899
 20
488.36665508896118
 11
365.36751290833899
 21
488.36665508896118
  0
LINE
  8
_0-0_計極細
  6
CONTINUOUS
 62
    2
 10
358.36751290833899
 20
493.36665508896118
 11
365.36751290833899
 21
493.36665508896118
  0
LINE
  8
_0-0_計極細
  6
CONTINUOUS
 62
    2
 10
358.36751290833899
 20
588.36665508896067
 11
365.36751290833899
 21
588.36665508896067
  0
LINE
  8
_0-0_計極細
  6
CONTINUOUS
 62
    2
 10
358.36751290833899
 20
593.36665508896067
 11
365.36751290833899
 21
593.36665508896067
  0
LINE
  8
_0-0_計極細
  6
CONTINUOUS
 62
    2
 10
358.36751290833899
 20
693.36665508896078
 11
365.36751290833899
 21
693.36665508896078
  0
LINE
  8
_0-0_計極細
  6
CONTINUOUS
 62
    2
 10
358.36751290833899
 20
688.36665508896078
 11
365.36751290833899
 21
688.36665508896078
  0
LINE
  8
_0-0_計極細
  6
CONTINUOUS
 62
    2
 10
348.36751290833899
 20
488.36665508896118
 11
355.36751290833899
 21
488.36665508896118
  0
LINE
  8
_0-0_計極細
  6
CONTINUOUS
 62
    2
 10
348.36751290833899
 20
493.36665508896118
 11
355.36751290833899
 21
493.36665508896118
  0
LINE
  8
_0-0_計極細
  6
CONTINUOUS
 62
    2
 10
348.36751290833899
 20
588.36665508896067
 11
355.36751290833899
 21
588.36665508896067
  0
LINE
  8
_0-0_計極細
  6
CONTINUOUS
 62
    2
 10
348.36751290833899
 20
593.36665508896067
 11
355.36751290833899
 21
593.36665508896067
  0
LINE
  8
_0-0_計極細
  6
CONTINUOUS
 62
    2
 10
348.36751290833899
 20
693.36665508896078
 11
355.36751290833899
 21
693.36665508896078
  0
LINE
  8
_0-0_計極細
  6
CONTINUOUS
 62
    2
 10
348.36751290833899
 20
688.36665508896078
 11
355.36751290833899
 21
688.36665508896078
  0
LINE
  8
_0-0_計極細
  6
CONTINUOUS
 62
    2
 10
338.36751290833899
 20
488.36665508896118
 11
345.36751290833899
 21
488.36665508896118
  0
LINE
  8
_0-0_計極細
  6
CONTINUOUS
 62
    2
 10
338.36751290833899
 20
493.36665508896118
 11
345.36751290833899
 21
493.36665508896118
  0
LINE
  8
_0-0_計極細
  6
CONTINUOUS
 62
    2
 10
338.36751290833899
 20
588.36665508896067
 11
345.36751290833899
 21
588.36665508896067
  0
LINE
  8
_0-0_計極細
  6
CONTINUOUS
 62
    2
 10
338.36751290833899
 20
593.36665508896067
 11
345.36751290833899
 21
593.36665508896067
  0
LINE
  8
_0-0_計極細
  6
CONTINUOUS
 62
    2
 10
338.36751290833899
 20
693.36665508896078
 11
345.36751290833899
 21
693.36665508896078
  0
LINE
  8
_0-0_計極細
  6
CONTINUOUS
 62
    2
 10
338.36751290833899
 20
688.36665508896078
 11
345.36751290833899
 21
688.36665508896078
  0
LINE
  8
_0-0_計極細
  6
CONTINUOUS
 62
    2
 10
328.36751290833899
 20
488.36665508896118
 11
335.36751290833899
 21
488.36665508896118
  0
LINE
  8
_0-0_計極細
  6
CONTINUOUS
 62
    2
 10
328.36751290833899
 20
493.36665508896118
 11
335.36751290833899
 21
493.36665508896118
  0
LINE
  8
_0-0_計極細
  6
CONTINUOUS
 62
    2
 10
328.36751290833899
 20
588.36665508896067
 11
335.36751290833899
 21
588.36665508896067
  0
LINE
  8
_0-0_計極細
  6
CONTINUOUS
 62
    2
 10
328.36751290833899
 20
593.36665508896067
 11
335.36751290833899
 21
593.36665508896067
  0
LINE
  8
_0-0_計極細
  6
CONTINUOUS
 62
    2
 10
328.36751290833899
 20
693.36665508896078
 11
335.36751290833899
 21
693.36665508896078
  0
LINE
  8
_0-0_計極細
  6
CONTINUOUS
 62
    2
 10
328.36751290833899
 20
688.36665508896078
 11
335.36751290833899
 21
688.36665508896078
  0
LINE
  8
_0-0_計極細
  6
CONTINUOUS
 62
    2
 10
318.36751290833899
 20
488.36665508896118
 11
325.36751290833899
 21
488.36665508896118
  0
LINE
  8
_0-0_計極細
  6
CONTINUOUS
 62
    2
 10
318.36751290833899
 20
493.36665508896118
 11
325.36751290833899
 21
493.36665508896118
  0
LINE
  8
_0-0_計極細
  6
CONTINUOUS
 62
    2
 10
318.36751290833899
 20
588.36665508896067
 11
325.36751290833899
 21
588.36665508896067
  0
LINE
  8
_0-0_計極細
  6
CONTINUOUS
 62
    2
 10
318.36751290833899
 20
593.36665508896067
 11
325.36751290833899
 21
593.36665508896067
  0
LINE
  8
_0-0_計極細
  6
CONTINUOUS
 62
    2
 10
318.36751290833899
 20
693.36665508896078
 11
325.36751290833899
 21
693.36665508896078
  0
LINE
  8
_0-0_計極細
  6
CONTINUOUS
 62
    2
 10
318.36751290833899
 20
688.36665508896078
 11
325.36751290833899
 21
688.36665508896078
  0
LINE
  8
_0-0_計極細
  6
CONTINUOUS
 62
    2
 10
308.36751290833899
 20
488.36665508896118
 11
315.36751290833905
 21
488.36665508896118
  0
LINE
  8
_0-0_計極細
  6
CONTINUOUS
 62
    2
 10
308.36751290833899
 20
493.36665508896118
 11
315.36751290833905
 21
493.36665508896118
  0
LINE
  8
_0-0_計極細
  6
CONTINUOUS
 62
    2
 10
308.36751290833899
 20
588.36665508896067
 11
315.36751290833905
 21
588.36665508896067
  0
LINE
  8
_0-0_計極細
  6
CONTINUOUS
 62
    2
 10
308.36751290833899
 20
593.36665508896067
 11
315.36751290833905
 21
593.36665508896067
  0
LINE
  8
_0-0_計極細
  6
CONTINUOUS
 62
    2
 10
308.36751290833899
 20
693.36665508896078
 11
315.36751290833905
 21
693.36665508896078
  0
LINE
  8
_0-0_計極細
  6
CONTINUOUS
 62
    2
 10
308.36751290833899
 20
688.36665508896078
 11
315.36751290833905
 21
688.36665508896078
  0
LINE
  8
_0-0_計極細
  6
CONTINUOUS
 62
    2
 10
298.36751290833899
 20
488.36665508896118
 11
305.36751290833905
 21
488.36665508896118
  0
LINE
  8
_0-0_計極細
  6
CONTINUOUS
 62
    2
 10
298.36751290833899
 20
493.36665508896118
 11
305.36751290833905
 21
493.36665508896118
  0
LINE
  8
_0-0_計極細
  6
CONTINUOUS
 62
    2
 10
298.36751290833899
 20
588.36665508896067
 11
305.36751290833905
 21
588.36665508896067
  0
LINE
  8
_0-0_計極細
  6
CONTINUOUS
 62
    2
 10
298.36751290833899
 20
593.36665508896067
 11
305.36751290833905
 21
593.36665508896067
  0
LINE
  8
_0-0_計極細
  6
CONTINUOUS
 62
    2
 10
298.36751290833899
 20
693.36665508896078
 11
305.36751290833905
 21
693.36665508896078
  0
LINE
  8
_0-0_計極細
  6
CONTINUOUS
 62
    2
 10
298.36751290833899
 20
688.36665508896078
 11
305.36751290833905
 21
688.36665508896078
  0
LINE
  8
_0-0_計極細
  6
CONTINUOUS
 62
    2
 10
288.36751290833899
 20
488.36665508896118
 11
295.36751290833905
 21
488.36665508896118
  0
LINE
  8
_0-0_計極細
  6
CONTINUOUS
 62
    2
 10
288.36751290833899
 20
493.36665508896118
 11
295.36751290833905
 21
493.36665508896118
  0
LINE
  8
_0-0_計極細
  6
CONTINUOUS
 62
    2
 10
288.36751290833899
 20
588.36665508896067
 11
295.36751290833905
 21
588.36665508896067
  0
LINE
  8
_0-0_計極細
  6
CONTINUOUS
 62
    2
 10
288.36751290833899
 20
593.36665508896067
 11
295.36751290833905
 21
593.36665508896067
  0
LINE
  8
_0-0_計極細
  6
CONTINUOUS
 62
    2
 10
288.36751290833899
 20
693.36665508896078
 11
295.36751290833905
 21
693.36665508896078
  0
LINE
  8
_0-0_計極細
  6
CONTINUOUS
 62
    2
 10
288.36751290833899
 20
688.36665508896078
 11
295.36751290833905
 21
688.36665508896078
  0
LINE
  8
_0-0_計極細
  6
CONTINUOUS
 62
    2
 10
278.36751290833899
 20
488.36665508896118
 11
285.36751290833905
 21
488.36665508896118
  0
LINE
  8
_0-0_計極細
  6
CONTINUOUS
 62
    2
 10
278.36751290833899
 20
493.36665508896118
 11
285.36751290833905
 21
493.36665508896118
  0
LINE
  8
_0-0_計極細
  6
CONTINUOUS
 62
    2
 10
278.36751290833899
 20
588.36665508896067
 11
285.36751290833905
 21
588.36665508896067
  0
LINE
  8
_0-0_計極細
  6
CONTINUOUS
 62
    2
 10
278.36751290833899
 20
593.36665508896067
 11
285.36751290833905
 21
593.36665508896067
  0
LINE
  8
_0-0_計極細
  6
CONTINUOUS
 62
    2
 10
278.36751290833899
 20
693.36665508896078
 11
285.36751290833905
 21
693.36665508896078
  0
LINE
  8
_0-0_計極細
  6
CONTINUOUS
 62
    2
 10
278.36751290833899
 20
688.36665508896078
 11
285.36751290833905
 21
688.36665508896078
  0
LINE
  8
_0-0_計極細
  6
CONTINUOUS
 62
    2
 10
268.36751290833899
 20
488.36665508896118
 11
275.36751290833905
 21
488.36665508896118
  0
LINE
  8
_0-0_計極細
  6
CONTINUOUS
 62
    2
 10
268.36751290833899
 20
493.36665508896118
 11
275.36751290833905
 21
493.36665508896118
  0
LINE
  8
_0-0_計極細
  6
CONTINUOUS
 62
    2
 10
268.36751290833899
 20
588.36665508896067
 11
275.36751290833905
 21
588.36665508896067
  0
LINE
  8
_0-0_計極細
  6
CONTINUOUS
 62
    2
 10
268.36751290833899
 20
593.36665508896067
 11
275.36751290833905
 21
593.36665508896067
  0
LINE
  8
_0-0_計極細
  6
CONTINUOUS
 62
    2
 10
268.36751290833899
 20
693.36665508896078
 11
275.36751290833905
 21
693.36665508896078
  0
LINE
  8
_0-0_計極細
  6
CONTINUOUS
 62
    2
 10
268.36751290833899
 20
688.36665508896078
 11
275.36751290833905
 21
688.36665508896078
  0
LINE
  8
_0-0_計極細
  6
CONTINUOUS
 62
    2
 10
249.86751290833899
 20
488.36665508896118
 11
255.36751290833905
 21
488.36665508896118
  0
LINE
  8
_0-0_計極細
  6
CONTINUOUS
 62
    2
 10
249.86751290833899
 20
493.36665508896118
 11
255.36751290833905
 21
493.36665508896118
  0
LINE
  8
_0-0_計極細
  6
CONTINUOUS
 62
    2
 10
249.86751290833899
 20
588.36665508896067
 11
255.36751290833905
 21
588.36665508896067
  0
LINE
  8
_0-0_計極細
  6
CONTINUOUS
 62
    2
 10
249.86751290833899
 20
593.36665508896067
 11
255.36751290833905
 21
593.36665508896067
  0
LINE
  8
_0-0_計極細
  6
CONTINUOUS
 62
    2
 10
249.86751290833899
 20
693.36665508896078
 11
255.36751290833905
 21
693.36665508896078
  0
LINE
  8
_0-0_計極細
  6
CONTINUOUS
 62
    2
 10
249.86751290833899
 20
688.36665508896078
 11
255.36751290833905
 21
688.36665508896078
  0
LINE
  8
_0-0_計極細
  6
CONTINUOUS
 62
    2
 10
258.36751290833899
 20
488.36665508896118
 11
265.36751290833905
 21
488.36665508896118
  0
LINE
  8
_0-0_計極細
  6
CONTINUOUS
 62
    2
 10
258.36751290833899
 20
493.36665508896118
 11
265.36751290833905
 21
493.36665508896118
  0
LINE
  8
_0-0_計極細
  6
CONTINUOUS
 62
    2
 10
258.36751290833899
 20
588.36665508896067
 11
265.36751290833905
 21
588.36665508896067
  0
LINE
  8
_0-0_計極細
  6
CONTINUOUS
 62
    2
 10
258.36751290833899
 20
593.36665508896067
 11
265.36751290833905
 21
593.36665508896067
  0
LINE
  8
_0-0_計極細
  6
CONTINUOUS
 62
    2
 10
258.36751290833899
 20
693.36665508896078
 11
265.36751290833905
 21
693.36665508896078
  0
LINE
  8
_0-0_計極細
  6
CONTINUOUS
 62
    2
 10
258.36751290833899
 20
688.36665508896078
 11
265.36751290833905
 21
688.36665508896078
  0
LINE
  8
_0-0_計極細
  6
CENTER2
 62
    2
 10
224.56956469043533
 20
590.8666550889609
 11
668.16853371309423
 21
590.8666550889609
  0
LINE
  8
_0-5_寸法線
  6
CONTINUOUS
 62
    7
 10
241.86751290833905
 20
805.86665508896078
 11
241.86751290833925
 21
920.86665508896078
  0
LINE
  8
_0-5_寸法線
  6
CONTINUOUS
 62
    7
 10
241.86751290833925
 20
915.86665508896078
 11
251.52677117122991
 21
918.45484553998585
  0
LINE
  8
_0-5_寸法線
  6
CONTINUOUS
 62
    7
 10
241.86751290833925
 20
915.86665508896078
 11
251.52677117122991
 21
913.27846463793549
  0
LINE
  8
_0-5_寸法線
  6
CONTINUOUS
 62
    7
 10
651.86751290833899
 20
805.86665508896078
 11
651.86751290833922
 21
920.86665508896078
  0
LINE
  8
_0-5_寸法線
  6
CONTINUOUS
 62
    7
 10
651.86751290833922
 20
915.86665508896078
 11
642.20825464544862
 21
913.27846463793549
  0
LINE
  8
_0-5_寸法線
  6
CONTINUOUS
 62
    7
 10
651.86751290833922
 20
915.86665508896078
 11
642.20825464544862
 21
918.45484553998585
  0
LINE
  8
_0-5_寸法線
  6
CONTINUOUS
 62
    7
 10
241.86751290833925
 20
915.86665508896078
 11
651.86751290833922
 21
915.86665508896078
  0
TEXT
  8
_0-5_寸法線
 62
    7
 10
439.36751290833922
 20
915.86665508896078
 40
15
 41
1
 50
0
  1
Ｗ
  0
LINE
  8
_0-5_寸法線
  6
CONTINUOUS
 62
    7
 10
246.86751290833905
 20
805.86665508896078
 11
246.86751290833911
 21
850.86665508896078
  0
LINE
  8
_0-5_寸法線
  6
CONTINUOUS
 62
    7
 10
246.86751290833911
 20
845.86665508896078
 11
256.52677117122977
 21
848.45484553998585
  0
LINE
  8
_0-5_寸法線
  6
CONTINUOUS
 62
    7
 10
246.86751290833911
 20
845.86665508896078
 11
256.52677117122977
 21
843.27846463793549
  0
LINE
  8
_0-5_寸法線
  6
CONTINUOUS
 62
    7
 10
646.86751290833899
 20
805.86665508896078
 11
646.86751290833899
 21
850.86665508896078
  0
LINE
  8
_0-5_寸法線
  6
CONTINUOUS
 62
    7
 10
646.86751290833899
 20
845.86665508896078
 11
637.20825464544828
 21
843.27846463793549
  0
LINE
  8
_0-5_寸法線
  6
CONTINUOUS
 62
    7
 10
646.86751290833899
 20
845.86665508896078
 11
637.20825464544828
 21
848.45484553998585
  0
LINE
  8
_0-5_寸法線
  6
CONTINUOUS
 62
    7
 10
246.86751290833911
 20
845.86665508896078
 11
646.86751290833899
 21
845.86665508896078
  0
TEXT
  8
_0-5_寸法線
 62
    7
 10
439.36751290833911
 20
845.86665508896078
 40
15
 41
1
 50
0
  1
Ｌ
  0
LINE
  8
_0-5_寸法線
  6
CONTINUOUS
 62
    7
 10
231.86751290833897
 20
385.86665508896118
 11
116.86751290833897
 21
385.86665508896152
  0
LINE
  8
_0-5_寸法線
  6
CONTINUOUS
 62
    7
 10
121.86751290833897
 20
385.86665508896152
 11
119.27932245731384
 21
395.52591335185218
  0
LINE
  8
_0-5_寸法線
  6
CONTINUOUS
 62
    7
 10
121.86751290833897
 20
385.86665508896152
 11
124.45570335936424
 21
395.52591335185218
  0
LINE
  8
_0-5_寸法線
  6
CONTINUOUS
 62
    7
 10
231.86751290833897
 20
795.86665508896078
 11
116.86751290833897
 21
795.86665508896101
  0
LINE
  8
_0-5_寸法線
  6
CONTINUOUS
 62
    7
 10
121.86751290833897
 20
795.86665508896101
 11
124.45570335936424
 21
786.20739682607041
  0
LINE
  8
_0-5_寸法線
  6
CONTINUOUS
 62
    7
 10
121.86751290833897
 20
795.86665508896101
 11
119.27932245731384
 21
786.20739682607041
  0
LINE
  8
_0-5_寸法線
  6
CONTINUOUS
 62
    7
 10
121.86751290833897
 20
385.86665508896152
 11
121.86751290833897
 21
795.86665508896101
  0
TEXT
  8
_0-5_寸法線
 62
    7
 10
121.86751290833897
 20
583.36665508896124
 40
15
 41
1
 50
89.99999999999973
  1
Ｗ
  0
LINE
  8
_0-5_寸法線
  6
CONTINUOUS
 62
    7
 10
231.86751290833897
 20
390.86665508896118
 11
186.86751290833897
 21
390.86665508896135
  0
LINE
  8
_0-5_寸法線
  6
CONTINUOUS
 62
    7
 10
191.86751290833897
 20
390.86665508896135
 11
189.27932245731384
 21
400.52591335185195
  0
LINE
  8
_0-5_寸法線
  6
CONTINUOUS
 62
    7
 10
191.86751290833897
 20
390.86665508896135
 11
194.45570335936424
 21
400.52591335185195
  0
LINE
  8
_0-5_寸法線
  6
CONTINUOUS
 62
    7
 10
231.86751290833897
 20
790.86665508896078
 11
186.86751290833897
 21
790.8666550889609
  0
LINE
  8
_0-5_寸法線
  6
CONTINUOUS
 62
    7
 10
191.86751290833897
 20
790.8666550889609
 11
194.45570335936418
 21
781.20739682607007
  0
LINE
  8
_0-5_寸法線
  6
CONTINUOUS
 62
    7
 10
191.86751290833897
 20
790.8666550889609
 11
189.27932245731375
 21
781.20739682607007
  0
LINE
  8
_0-5_寸法線
  6
CONTINUOUS
 62
    7
 10
191.86751290833897
 20
390.86665508896135
 11
191.86751290833897
 21
790.8666550889609
  0
TEXT
  8
_0-5_寸法線
 62
    7
 10
191.86751290833897
 20
583.36665508896101
 40
15
 41
1
 50
90
  1
Ａ
  0
LINE
  8
_0-5_寸法線
  6
CONTINUOUS
 62
    7
 10
650.3704655832347
 20
521.35596909436231
 11
657.44153339510024
 21
528.42703690622773
  0
LINE
  8
_0-5_寸法線
  6
CONTINUOUS
 62
    7
 10
650.3704655832347
 20
521.35596909436231
 11
660.02972384612553
 21
523.94415954538749
  0
LINE
  8
_0-5_寸法線
  6
CONTINUOUS
 62
    7
 10
650.3704655832347
 20
521.35596909436231
 11
691.77046558323491
 21
545.25827023881288
  0
LINE
  8
_0-5_寸法線
  6
CONTINUOUS
 62
    7
 10
691.77046558323491
 20
545.25827023881288
 11
799.77046558323491
 21
545.25827023881288
  0
TEXT
  8
_0-5_寸法線
 62
    7
 10
691.77046558323491
 20
545.25827023881288
 40
15
 41
0.8000000000000001
 50
0
  1
ＳＵＳアングル受枠
  0
LINE
  8
_0-5_寸法線
  6
CONTINUOUS
 62
    7
 10
626.83510207157474
 20
636.90954934127524
 11
633.90616988344027
 21
643.98061715314066
  0
LINE
  8
_0-5_寸法線
  6
CONTINUOUS
 62
    7
 10
626.83510207157474
 20
636.90954934127524
 11
636.49436033446545
 21
639.49773979230042
  0
LINE
  8
_0-5_寸法線
  6
CONTINUOUS
 62
    7
 10
626.83510207157474
 20
636.90954934127524
 11
691.77046558323491
 21
674.39999894465836
  0
LINE
  8
_0-5_寸法線
  6
CONTINUOUS
 62
    7
 10
691.77046558323491
 20
674.39999894465836
 11
823.77046558323502
 21
674.39999894465836
  0
TEXT
  8
_0-5_寸法線
 62
    7
 10
691.77046558323491
 20
674.39999894465836
 40
15
 41
0.8000000000000001
 50
0
  1
ステンレスグレーチング
  0
TEXT
  8
_0-7_枠細線
 62
    5
 10
960.5
 20
158.74999999999994
 40
20.000000000000007
 41
0.5249999999999998
 50
0
  1
Ｆバー ステンレスグレーチングＨ２０タイプ
  0
TEXT
  8
_0-7_枠細線
 62
    5
 10
1309.9999999999998
 20
67.499999999999929
 40
15.000000000000009
 41
0.6666666666666665
 50
0
  1
２０１１年０７月０４日
  0
LINE
  8
_0-b_細線3
  6
CONTINUOUS
 62
    7
 10
265.09797542911951
 20
198.08472201339924
 11
265.09797542911951
 21
231.41805534673267
  0
LINE
  8
_0-b_細線3
  6
CONTINUOUS
 62
    7
 10
265.09797542911951
 20
231.41805534673267
 11
260.09797542911951
 21
231.41805534673267
  0
LINE
  8
_0-b_細線3
  6
CONTINUOUS
 62
    7
 10
260.09797542911951
 20
231.41805534673267
 11
260.09797542911951
 21
198.08472201339924
  0
LINE
  8
_0-b_細線3
  6
CONTINUOUS
 62
    7
 10
260.09797542911951
 20
198.08472201339924
 11
265.09797542911951
 21
198.08472201339924
  0
ARC
  8
_0-b_細線3
  6
CONTINUOUS
 62
    7
 10
270.93130876245289
 20
213.84861090228608
 40
14.236111111113132
 50
65.810485845980494
 51
114.18951415401952
  0
ARC
  8
_0-b_細線3
  6
CONTINUOUS
 62
    7
 10
270.93130876245289
 20
222.32083312451235
 40
14.236111111113132
 50
245.81048584597974
 51
294.18951415401955
  0
LINE
  8
_0-b_細線3
  6
CONTINUOUS
 62
    7
 10
281.76464209578626
 20
198.08472201339924
 11
281.76464209578626
 21
231.41805534673267
  0
LINE
  8
_0-b_細線3
  6
CONTINUOUS
 62
    7
 10
281.76464209578626
 20
231.41805534673267
 11
276.76464209578626
 21
231.41805534673267
  0
LINE
  8
_0-b_細線3
  6
CONTINUOUS
 62
    7
 10
276.76464209578626
 20
231.41805534673267
 11
276.76464209578626
 21
198.08472201339924
  0
LINE
  8
_0-b_細線3
  6
CONTINUOUS
 62
    7
 10
276.76464209578626
 20
198.08472201339924
 11
281.76464209578626
 21
198.08472201339924
  0
ARC
  8
_0-b_細線3
  6
CONTINUOUS
 62
    7
 10
287.59797542911951
 20
213.84861090228608
 40
14.236111111113132
 50
65.810485845980494
 51
114.18951415401909
  0
ARC
  8
_0-b_細線3
  6
CONTINUOUS
 62
    7
 10
287.59797542911951
 20
222.32083312451235
 40
14.236111111113132
 50
245.81048584598017
 51
294.18951415401955
  0
LINE
  8
_0-b_細線3
  6
CONTINUOUS
 62
    7
 10
298.43130876245289
 20
198.08472201339924
 11
298.43130876245289
 21
231.41805534673267
  0
LINE
  8
_0-b_細線3
  6
CONTINUOUS
 62
    7
 10
298.43130876245289
 20
231.41805534673267
 11
293.43130876245289
 21
231.41805534673267
  0
LINE
  8
_0-b_細線3
  6
CONTINUOUS
 62
    7
 10
293.43130876245289
 20
231.41805534673267
 11
293.43130876245289
 21
198.08472201339924
  0
LINE
  8
_0-b_細線3
  6
CONTINUOUS
 62
    7
 10
293.43130876245289
 20
198.08472201339924
 11
298.43130876245289
 21
198.08472201339924
  0
ARC
  8
_0-b_細線3
  6
CONTINUOUS
 62
    7
 10
304.26464209578626
 20
213.84861090228608
 40
14.236111111113132
 50
65.810485845980907
 51
114.18951415401952
  0
ARC
  8
_0-b_細線3
  6
CONTINUOUS
 62
    7
 10
304.26464209578626
 20
222.32083312451235
 40
14.236111111113132
 50
245.81048584597974
 51
294.18951415401909
  0
LINE
  8
_0-b_細線3
  6
CONTINUOUS
 62
    7
 10
315.09797542911951
 20
198.08472201339924
 11
315.09797542911951
 21
231.41805534673267
  0
LINE
  8
_0-b_細線3
  6
CONTINUOUS
 62
    7
 10
315.09797542911951
 20
231.41805534673267
 11
310.09797542911951
 21
231.41805534673267
  0
LINE
  8
_0-b_細線3
  6
CONTINUOUS
 62
    7
 10
310.09797542911951
 20
231.41805534673267
 11
310.09797542911951
 21
198.08472201339924
  0
LINE
  8
_0-b_細線3
  6
CONTINUOUS
 62
    7
 10
310.09797542911951
 20
198.08472201339924
 11
315.09797542911951
 21
198.08472201339924
  0
ARC
  8
_0-b_細線3
  6
CONTINUOUS
 62
    7
 10
320.93130876245289
 20
213.84861090228608
 40
14.236111111113132
 50
65.810485845980494
 51
114.18951415401952
  0
ARC
  8
_0-b_細線3
  6
CONTINUOUS
 62
    7
 10
320.93130876245289
 20
222.32083312451235
 40
14.236111111113132
 50
245.81048584597974
 51
294.18951415401955
  0
LINE
  8
_0-b_細線3
  6
CONTINUOUS
 62
    7
 10
331.76464209578626
 20
198.08472201339924
 11
331.76464209578626
 21
231.41805534673267
  0
LINE
  8
_0-b_細線3
  6
CONTINUOUS
 62
    7
 10
331.76464209578626
 20
231.41805534673267
 11
326.76464209578626
 21
231.41805534673267
  0
LINE
  8
_0-b_細線3
  6
CONTINUOUS
 62
    7
 10
326.76464209578626
 20
231.41805534673267
 11
326.76464209578626
 21
198.08472201339924
  0
LINE
  8
_0-b_細線3
  6
CONTINUOUS
 62
    7
 10
326.76464209578626
 20
198.08472201339924
 11
331.76464209578626
 21
198.08472201339924
  0
ARC
  8
_0-b_細線3
  6
CONTINUOUS
 62
    7
 10
337.59797542911951
 20
213.84861090228608
 40
14.236111111113132
 50
65.810485845980494
 51
114.18951415401909
  0
ARC
  8
_0-b_細線3
  6
CONTINUOUS
 62
    7
 10
337.59797542911951
 20
222.32083312451235
 40
14.236111111113132
 50
245.81048584598017
 51
294.18951415401955
  0
LINE
  8
_0-b_細線3
  6
CONTINUOUS
 62
    7
 10
348.43130876245289
 20
198.08472201339924
 11
348.43130876245289
 21
231.41805534673267
  0
LINE
  8
_0-b_細線3
  6
CONTINUOUS
 62
    7
 10
348.43130876245289
 20
231.41805534673267
 11
343.43130876245289
 21
231.41805534673267
  0
LINE
  8
_0-b_細線3
  6
CONTINUOUS
 62
    7
 10
343.43130876245289
 20
231.41805534673267
 11
343.43130876245289
 21
198.08472201339924
  0
LINE
  8
_0-b_細線3
  6
CONTINUOUS
 62
    7
 10
343.43130876245289
 20
198.08472201339924
 11
348.43130876245289
 21
198.08472201339924
  0
LINE
  8
_0-b_細線3
  6
CONTINUOUS
 62
    7
 10
280.59797542556339
 20
198.08472201339924
 11
286.26464209222979
 21
198.08472201339924
  0
ARC
  8
_0-a_極細3
  6
CONTINUOUS
 62
    7
 10
377.23030184887796
 20
224.01589538888359
 40
21.070607518177617
 50
150.03871396148196
 51
205.23810402387895
  0
ARC
  8
_0-a_極細3
  6
CONTINUOUS
 62
    7
 10
339.11173162100022
 20
206.04768433372647
 40
21.070607518177617
 50
330.0387139614823
 51
25.238104023878936
  0
ARC
  8
_0-b_細線3
  6
CONTINUOUS
 62
    7
 10
354.2646420957862
 20
213.84861090228608
 40
14.236111111113132
 50
80.877745955239973
 51
114.18951415401909
  0
ARC
  8
_0-b_細線3
  6
CONTINUOUS
 62
    7
 10
354.2646420957862
 20
222.32083312451235
 40
14.236111111113132
 50
245.81048584598017
 51
293.47496178994527
  0
LINE
  8
_0-a_極細3
  6
CENTER1
 62
    7
 10
237.34504388001042
 20
218.08472201339922
 11
368.14383674694352
 21
218.08472201339922
  0
LINE
  8
_0-d_寸法3
  6
CONTINUOUS
 62
    7
 10
312.59797542911951
 20
241.41805534673267
 11
312.59797542911951
 21
286.41805534673267
  0
LINE
  8
_0-d_寸法3
  6
CONTINUOUS
 62
    7
 10
312.59797542911951
 20
281.41805534673267
 11
322.25723369201023
 21
284.00624579775786
  0
LINE
  8
_0-d_寸法3
  6
CONTINUOUS
 62
    7
 10
312.59797542911951
 20
281.41805534673267
 11
322.25723369201023
 21
278.82986489570749
  0
LINE
  8
_0-d_寸法3
  6
CONTINUOUS
 62
    7
 10
329.26464209578626
 20
241.41805534673267
 11
329.26464209578626
 21
286.41805534673267
  0
LINE
  8
_0-d_寸法3
  6
CONTINUOUS
 62
    7
 10
329.26464209578626
 20
281.41805534673267
 11
319.6053838328956
 21
278.82986489570749
  0
LINE
  8
_0-d_寸法3
  6
CONTINUOUS
 62
    7
 10
329.26464209578626
 20
281.41805534673267
 11
319.6053838328956
 21
284.00624579775797
  0
LINE
  8
_0-d_寸法3
  6
CONTINUOUS
 62
    7
 10
312.59797542911951
 20
281.41805534673267
 11
329.26464209578626
 21
281.41805534673267
  0
TEXT
  8
_0-d_寸法3
 62
    7
 10
313.431308762453
 20
281.41805534673267
 40
15
 41
1
 50
0
  1
10
  0
LINE
  8
_0-d_寸法3
  6
CONTINUOUS
 62
    7
 10
329.26464209578626
 20
281.41805534673267
 11
338.92390035867697
 21
284.0062457977578
  0
LINE
  8
_0-d_寸法3
  6
CONTINUOUS
 62
    7
 10
329.26464209578626
 20
281.41805534673267
 11
338.92390035867692
 21
278.82986489570743
  0
LINE
  8
_0-d_寸法3
  6
CONTINUOUS
 62
    7
 10
345.93130876245289
 20
241.41805534673267
 11
345.93130876245289
 21
286.41805534673267
  0
LINE
  8
_0-d_寸法3
  6
CONTINUOUS
 62
    7
 10
345.93130876245289
 20
281.41805534673267
 11
336.27205049956217
 21
278.82986489570749
  0
LINE
  8
_0-d_寸法3
  6
CONTINUOUS
 62
    7
 10
345.93130876245289
 20
281.41805534673267
 11
336.27205049956223
 21
284.00624579775797
  0
LINE
  8
_0-d_寸法3
  6
CONTINUOUS
 62
    7
 10
329.26464209578626
 20
281.41805534673267
 11
345.93130876245289
 21
281.41805534673267
  0
TEXT
  8
_0-d_寸法3
 62
    7
 10
330.09797542911963
 20
281.41805534673267
 40
15
 41
1
 50
0
  1
10
  0
LINE
  8
_0-d_寸法3
  6
CONTINUOUS
 62
    7
 10
260.09797542911951
 20
241.41805534673267
 11
260.09797542911951
 21
286.41805534673267
  0
LINE
  8
_0-d_寸法3
  6
CONTINUOUS
 62
    7
 10
260.09797542911951
 20
281.41805534673267
 11
250.43871716622888
 21
278.82986489570749
  0
LINE
  8
_0-d_寸法3
  6
CONTINUOUS
 62
    7
 10
260.09797542911951
 20
281.41805534673267
 11
250.43871716622888
 21
284.00624579775797
  0
LINE
  8
_0-d_寸法3
  6
CONTINUOUS
 62
    7
 10
265.09797542911951
 20
241.41805534673267
 11
265.09797542911951
 21
286.41805534673267
  0
CIRCLE
  8
_0-d_寸法3
  6
CONTINUOUS
 62
    1
 10
265.09797542911951
 20
281.41805534673267
 40
1.5000000000000002
  0
LINE
  8
_0-d_寸法3
  6
CONTINUOUS
 62
    7
 10
235.09797542911954
 20
281.41805534673267
 11
265.09797542911951
 21
281.41805534673267
  0
TEXT
  8
_0-d_寸法3
 62
    7
 10
247.35584922884186
 20
281.41805534673267
 40
15
 41
1
 50
0
  1
3
  0
LINE
  8
_0-d_寸法3
  6
CONTINUOUS
 62
    7
 10
276.76464209578614
 20
241.41805534673267
 11
276.76464209578626
 21
286.41805534673267
  0
LINE
  8
_0-d_寸法3
  6
CONTINUOUS
 62
    7
 10
276.76464209578626
 20
281.41805534673267
 11
286.42390035867697
 21
284.0062457977578
  0
LINE
  8
_0-d_寸法3
  6
CONTINUOUS
 62
    7
 10
276.76464209578626
 20
281.41805534673267
 11
286.42390035867692
 21
278.82986489570743
  0
LINE
  8
_0-d_寸法3
  6
CONTINUOUS
 62
    7
 10
265.09797542911951
 20
281.41805534673267
 11
301.76464209578626
 21
281.41805534673267
  0
TEXT
  8
_0-d_寸法3
 62
    7
 10
279.65609614242032
 20
281.41805534673267
 40
15
 41
1
 50
0
  1
7
  0
TEXT
  8
_0-7_枠細線
 62
    5
 10
366.62546759064583
 20
115.70578772854788
 40
20.000000000000004
 41
0.5999999999999999
 50
0
  1
Ｓ＝１：３
  0
ARC
  8
_0-a_極細3
  6
CONTINUOUS
 62
    7
 10
274.74319114961332
 20
223.90547041099484
 40
21.070607518177617
 50
150.03871396148142
 51
205.23810402387824
  0
ARC
  8
_0-a_極細3
  6
CONTINUOUS
 62
    7
 10
236.62462092173541
 20
205.93725935583819
 40
21.070607518177617
 50
330.0387139614819
 51
25.238104023877714
  0
LINE
  8
_0-b_細線3
  6
CONTINUOUS
 62
    7
 10
255.05736963339487
 20
231.41805534673267
 11
357.50269355127892
 21
231.41805534673267
  0
LINE
  8
_0-b_細線3
  6
CONTINUOUS
 62
    7
 10
256.1773229976809
 20
198.08472201339924
 11
358.61972311859245
 21
198.08472201339924
  0
ARC
  8
_0-b_細線3
  6
CONTINUOUS
 62
    7
 10
255.51464209578626
 20
219.05694423562025
 40
9.0277777777790185
 50
59.489762593888692
 51
99.221400651952777
  0
ARC
  8
_0-b_細線3
  6
CONTINUOUS
 62
    7
 10
255.51464209578626
 20
217.1124997911775
 40
9.0277777777790185
 50
283.09561542963394
 51
300.51023740611095
  0
TEXT
  8
_0-7_枠細線
 62
    5
 10
261.67649784147761
 20
115.70578772854788
 40
25.000000000000007
 41
0.8
 50
0
  1
側面詳細
  0
TEXT
  8
_0-5_寸法線
 62
    7
 10
691.77046558323491
 20
530.25827023881288
 40
15
 41
0.8000000000000001
 50
0
  1
ＧＳＬ－２０
  0
LINE
  8
_0-7_枠細線
  6
CONTINUOUS
 62
    5
 10
1425
 20
925
 11
890
 21
925
  0
TEXT
  8
_0-7_枠細線
 62
    5
 10
938.85037037037023
 20
927.5
 40
12.500000000000002
 41
1
 50
0
  1
品番変更
  0
TEXT
  8
_0-7_枠細線
 62
    5
 10
1005.9999999999991
 20
422.7610776748989
 40
15
 41
0.8000000000000001
 50
0
  1
品　　番
  0
TEXT
  8
_0-7_枠細線
 62
    5
 10
943.99999999999966
 20
422.7610776748989
 40
15
 41
0.8000000000000001
 50
0
  1
Ｂ
  0
TEXT
  8
_0-7_枠細線
 62
    5
 10
931.96014660493302
 20
447.7610776748989
 40
17.5
 41
1
 50
0
  1
品番寸法表
  0
TEXT
  8
_0-7_枠細線
 62
    5
 10
1153.9999999999982
 20
422.7610776748989
 40
15
 41
0.8000000000000001
 50
0
  1
Ｌ
  0
TEXT
  8
_0-7_枠細線
 62
    5
 10
1103.9999999999986
 20
422.7610776748989
 40
15
 41
0.8000000000000001
 50
0
  1
Ａ
  0
TEXT
  8
_0-7_枠細線
 62
    5
 10
938.74999999999955
 20
372.76107767489913
 40
15
 41
1
 50
0
  1
300
  0
TEXT
  8
_0-7_枠細線
 62
    5
 10
938.74999999999955
 20
347.7610776748989
 40
15
 41
1
 50
0
  1
350
  0
TEXT
  8
_0-7_枠細線
 62
    5
 10
938.74999999999955
 20
322.7610776748989
 40
15
 41
1
 50
0
  1
400
  0
TEXT
  8
_0-7_枠細線
 62
    5
 10
938.74999999999955
 20
397.7610776748989
 40
15
 41
1
 50
0
  1
250
  0
TEXT
  8
_0-7_枠細線
 62
    5
 10
938.74999999999955
 20
297.7610776748989
 40
15
 41
1
 50
0
  1
450
  0
TEXT
  8
_0-7_枠細線
 62
    5
 10
1302.999999999995
 20
417.7610776748989
 40
12.5
 41
0.9600000000000001
 50
0
  1
重量
  0
TEXT
  8
_0-7_枠細線
 62
    5
 10
1253.9999999999964
 20
422.7610776748989
 40
15
 41
0.8000000000000001
 50
0
  1
Ｗ
  0
TEXT
  8
_0-7_枠細線
 62
    5
 10
1290.9999999999955
 20
430.2610776748989
 40
12.5
 41
0.9600000000000001
 50
0
  1
ｸﾞﾚｰﾁﾝｸﾞ
  0
LINE
  8
_0-7_枠細線
  6
CONTINUOUS
 62
    5
 10
925
 20
442.7610776748989
 11
1404.9999999999941
 21
442.7610776748989
  0
LINE
  8
_0-7_枠細線
  6
CONTINUOUS
 62
    5
 10
925
 20
417.7610776748989
 11
1404.9999999999941
 21
417.7610776748989
  0
TEXT
  8
_0-7_枠細線
 62
    5
 10
1203.9999999999968
 20
422.7610776748989
 40
15
 41
0.8000000000000001
 50
0
  1
Ｐ
  0
TEXT
  8
_0-7_枠細線
 62
    5
 10
1352.6814814814761
 20
422.7610776748989
 40
15
 41
0.8000000000000001
 50
0
  1
適用荷重
  0
LINE
  8
_0-7_枠細線
  6
CONTINUOUS
 62
    5
 10
925
 20
317.7610776748989
 11
1344.9999999999952
 21
317.7610776748989
  0
LINE
  8
_0-7_枠細線
  6
CONTINUOUS
 62
    5
 10
925
 20
392.7610776748989
 11
1344.9999999999952
 21
392.7610776748989
  0
LINE
  8
_0-7_枠細線
  6
CONTINUOUS
 62
    5
 10
925
 20
367.7610776748989
 11
1344.9999999999952
 21
367.7610776748989
  0
LINE
  8
_0-7_枠細線
  6
CONTINUOUS
 62
    5
 10
925
 20
342.7610776748989
 11
1344.9999999999952
 21
342.7610776748989
  0
LINE
  8
_0-7_枠細線
  6
CONTINUOUS
 62
    5
 10
925
 20
267.7610776748989
 11
1344.9999999999952
 21
267.7610776748989
  0
LINE
  8
_0-7_枠細線
  6
CONTINUOUS
 62
    5
 10
925
 20
292.7610776748989
 11
1344.9999999999952
 21
292.7610776748989
  0
TEXT
  8
_0-7_枠細線
 62
    5
 10
938.74999999999955
 20
272.7610776748989
 40
15
 41
1
 50
0
  1
500
  0
TEXT
  8
_0-7_枠細線
 62
    5
 10
938.74999999999955
 20
247.7610776748989
 40
15
 41
1
 50
0
  1
550
  0
LINE
  8
_0-7_枠細線
  6
CONTINUOUS
 62
    5
 10
925
 20
217.7610776748989
 11
1404.9999999999941
 21
217.7610776748989
  0
LINE
  8
_0-7_枠細線
  6
CONTINUOUS
 62
    5
 10
925
 20
442.7610776748989
 11
925
 21
217.7610776748989
  0
LINE
  8
_0-7_枠細線
  6
CONTINUOUS
 62
    5
 10
974.99999999999955
 20
442.7610776748989
 11
974.99999999999955
 21
217.7610776748989
  0
LINE
  8
_0-7_枠細線
  6
CONTINUOUS
 62
    5
 10
1084.9999999999995
 20
442.7610776748989
 11
1084.9999999999995
 21
217.7610776748989
  0
LINE
  8
_0-7_枠細線
  6
CONTINUOUS
 62
    5
 10
1134.9999999999986
 20
442.7610776748989
 11
1134.9999999999986
 21
217.7610776748989
  0
LINE
  8
_0-7_枠細線
  6
CONTINUOUS
 62
    5
 10
1184.9999999999977
 20
442.7610776748989
 11
1184.9999999999977
 21
217.7610776748989
  0
LINE
  8
_0-7_枠細線
  6
CONTINUOUS
 62
    5
 10
1344.9999999999952
 20
442.7610776748989
 11
1344.9999999999952
 21
217.7610776748989
  0
LINE
  8
_0-7_枠細線
  6
CONTINUOUS
 62
    5
 10
1284.9999999999959
 20
442.7610776748989
 11
1284.9999999999959
 21
217.7610776748989
  0
LINE
  8
_0-7_枠細線
  6
CONTINUOUS
 62
    5
 10
1234.9999999999968
 20
442.7610776748989
 11
1234.9999999999968
 21
217.7610776748989
  0
LINE
  8
_0-7_枠細線
  6
CONTINUOUS
 62
    5
 10
1404.9999999999941
 20
442.7610776748989
 11
1404.9999999999941
 21
217.7610776748989
  0
LINE
  8
_0-7_枠細線
  6
CONTINUOUS
 62
    5
 10
925
 20
242.7610776748989
 11
1344.9999999999952
 21
242.7610776748989
  0
TEXT
  8
_0-7_枠細線
 62
    5
 10
938.74999999999955
 20
222.76107767489916
 40
15
 41
1
 50
0
  1
600
  0
TEXT
  8
_0-7_枠細線
 62
    5
 10
1187.4999999999973
 20
397.7610776748989
 40
15
 41
1
 50
0
  1
100×3
  0
TEXT
  8
_0-7_枠細線
 62
    5
 10
1187.4999999999973
 20
347.76107767489941
 40
15
 41
1
 50
0
  1
100×4
  0
TEXT
  8
_0-7_枠細線
 62
    5
 10
1188.9999999999968
 20
329.96401320301999
 40
12.000000000000002
 41
1
 50
0
  1
端75×2
  0
TEXT
  8
_0-7_枠細線
 62
    5
 10
1197.9999999999968
 20
379.96401320301999
 40
12.000000000000002
 41
1
 50
0
  1
端75
  0
TEXT
  8
_0-7_枠細線
 62
    5
 10
1191.9999999999977
 20
367.32906121399361
 40
12.000000000000002
 41
1
 50
0
  1
100×2
  0
TEXT
  8
_0-7_枠細線
 62
    5
 10
1188.9999999999968
 20
279.96401320301999
 40
12.000000000000002
 41
1
 50
0
  1
端75×2
  0
TEXT
  8
_0-7_枠細線
 62
    5
 10
1188.9999999999968
 20
229.96401320301999
 40
12.000000000000002
 41
1
 50
0
  1
端75×2
  0
TEXT
  8
_0-7_枠細線
 62
    5
 10
1191.9999999999977
 20
217.32906121399364
 40
12.000000000000002
 41
1
 50
0
  1
100×5
  0
TEXT
  8
_0-7_枠細線
 62
    5
 10
1187.4999999999973
 20
247.7610776748989
 40
15
 41
1
 50
0
  1
100×6
  0
TEXT
  8
_0-7_枠細線
 62
    5
 10
1191.9999999999977
 20
267.32906121399361
 40
12.000000000000002
 41
1
 50
0
  1
100×4
  0
TEXT
  8
_0-7_枠細線
 62
    5
 10
1187.4999999999973
 20
297.7610776748989
 40
15
 41
1
 50
0
  1
100×5
  0
TEXT
  8
_0-7_枠細線
 62
    5
 10
1191.9999999999977
 20
317.32906121399361
 40
12.000000000000002
 41
1
 50
0
  1
100×3
  0
TEXT
  8
_0-7_枠細線
 62
    5
 10
1098.7499999999991
 20
397.76107767489918
 40
15
 41
1
 50
0
  1
300
  0
TEXT
  8
_0-7_枠細線
 62
    5
 10
1098.7499999999991
 20
372.76107767489924
 40
15
 41
1
 50
0
  1
350
  0
TEXT
  8
_0-7_枠細線
 62
    5
 10
1098.7499999999991
 20
347.76107767489913
 40
15
 41
1
 50
0
  1
400
  0
TEXT
  8
_0-7_枠細線
 62
    5
 10
1098.7499999999991
 20
322.76107767489907
 40
15
 41
1
 50
0
  1
450
  0
TEXT
  8
_0-7_枠細線
 62
    5
 10
1098.7499999999991
 20
297.76107767489913
 40
15
 41
1
 50
0
  1
500
  0
TEXT
  8
_0-7_枠細線
 62
    5
 10
1098.7499999999991
 20
272.76107767489913
 40
15
 41
1
 50
0
  1
550
  0
TEXT
  8
_0-7_枠細線
 62
    5
 10
1098.7499999999991
 20
247.76107767489916
 40
15
 41
1
 50
0
  1
600
  0
TEXT
  8
_0-7_枠細線
 62
    5
 10
1098.7499999999991
 20
222.76107767489916
 40
15
 41
1
 50
0
  1
650
  0
TEXT
  8
_0-7_枠細線
 62
    5
 10
1148.7499999999982
 20
397.76107767489918
 40
15
 41
1
 50
0
  1
300
  0
TEXT
  8
_0-7_枠細線
 62
    5
 10
1148.7499999999982
 20
372.76107767489924
 40
15
 41
1
 50
0
  1
350
  0
TEXT
  8
_0-7_枠細線
 62
    5
 10
1148.7499999999982
 20
347.76107767489913
 40
15
 41
1
 50
0
  1
400
  0
TEXT
  8
_0-7_枠細線
 62
    5
 10
1148.7499999999982
 20
322.76107767489907
 40
15
 41
1
 50
0
  1
450
  0
TEXT
  8
_0-7_枠細線
 62
    5
 10
1148.7499999999982
 20
297.76107767489913
 40
15
 41
1
 50
0
  1
500
  0
TEXT
  8
_0-7_枠細線
 62
    5
 10
1148.7499999999982
 20
272.76107767489913
 40
15
 41
1
 50
0
  1
550
  0
TEXT
  8
_0-7_枠細線
 62
    5
 10
1148.7499999999982
 20
247.76107767489916
 40
15
 41
1
 50
0
  1
600
  0
TEXT
  8
_0-7_枠細線
 62
    5
 10
1148.7499999999982
 20
222.76107767489916
 40
15
 41
1
 50
0
  1
650
  0
TEXT
  8
_0-7_枠細線
 62
    5
 10
1248.7499999999964
 20
397.76107767489918
 40
15
 41
1
 50
0
  1
310
  0
TEXT
  8
_0-7_枠細線
 62
    5
 10
1248.7499999999964
 20
372.76107767489924
 40
15
 41
1
 50
0
  1
360
  0
TEXT
  8
_0-7_枠細線
 62
    5
 10
1248.7499999999964
 20
347.76107767489913
 40
15
 41
1
 50
0
  1
410
  0
TEXT
  8
_0-7_枠細線
 62
    5
 10
1248.7499999999964
 20
322.76107767489907
 40
15
 41
1
 50
0
  1
460
  0
TEXT
  8
_0-7_枠細線
 62
    5
 10
1248.7499999999964
 20
297.76107767489913
 40
15
 41
1
 50
0
  1
510
  0
TEXT
  8
_0-7_枠細線
 62
    5
 10
1248.7499999999964
 20
272.76107767489913
 40
15
 41
1
 50
0
  1
560
  0
TEXT
  8
_0-7_枠細線
 62
    5
 10
1248.7499999999964
 20
247.76107767489916
 40
15
 41
1
 50
0
  1
610
  0
TEXT
  8
_0-7_枠細線
 62
    5
 10
1248.7499999999964
 20
222.76107767489916
 40
15
 41
1
 50
0
  1
660
  0
TEXT
  8
_0-7_枠細線
 62
    5
 10
1296.2499999999955
 20
397.76107767489918
 40
15
 41
1
 50
0
  1
4.7kg
  0
TEXT
  8
_0-7_枠細線
 62
    5
 10
1296.2499999999955
 20
372.76107767489924
 40
15
 41
1
 50
0
  1
6.4kg
  0
TEXT
  8
_0-7_枠細線
 62
    5
 10
1296.2499999999955
 20
347.76107767489913
 40
15
 41
1
 50
0
  1
8.3kg
  0
TEXT
  8
_0-7_枠細線
 62
    5
 10
1292.4999999999955
 20
322.76107767489907
 40
15
 41
1
 50
0
  1
10.5kg
  0
TEXT
  8
_0-7_枠細線
 62
    5
 10
1292.4999999999955
 20
297.76107767489913
 40
15
 41
1
 50
0
  1
12.9kg
  0
TEXT
  8
_0-7_枠細線
 62
    5
 10
1292.4999999999955
 20
272.76107767489913
 40
15
 41
1
 50
0
  1
15.6kg
  0
TEXT
  8
_0-7_枠細線
 62
    5
 10
1292.4999999999955
 20
247.76107767489916
 40
15
 41
1
 50
0
  1
18.4kg
  0
TEXT
  8
_0-7_枠細線
 62
    5
 10
1292.4999999999955
 20
222.76107767489916
 40
15
 41
1
 50
0
  1
21.7kg
  0
TEXT
  8
_0-7_枠細線
 62
    5
 10
1339.9185185185113
 20
312.77827932098876
 40
15
 41
0.9333333333333334
 50
0
  1
（Ｔ－２）
  0
TEXT
  8
_0-7_枠細線
 62
    5
 10
992.49999999999943
 20
397.7610776748989
 40
15
 41
1
 50
0
  1
GSF-20K300
  0
TEXT
  8
_0-7_枠細線
 62
    5
 10
992.49999999999943
 20
372.76107767489907
 40
15
 41
1
 50
0
  1
GSF-20K350
  0
TEXT
  8
_0-7_枠細線
 62
    5
 10
992.49999999999943
 20
347.76107767489913
 40
15
 41
1
 50
0
  1
GSF-20K400
  0
TEXT
  8
_0-7_枠細線
 62
    5
 10
992.49999999999943
 20
322.76107767489907
 40
15
 41
1
 50
0
  1
GSF-20K450
  0
TEXT
  8
_0-7_枠細線
 62
    5
 10
992.49999999999943
 20
297.7610776748989
 40
15
 41
1
 50
0
  1
GSF-20K500
  0
TEXT
  8
_0-7_枠細線
 62
    5
 10
992.49999999999943
 20
272.76107767489913
 40
15
 41
1
 50
0
  1
GSF-20K550
  0
TEXT
  8
_0-7_枠細線
 62
    5
 10
992.49999999999943
 20
247.76107767489916
 40
15
 41
1
 50
0
  1
GSF-20K600
  0
TEXT
  8
_0-7_枠細線
 62
    5
 10
992.49999999999943
 20
222.76107767489916
 40
15
 41
1
 50
0
  1
GSF-20K650
  0
CIRCLE
  8
_0-0_計極細
  6
CONTINUOUS
 62
    2
 10
1374.2724713114339
 20
656.16814578340143
 40
0.3318518518518431
  0
LINE
  8
_0-0_計極細
  6
CONTINUOUS
 62
    2
 10
1371.8801054111225
 20
649.31799189795015
 11
1380.8801054111225
 21
649.31799189795015
  0
LINE
  8
_0-0_計極細
  6
CENTER1
 62
    2
 10
1376.3801054111227
 20
617.90061091828898
 11
1376.3801054111227
 21
651.88342399671592
  0
LINE
  8
_0-0_計極細
  6
CONTINUOUS
 62
    2
 10
1380.8801054111225
 20
649.31799189795015
 11
1380.8801054111225
 21
622.86665508896067
  0
LINE
  8
_0-0_計極細
  6
CONTINUOUS
 62
    2
 10
1371.8801054111225
 20
622.86665508896067
 11
1371.8801054111225
 21
649.31799189795015
  0
LINE
  8
_0-0_計極細
  6
CENTER1
 62
    2
 10
1387.576497023575
 20
640.94211455598156
 11
1349.1578847340352
 21
654.92534584700252
  0
LINE
  8
_0-0_計極細
  6
CONTINUOUS
 62
    2
 10
1383.0641463434135
 20
637.79567578646265
 11
1349.989539449205
 21
649.83384820601054
  0
LINE
  8
_0-0_計極細
  6
CONTINUOUS
 62
    2
 10
1386.1423276333448
 20
646.25290937353611
 11
1353.0677207391361
 21
658.29108179308378
  0
LINE
  8
_0-0_計極細
  6
CONTINUOUS
 62
    2
 10
1353.0677207391361
 20
658.29108179308378
 11
1349.989539449205
 21
649.83384820601054
  0
LINE
  8
_0-0_計極細
  6
CONTINUOUS
 62
    2
 10
1383.0641463434135
 20
637.79567578646265
 11
1386.1423276333448
 21
646.25290937353611
  0
CIRCLE
  8
_0-0_計極細
  6
CONTINUOUS
 62
    2
 10
1332.6402490892115
 20
616.27796059821617
 40
1.0953188836088352
  0
CIRCLE
  8
_0-0_計極細
  6
CONTINUOUS
 62
    2
 10
1330.8713602003227
 20
659.85129393154966
 40
1.0953188836088352
  0
CIRCLE
  8
_0-0_計極細
  6
CONTINUOUS
 62
    2
 10
1331.2546935336563
 20
620.27925689451263
 40
0.3318518518518431
  0
CIRCLE
  8
_0-0_計極細
  6
CONTINUOUS
 62
    2
 10
1330.4707429163725
 20
643.83259022784569
 40
0.3318518518518431
  0
LINE
  8
_0-0_計極細
  6
CONTINUOUS
 62
    2
 10
1326.8801054111225
 20
667.86665508896067
 11
1326.8801054111225
 21
607.12169491209306
  0
LINE
  8
_0-0_計極細
  6
CONTINUOUS
 62
    2
 10
1327.3801054111223
 20
667.86665508896067
 11
1326.8801054111225
 21
667.86665508896067
  0
CIRCLE
  8
_0-0_計極細
  6
CONTINUOUS
 62
    2
 10
1368.8769157558781
 20
682.58592356117856
 40
0.3318518518518431
  0
CIRCLE
  8
_0-0_計極細
  6
CONTINUOUS
 62
    2
 10
1381.6769157558779
 20
675.19462726488268
 40
1.0953188836088352
  0
CIRCLE
  8
_0-0_計極細
  6
CONTINUOUS
 62
    2
 10
1381.5969157558777
 20
678.98592356117888
 40
0.3318518518518431
  0
CIRCLE
  8
_0-0_計極細
  6
CONTINUOUS
 62
    2
 10
1390.7969157558775
 20
682.55462726488258
 40
1.0953188836088352
  0
CIRCLE
  8
_0-0_計極細
  6
CONTINUOUS
 62
    2
 10
1383.9969157558778
 20
683.70592356117868
 40
0.3318518518518431
  0
CIRCLE
  8
_0-0_計極細
  6
CONTINUOUS
 62
    2
 10
1400.0769157558775
 20
682.02592356117862
 40
0.3318518518518431
  0
CIRCLE
  8
_0-0_計極細
  6
CONTINUOUS
 62
    2
 10
1410.1569157558774
 20
682.02592356117862
 40
0.3318518518518431
  0
CIRCLE
  8
_0-0_計極細
  6
CONTINUOUS
 62
    2
 10
1335.453952792916
 20
638.75737068732747
 40
0.3318518518518431
  0
CIRCLE
  8
_0-0_計極細
  6
CONTINUOUS
 62
    2
 10
1335.3339527929156
 20
653.13070402066091
 40
0.3318518518518431
  0
CIRCLE
  8
_0-0_計極細
  6
CONTINUOUS
 62
    2
 10
1394.2126980037151
 20
624.35239582970121
 40
1.0953188836088352
  0
CIRCLE
  8
_0-0_計極細
  6
CONTINUOUS
 62
    2
 10
1366.4535824225445
 20
630.46462726488312
 40
1.0953188836088352
  0
CIRCLE
  8
_0-0_計極細
  6
CONTINUOUS
 62
    2
 10
1345.3335824225451
 20
643.90462726488295
 40
1.0953188836088352
  0
CIRCLE
  8
_0-0_計極細
  6
CONTINUOUS
 62
    2
 10
1339.2002490892119
 20
625.9846272648831
 40
1.0953188836088352
  0
CIRCLE
  8
_0-0_計極細
  6
CONTINUOUS
 62
    2
 10
1381.4369157558779
 20
652.71462726488289
 40
1.0953188836088352
  0
CIRCLE
  8
_0-0_計極細
  6
CONTINUOUS
 62
    2
 10
1362.2369157558778
 20
671.91462726488248
 40
1.0953188836088352
  0
CIRCLE
  8
_0-0_計極細
  6
CONTINUOUS
 62
    2
 10
1395.4902490892109
 20
667.96796059821577
 40
1.0953188836088352
  0
CIRCLE
  8
_0-0_計極細
  6
CONTINUOUS
 62
    2
 10
1404.8769157558772
 20
677.24796059821597
 40
1.0953188836088352
  0
CIRCLE
  8
_0-0_計極細
  6
CONTINUOUS
 62
    2
 10
1407.7569157558773
 20
668.98592356117888
 40
0.3318518518518431
  0
CIRCLE
  8
_0-0_計極細
  6
CONTINUOUS
 62
    2
 10
1389.9969157558778
 20
656.26592356117908
 40
0.3318518518518431
  0
CIRCLE
  8
_0-0_計極細
  6
CONTINUOUS
 62
    2
 10
1381.5969157558777
 20
660.58592356117902
 40
0.3318518518518431
  0
CIRCLE
  8
_0-0_計極細
  6
CONTINUOUS
 62
    2
 10
1392.3969157558779
 20
647.8659235611791
 40
0.3318518518518431
  0
CIRCLE
  8
_0-0_計極細
  6
CONTINUOUS
 62
    2
 10
1393.3569157558779
 20
635.3859235611792
 40
0.3318518518518431
  0
CIRCLE
  8
_0-0_計極細
  6
CONTINUOUS
 62
    2
 10
1389.0369157558778
 20
626.98592356117956
 40
0.3318518518518431
  0
CIRCLE
  8
_0-0_計極細
  6
CONTINUOUS
 62
    2
 10
1365.516915755878
 20
658.90592356117872
 40
0.3318518518518431
  0
CIRCLE
  8
_0-0_計極細
  6
CONTINUOUS
 62
    2
 10
1361.6502490892115
 20
679.57259022784558
 40
0.3318518518518431
  0
CIRCLE
  8
_0-0_計極細
  6
CONTINUOUS
 62
    2
 10
1367.3435824225451
 20
635.15925689451251
 40
0.3318518518518431
  0
CIRCLE
  8
_0-0_計極細
  6
CONTINUOUS
 62
    2
 10
1367.8235824225449
 20
626.35925689451255
 40
0.3318518518518431
  0
CIRCLE
  8
_0-0_計極細
  6
CONTINUOUS
 62
    2
 10
1351.663582422545
 20
626.1992568945127
 40
0.3318518518518431
  0
CIRCLE
  8
_0-0_計極細
  6
CONTINUOUS
 62
    2
 10
1336.4635824225454
 20
611.15925689451274
 40
0.3318518518518431
  0
CIRCLE
  8
_0-0_計極細
  6
CONTINUOUS
 62
    2
 10
1342.0635824225451
 20
621.87925689451254
 40
0.3318518518518431
  0
CIRCLE
  8
_0-0_計極細
  6
CONTINUOUS
 62
    2
 10
1352.7635824225449
 20
635.85925689451255
 40
0.3318518518518431
  0
CIRCLE
  8
_0-0_計極細
  6
CONTINUOUS
 62
    2
 10
1342.2435824225452
 20
646.07259022784569
 40
0.3318518518518431
  0
CIRCLE
  8
_0-0_計極細
  6
CONTINUOUS
 62
    2
 10
1344.6969157558783
 20
661.05925689451237
 40
0.3318518518518431
  0
LINE
  8
_0-0_計極細
  6
CONTINUOUS
 62
    2
 10
1401.8541068598784
 20
607.12169491209306
 11
1415.3867537231158
 21
620.65434177533075
  0
LINE
  8
_0-0_計極細
  6
CONTINUOUS
 62
    2
 10
1359.4276999886856
 20
607.12169491209306
 11
1375.1726601655528
 21
622.86665508896067
  0
LINE
  8
_0-0_計極細
  6
CONTINUOUS
 62
    2
 10
1396.8801054111227
 20
644.57410033453039
 11
1415.3867536986447
 21
663.0807486220524
  0
LINE
  8
_0-0_計極細
  6
CONTINUOUS
 62
    2
 10
1397.611466172759
 20
607.12169491209306
 11
1415.3867537206688
 21
624.89698246000285
  0
LINE
  8
_0-0_計極細
  6
CONTINUOUS
 62
    2
 10
1355.1850593015661
 20
607.12169491209306
 11
1370.9300194784337
 21
622.86665508896067
  0
LINE
  8
_0-0_計極細
  6
CONTINUOUS
 62
    2
 10
1396.8801054111227
 20
648.81674102164982
 11
1411.9300193707033
 21
663.86665498123034
  0
LINE
  8
_0-0_計極細
  6
CONTINUOUS
 62
    2
 10
1393.3688254856397
 20
607.12169491209306
 11
1415.3867537182214
 21
629.13962314467472
  0
LINE
  8
_0-0_計極細
  6
CONTINUOUS
 62
    2
 10
1350.942418614447
 20
607.12169491209306
 11
1366.6873787913141
 21
622.86665508896067
  0
LINE
  8
_0-0_計極細
  6
CONTINUOUS
 62
    2
 10
1396.8801054111227
 20
653.05938170876857
 11
1407.6873787139539
 21
663.86665501160019
  0
LINE
  8
_0-0_計極細
  6
CONTINUOUS
 62
    2
 10
1346.8801054111225
 20
622.86665508896067
 11
1346.8801054111225
 21
607.12169491209306
  0
LINE
  8
_0-0_計極細
  6
CONTINUOUS
 62
    2
 10
1396.8801054111227
 20
663.86665508896044
 11
1415.3867536981916
 21
663.86665508896044
  0
LINE
  8
_0-0_計極細
  6
CONTINUOUS
 62
    2
 10
1346.8801054111225
 20
622.86665508896067
 11
1396.8801054111227
 21
622.86665508896067
  0
LINE
  8
_0-0_計極細
  6
CONTINUOUS
 62
    2
 10
1396.8801054111227
 20
663.86665508896044
 11
1396.8801054111227
 21
622.86665508896067
  0
LINE
  8
_0-0_計極細
  6
CONTINUOUS
 62
    2
 10
1402.9535886513045
 20
683.86665508896067
 11
1409.9535882752309
 21
690.86665471288734
  0
LINE
  8
_0-0_計極細
  6
CONTINUOUS
 62
    2
 10
1390.2256665899463
 20
683.86665508896067
 11
1397.2256663134422
 21
690.86665481245632
  0
LINE
  8
_0-0_計極細
  6
CONTINUOUS
 62
    2
 10
1377.4977445285888
 20
683.86665508896067
 11
1384.4977443516536
 21
690.86665491202541
  0
LINE
  8
_0-0_計極細
  6
CONTINUOUS
 62
    2
 10
1364.7698224672308
 20
683.86665508896067
 11
1371.7698223898649
 21
690.86665501159473
  0
LINE
  8
_0-0_計極細
  6
DASHED2
 62
    2
 10
1409.3175496819833
 20
683.86665508896067
 11
1415.3867536981916
 21
689.93585910516867
  0
LINE
  8
_0-0_計極細
  6
DASHED2
 62
    2
 10
1396.5896276206254
 20
683.86665508896067
 11
1403.5896272943367
 21
690.86665476267194
  0
LINE
  8
_0-0_計極細
  6
DASHED2
 62
    2
 10
1383.8617055592676
 20
683.86665508896067
 11
1390.8617053325479
 21
690.86665486224081
  0
LINE
  8
_0-0_計極細
  6
DASHED2
 62
    2
 10
1371.1337834979097
 20
683.86665508896067
 11
1378.1337833707589
 21
690.86665496181001
  0
LINE
  8
_0-0_計極細
  6
DASHED2
 62
    2
 10
1361.8801054111223
 20
687.3408990635312
 11
1365.4058614089704
 21
690.86665506137922
  0
LINE
  8
_0-0_計極細
  6
CONTINUOUS
 62
    2
 10
1361.8801054111223
 20
686.06810685739549
 11
1359.6786536426876
 21
683.86665508896067
  0
LINE
  8
_0-0_計極細
  6
CONTINUOUS
 62
    2
 10
1361.8801054111223
 20
688.61369126966679
 11
1357.1330692304161
 21
683.86665508896067
  0
LINE
  8
_0-0_計極細
  6
CONTINUOUS
 62
    2
 10
1356.8801054111225
 20
686.15927568193842
 11
1361.5874848181445
 21
690.86665508896078
  0
LINE
  8
_0-0_計極細
  6
CONTINUOUS
 62
    2
 10
1356.8801054111225
 20
688.70486009421029
 11
1359.0419004058729
 21
690.86665508896078
  0
LINE
  8
_0-0_計極細
  6
CONTINUOUS
 62
    2
 10
1361.8801054111225
 20
689.96106176325748
 11
1360.9745120854191
 21
690.86665508896078
  0
LINE
  8
_0-0_計極細
  6
CONTINUOUS
 62
    2
 10
1361.8801054111225
 20
687.41547735098595
 11
1358.4289276731477
 21
690.86665508896078
  0
LINE
  8
_0-0_計極細
  6
CONTINUOUS
 62
    2
 10
1361.8801054111225
 20
684.86989293871397
 11
1356.8801054111225
 21
689.8698929387142
  0
LINE
  8
_0-0_計極細
  6
CONTINUOUS
 62
    2
 10
1360.3377588486044
 20
683.86665508896067
 11
1356.8801054111225
 21
687.32430852644279
  0
LINE
  8
_0-0_計極細
  6
CONTINUOUS
 62
    2
 10
1357.7921744363332
 20
683.86665508896067
 11
1356.8801054111225
 21
684.77872411417093
  0
LINE
  8
_0-0_計極細
  6
CONTINUOUS
 62
    2
 10
1356.8801054111225
 20
683.86665508896067
 11
1415.3867536981916
 21
683.86665508896067
  0
LINE
  8
_0-0_計極細
  6
CONTINUOUS
 62
    2
 10
1361.8801054111225
 20
690.86665508896078
 11
1361.8801054111225
 21
683.86665508896067
  0
ARC
  8
_0-1_計細線
  6
CONTINUOUS
 62
    3
 10
1353.8801054111227
 20
670.86665508896078
 40
3.0000000000000004
 50
269.99999999999977
 51
359.99999999999966
  0
LINE
  8
_0-1_計細線
  6
CONTINUOUS
 62
    3
 10
1356.8801054111225
 20
670.86665508896078
 11
1356.8801054111225
 21
690.36665508896044
  0
LINE
  8
_0-1_計細線
  6
CONTINUOUS
 62
    3
 10
1353.8801054111227
 20
667.86665508896067
 11
1327.3801054111223
 21
667.86665508896067
  0
LINE
  8
_0-1_計細線
  6
CONTINUOUS
 62
    3
 10
1326.8801054111225
 20
668.36665508896044
 11
1327.3801054111223
 21
667.86665508896067
  0
LINE
  8
_0-1_計細線
  6
CONTINUOUS
 62
    3
 10
1326.8801054111225
 20
670.36665508896067
 11
1326.8801054111225
 21
668.36665508896044
  0
LINE
  8
_0-1_計細線
  6
CONTINUOUS
 62
    3
 10
1327.3801054111223
 20
670.86665508896078
 11
1326.8801054111225
 21
670.36665508896067
  0
LINE
  8
_0-1_計細線
  6
CONTINUOUS
 62
    3
 10
1353.8801054111227
 20
670.86665508896078
 11
1327.3801054111223
 21
670.86665508896078
  0
LINE
  8
_0-1_計細線
  6
CONTINUOUS
 62
    3
 10
1356.3801054111227
 20
690.86665508896078
 11
1356.8801054111225
 21
690.36665508896044
  0
LINE
  8
_0-1_計細線
  6
CONTINUOUS
 62
    3
 10
1354.3801054111225
 20
690.86665508896078
 11
1356.3801054111227
 21
690.86665508896078
  0
LINE
  8
_0-1_計細線
  6
CONTINUOUS
 62
    3
 10
1353.8801054111227
 20
690.36665508896044
 11
1354.3801054111225
 21
690.86665508896078
  0
LINE
  8
_0-1_計細線
  6
CONTINUOUS
 62
    3
 10
1353.8801054111227
 20
670.86665508896078
 11
1353.8801054111227
 21
690.36665508896044
  0
LINE
  8
_0-1_計細線
  6
CONTINUOUS
 62
    3
 10
1347.8801054134285
 20
670.86665508896078
 11
1344.4801054134286
 21
670.86665508896078
  0
LINE
  8
_0-1_計細線
  6
CONTINUOUS
 62
    3
 10
1331.0801054132569
 20
670.86665508896078
 11
1327.6801054132566
 21
670.86665508896078
  0
LINE
  8
_0-0_計極細
  6
CENTER1
 62
    2
 10
927.3801054111226
 20
617.90061091828898
 11
927.3801054111226
 21
651.88342399671592
  0
LINE
  8
_0-0_計極細
  6
CONTINUOUS
 62
    2
 10
922.8801054111226
 20
649.31799189795015
 11
922.8801054111226
 21
622.86665508896067
  0
LINE
  8
_0-0_計極細
  6
CONTINUOUS
 62
    2
 10
931.88010541112249
 20
649.31799189795015
 11
922.8801054111226
 21
649.31799189795015
  0
LINE
  8
_0-0_計極細
  6
CONTINUOUS
 62
    2
 10
931.88010541112249
 20
622.86665508896067
 11
931.88010541112249
 21
649.31799189795015
  0
LINE
  8
_0-0_計極細
  6
CENTER1
 62
    2
 10
916.18371379866994
 20
640.94211455598156
 11
954.60232608820945
 21
654.92534584700252
  0
LINE
  8
_0-0_計極細
  6
CONTINUOUS
 62
    2
 10
920.69606447883132
 20
637.79567578646265
 11
953.77067137303993
 21
649.83384820601054
  0
LINE
  8
_0-0_計極細
  6
CONTINUOUS
 62
    2
 10
917.61788318890012
 20
646.25290937353611
 11
950.69249008310919
 21
658.29108179308378
  0
LINE
  8
_0-0_計極細
  6
CONTINUOUS
 62
    2
 10
950.69249008310919
 20
658.29108179308378
 11
953.77067137303993
 21
649.83384820601054
  0
LINE
  8
_0-0_計極細
  6
CONTINUOUS
 62
    2
 10
920.69606447883132
 20
637.79567578646265
 11
917.61788318890012
 21
646.25290937353611
  0
CIRCLE
  8
_0-0_計極細
  6
CONTINUOUS
 62
    2
 10
965.53024908921032
 20
646.8079605982166
 40
1.0953188836088352
  0
CIRCLE
  8
_0-0_計極細
  6
CONTINUOUS
 62
    2
 10
972.95247131143526
 20
611.85505871905502
 40
0.3318518518518431
  0
CIRCLE
  8
_0-0_計極細
  6
CONTINUOUS
 62
    2
 10
972.15247131143485
 20
625.44870133895688
 40
0.3318518518518431
  0
CIRCLE
  8
_0-0_計極細
  6
CONTINUOUS
 62
    2
 10
972.74764492254519
 20
658.27462726488295
 40
1.0953188836088352
  0
LINE
  8
_0-0_計極細
  6
CONTINUOUS
 62
    2
 10
976.88010541112249
 20
667.86665508896067
 11
976.88010541112249
 21
607.12169491209306
  0
LINE
  8
_0-0_計極細
  6
CONTINUOUS
 62
    2
 10
976.38010541112237
 20
667.86665508896067
 11
976.88010541112249
 21
667.86665508896067
  0
CIRCLE
  8
_0-0_計極細
  6
CONTINUOUS
 62
    2
 10
893.1947295437044
 20
676.88796059821584
 40
1.0953188836088352
  0
CIRCLE
  8
_0-0_計極細
  6
CONTINUOUS
 62
    2
 10
929.1435824225465
 20
680.88203467228982
 40
0.3318518518518431
  0
CIRCLE
  8
_0-0_計極細
  6
CONTINUOUS
 62
    2
 10
965.86358242254573
 20
614.67462726488316
 40
1.0953188836088352
  0
CIRCLE
  8
_0-0_計極細
  6
CONTINUOUS
 62
    2
 10
962.98358242254596
 20
625.87462726488297
 40
1.0953188836088352
  0
CIRCLE
  8
_0-0_計極細
  6
CONTINUOUS
 62
    2
 10
941.39691575587926
 20
628.03462726488306
 40
1.0953188836088352
  0
CIRCLE
  8
_0-0_計極細
  6
CONTINUOUS
 62
    2
 10
909.47691575587965
 20
635.71462726488312
 40
1.0953188836088352
  0
CIRCLE
  8
_0-0_計極細
  6
CONTINUOUS
 62
    2
 10
921.23691575587964
 20
658.51462726488262
 40
1.0953188836088352
  0
CIRCLE
  8
_0-0_計極細
  6
CONTINUOUS
 62
    2
 10
905.31297726835191
 20
676.35239582970144
 40
1.0953188836088352
  0
CIRCLE
  8
_0-0_計極細
  6
CONTINUOUS
 62
    2
 10
936.37024908921285
 20
672.19462726488268
 40
1.0953188836088352
  0
CIRCLE
  8
_0-0_計極細
  6
CONTINUOUS
 62
    2
 10
948.54358242254636
 20
659.00425689451242
 40
0.3318518518518431
  0
CIRCLE
  8
_0-0_計極細
  6
CONTINUOUS
 62
    2
 10
969.69024908921256
 20
641.1642568945125
 40
0.3318518518518431
  0
CIRCLE
  8
_0-0_計極細
  6
CONTINUOUS
 62
    2
 10
969.37024908921273
 20
651.9375902278457
 40
0.3318518518518431
  0
CIRCLE
  8
_0-0_計極細
  6
CONTINUOUS
 62
    2
 10
960.30358242254636
 20
657.91092356117917
 40
0.3318518518518431
  0
CIRCLE
  8
_0-0_計極細
  6
CONTINUOUS
 62
    2
 10
951.45024908921289
 20
637.43092356117927
 40
0.3318518518518431
  0
CIRCLE
  8
_0-0_計極細
  6
CONTINUOUS
 62
    2
 10
961.45024908921289
 20
611.26203467229038
 40
0.3318518518518431
  0
CIRCLE
  8
_0-0_計極細
  6
CONTINUOUS
 62
    2
 10
965.61024908921297
 20
620.22203467229019
 40
0.3318518518518431
  0
CIRCLE
  8
_0-0_計極細
  6
CONTINUOUS
 62
    2
 10
957.39691575587949
 20
629.18203467229023
 40
0.3318518518518431
  0
CIRCLE
  8
_0-0_計極細
  6
CONTINUOUS
 62
    2
 10
949.61024908921286
 20
627.26203467229038
 40
0.3318518518518431
  0
CIRCLE
  8
_0-0_計極細
  6
CONTINUOUS
 62
    2
 10
937.66358242254637
 20
626.62203467229051
 40
0.3318518518518431
  0
CIRCLE
  8
_0-0_計極細
  6
CONTINUOUS
 62
    2
 10
936.06358242254657
 20
633.66203467229025
 40
0.3318518518518431
  0
CIRCLE
  8
_0-0_計極細
  6
CONTINUOUS
 62
    2
 10
942.78358242254626
 20
636.96870133895709
 40
0.3318518518518431
  0
CIRCLE
  8
_0-0_計極細
  6
CONTINUOUS
 62
    2
 10
919.20358242254633
 20
626.23536800562374
 40
0.3318518518518431
  0
CIRCLE
  8
_0-0_計極細
  6
CONTINUOUS
 62
    2
 10
915.47024908921333
 20
631.35536800562363
 40
0.3318518518518431
  0
CIRCLE
  8
_0-0_計極細
  6
CONTINUOUS
 62
    2
 10
910.2435824225463
 20
627.30203467229035
 40
0.3318518518518431
  0
CIRCLE
  8
_0-0_計極細
  6
CONTINUOUS
 62
    2
 10
913.65691575587971
 20
638.07536800562343
 40
0.3318518518518431
  0
CIRCLE
  8
_0-0_計極細
  6
CONTINUOUS
 62
    2
 10
921.89691575587995
 20
649.96870133895686
 40
0.3318518518518431
  0
CIRCLE
  8
_0-0_計極細
  6
CONTINUOUS
 62
    2
 10
930.75024908921307
 20
658.07536800562343
 40
0.3318518518518431
  0
CIRCLE
  8
_0-0_計極細
  6
CONTINUOUS
 62
    2
 10
938.32358242254622
 20
661.48870133895673
 40
0.3318518518518431
  0
CIRCLE
  8
_0-0_計極細
  6
CONTINUOUS
 62
    2
 10
923.28358242254637
 20
663.72870133895685
 40
0.3318518518518431
  0
CIRCLE
  8
_0-0_計極細
  6
CONTINUOUS
 62
    2
 10
911.01691575587995
 20
664.4753680056233
 40
0.3318518518518431
  0
CIRCLE
  8
_0-0_計極細
  6
CONTINUOUS
 62
    2
 10
920.29024908921315
 20
680.77536800562325
 40
0.3318518518518431
  0
CIRCLE
  8
_0-0_計極細
  6
CONTINUOUS
 62
    2
 10
927.33024908921288
 20
671.81536800562321
 40
0.3318518518518431
  0
CIRCLE
  8
_0-0_計極細
  6
CONTINUOUS
 62
    2
 10
942.26358242254628
 20
672.13536800562338
 40
0.3318518518518431
  0
CIRCLE
  8
_0-0_計極細
  6
CONTINUOUS
 62
    2
 10
938.85024908921298
 20
681.84203467228986
 40
0.3318518518518431
  0
CIRCLE
  8
_0-0_計極細
  6
CONTINUOUS
 62
    2
 10
906.85024908921332
 20
668.82870133895676
 40
0.3318518518518431
  0
CIRCLE
  8
_0-0_計極細
  6
CONTINUOUS
 62
    2
 10
899.11098982995395
 20
672.98870133895662
 40
0.3318518518518431
  0
LINE
  8
_0-0_計極細
  6
CONTINUOUS
 62
    2
 10
934.42692067212863
 20
607.12169498195544
 11
950.17188077913397
 21
622.86665508896067
  0
LINE
  8
_0-0_計極細
  6
CONTINUOUS
 62
    2
 10
892.0005139329437
 20
607.12169511396337
 11
907.74547390794123
 21
622.86665508896067
  0
LINE
  8
_0-0_計極細
  6
CONTINUOUS
 62
    2
 10
888.37345712405363
 20
645.92104517626603
 11
906.31906703674827
 21
663.86665508896044
  0
LINE
  8
_0-0_計極細
  6
CONTINUOUS
 62
    2
 10
930.18427999821017
 20
607.12169499515608
 11
945.92924009201465
 21
622.86665508896067
  0
LINE
  8
_0-0_計極細
  6
CONTINUOUS
 62
    2
 10
888.37345712405363
 20
607.73727899219261
 11
906.88010541112237
 21
626.24392727926124
  0
LINE
  8
_0-0_計極細
  6
CONTINUOUS
 62
    2
 10
888.37345712405363
 20
650.16368586338547
 11
902.07642634962895
 21
663.86665508896044
  0
LINE
  8
_0-0_計極細
  6
CONTINUOUS
 62
    2
 10
925.94163932429183
 20
607.12169500835671
 11
941.68659940489533
 21
622.86665508896067
  0
LINE
  8
_0-0_計極細
  6
CONTINUOUS
 62
    2
 10
888.37345712405363
 20
611.97991967931148
 11
906.88010541112237
 21
630.48656796638056
  0
LINE
  8
_0-0_計極細
  6
CONTINUOUS
 62
    2
 10
888.37345712405363
 20
654.40632655050445
 11
897.83378566250974
 21
663.86665508896044
  0
LINE
  8
_0-0_計極細
  6
CONTINUOUS
 62
    2
 10
956.88010541112237
 20
622.86665508896067
 11
956.88010541112237
 21
607.12169491209306
  0
LINE
  8
_0-0_計極細
  6
CONTINUOUS
 62
    2
 10
906.88010541112237
 20
663.86665508896044
 11
888.37345712405363
 21
663.86665508896044
  0
LINE
  8
_0-0_計極細
  6
CONTINUOUS
 62
    2
 10
956.88010541112237
 20
622.86665508896067
 11
906.88010541112237
 21
622.86665508896067
  0
LINE
  8
_0-0_計極細
  6
CONTINUOUS
 62
    2
 10
906.88010541112237
 20
663.86665508896044
 11
906.88010541112237
 21
622.86665508896067
  0
CIRCLE
  8
_0-0_計極細
  6
CONTINUOUS
 62
    2
 10
928.69024908921301
 20
678.47462726488243
 40
1.0953188836088352
  0
CIRCLE
  8
_0-0_計極細
  6
CONTINUOUS
 62
    2
 10
901.94358242254668
 20
679.45536800562309
 40
0.3318518518518431
  0
LINE
  8
_0-0_計極細
  6
CONTINUOUS
 62
    2
 10
946.76125125730664
 20
683.86665508896067
 11
946.88010541112237
 21
683.98550924277629
  0
LINE
  8
_0-0_計極細
  6
CONTINUOUS
 62
    2
 10
944.21566684503534
 20
683.86665508896067
 11
946.88010541112249
 21
686.5310936550477
  0
LINE
  8
_0-0_計極細
  6
CONTINUOUS
 62
    2
 10
941.88010541112237
 20
684.07667806731934
 11
946.88010541112249
 21
689.07667806731934
  0
LINE
  8
_0-0_計極細
  6
CONTINUOUS
 62
    2
 10
941.88010541112237
 20
686.62226247959086
 11
946.12449802049196
 21
690.86665508896078
  0
LINE
  8
_0-0_計極細
  6
CONTINUOUS
 62
    2
 10
941.88010541112237
 20
689.16784689186238
 11
943.57891360822066
 21
690.86665508896078
  0
LINE
  8
_0-0_計極細
  6
CONTINUOUS
 62
    2
 10
946.88010541112249
 20
689.49807496560561
 11
945.51152528776754
 21
690.86665508896078
  0
LINE
  8
_0-0_計極細
  6
CONTINUOUS
 62
    2
 10
946.88010541112249
 20
686.95249055333375
 11
942.96594087549568
 21
690.86665508896078
  0
LINE
  8
_0-0_計極細
  6
CONTINUOUS
 62
    2
 10
941.88010541112237
 20
689.40690614106256
 11
946.88010541112249
 21
684.40690614106234
  0
LINE
  8
_0-0_計極細
  6
CONTINUOUS
 62
    2
 10
941.88010541112237
 20
686.8613217287907
 11
944.87477205095229
 21
683.86665508896067
  0
LINE
  8
_0-0_計極細
  6
CONTINUOUS
 62
    2
 10
941.88010541112237
 20
684.3157373165194
 11
942.32918763868099
 21
683.86665508896067
  0
LINE
  8
_0-0_計極細
  6
CONTINUOUS
 62
    2
 10
946.88010541112249
 20
683.86665508896067
 11
888.37345712405363
 21
683.86665508896067
  0
LINE
  8
_0-0_計極細
  6
CONTINUOUS
 62
    2
 10
941.88010541112237
 20
690.86665508896078
 11
941.88010541112237
 21
683.86665508896067
  0
ARC
  8
_0-1_計細線
  6
CONTINUOUS
 62
    3
 10
949.8801054111226
 20
670.86665508896078
 40
3.0000000000000004
 50
179.99999999999983
 51
269.99999999999977
  0
LINE
  8
_0-1_計細線
  6
CONTINUOUS
 62
    3
 10
946.88010541112249
 20
670.86665508896078
 11
946.88010541112249
 21
690.36665508896044
  0
LINE
  8
_0-1_計細線
  6
CONTINUOUS
 62
    3
 10
949.8801054111226
 20
667.86665508896067
 11
976.38010541112237
 21
667.86665508896067
  0
LINE
  8
_0-1_計細線
  6
CONTINUOUS
 62
    3
 10
976.88010541112249
 20
668.36665508896044
 11
976.38010541112237
 21
667.86665508896067
  0
LINE
  8
_0-1_計細線
  6
CONTINUOUS
 62
    3
 10
976.88010541112249
 20
670.36665508896067
 11
976.88010541112249
 21
668.36665508896044
  0
LINE
  8
_0-1_計細線
  6
CONTINUOUS
 62
    3
 10
976.38010541112237
 20
670.86665508896078
 11
976.88010541112249
 21
670.36665508896067
  0
LINE
  8
_0-1_計細線
  6
CONTINUOUS
 62
    3
 10
949.8801054111226
 20
670.86665508896078
 11
976.38010541112237
 21
670.86665508896078
  0
LINE
  8
_0-1_計細線
  6
CONTINUOUS
 62
    3
 10
947.38010541112226
 20
690.86665508896078
 11
946.88010541112249
 21
690.36665508896044
  0
LINE
  8
_0-1_計細線
  6
CONTINUOUS
 62
    3
 10
949.38010541112237
 20
690.86665508896078
 11
947.38010541112226
 21
690.86665508896078
  0
LINE
  8
_0-1_計細線
  6
CONTINUOUS
 62
    3
 10
949.8801054111226
 20
690.36665508896044
 11
949.38010541112237
 21
690.86665508896078
  0
LINE
  8
_0-1_計細線
  6
CONTINUOUS
 62
    3
 10
949.8801054111226
 20
670.86665508896078
 11
949.8801054111226
 21
690.36665508896044
  0
LINE
  8
_0-1_計細線
  6
CONTINUOUS
 62
    3
 10
959.28010540967534
 20
670.86665508896078
 11
955.88010540967525
 21
670.86665508896078
  0
LINE
  8
_0-1_計細線
  6
CONTINUOUS
 62
    3
 10
972.68010540898854
 20
670.86665508896078
 11
976.0801054089884
 21
670.86665508896078
  0
LINE
  8
_0-5_寸法線
  6
CONTINUOUS
 62
    7
 10
946.88010541112249
 20
634.8666550889609
 11
946.88010541112237
 21
570.54415513685012
  0
LINE
  8
_0-5_寸法線
  6
CONTINUOUS
 62
    7
 10
946.88010541112237
 20
575.54415513685012
 11
956.53936367401298
 21
578.13234558787531
  0
LINE
  8
_0-5_寸法線
  6
CONTINUOUS
 62
    7
 10
946.88010541112237
 20
575.54415513685012
 11
956.53936367401298
 21
572.95596468582494
  0
LINE
  8
_0-5_寸法線
  6
CONTINUOUS
 62
    7
 10
976.88010541112249
 20
597.12169491209306
 11
976.88010541112237
 21
570.54415513685012
  0
LINE
  8
_0-5_寸法線
  6
CONTINUOUS
 62
    7
 10
976.88010541112237
 20
575.54415513685012
 11
967.22084714823154
 21
572.95596468582494
  0
LINE
  8
_0-5_寸法線
  6
CONTINUOUS
 62
    7
 10
976.88010541112237
 20
575.54415513685012
 11
967.22084714823154
 21
578.13234558787531
  0
LINE
  8
_0-5_寸法線
  6
CONTINUOUS
 62
    7
 10
946.88010541112237
 20
575.54415513685012
 11
976.88010541112237
 21
575.54415513685012
  0
TEXT
  8
_0-5_寸法線
 62
    7
 10
954.38010541112237
 20
575.54415513685012
 40
15
 41
1
 50
0
  1
30
  0
LINE
  8
_0-5_寸法線
  6
CONTINUOUS
 62
    7
 10
976.88010541112237
 20
575.54415513685012
 11
986.53936367401298
 21
578.13234558787531
  0
LINE
  8
_0-5_寸法線
  6
CONTINUOUS
 62
    7
 10
976.88010541112237
 20
575.54415513685012
 11
986.53936367401298
 21
572.95596468582494
  0
LINE
  8
_0-5_寸法線
  6
CONTINUOUS
 62
    7
 10
1326.8801054111225
 20
597.12169491209306
 11
1326.8801054111223
 21
570.54415513685012
  0
LINE
  8
_0-5_寸法線
  6
CONTINUOUS
 62
    7
 10
1326.8801054111223
 20
575.54415513685012
 11
1317.2208471482315
 21
572.95596468582494
  0
LINE
  8
_0-5_寸法線
  6
CONTINUOUS
 62
    7
 10
1326.8801054111223
 20
575.54415513685012
 11
1317.2208471482315
 21
578.13234558787531
  0
LINE
  8
_0-5_寸法線
  6
CONTINUOUS
 62
    7
 10
976.88010541112237
 20
575.54415513685012
 11
1326.8801054111223
 21
575.54415513685012
  0
TEXT
  8
_0-5_寸法線
 62
    7
 10
1144.3801054111223
 20
575.54415513685012
 40
15
 41
1
 50
0
  1
Ｂ
  0
LINE
  8
_0-5_寸法線
  6
CONTINUOUS
 62
    7
 10
1326.8801054111223
 20
575.54415513685012
 11
1336.5393636740132
 21
578.13234558787531
  0
LINE
  8
_0-5_寸法線
  6
CONTINUOUS
 62
    7
 10
1326.8801054111223
 20
575.54415513685012
 11
1336.5393636740132
 21
572.95596468582494
  0
LINE
  8
_0-5_寸法線
  6
CONTINUOUS
 62
    7
 10
1356.8801054111225
 20
634.8666550889609
 11
1356.8801054111223
 21
570.54415513685012
  0
LINE
  8
_0-5_寸法線
  6
CONTINUOUS
 62
    7
 10
1356.8801054111223
 20
575.54415513685012
 11
1347.2208471482315
 21
572.95596468582494
  0
LINE
  8
_0-5_寸法線
  6
CONTINUOUS
 62
    7
 10
1356.8801054111223
 20
575.54415513685012
 11
1347.2208471482315
 21
578.13234558787531
  0
LINE
  8
_0-5_寸法線
  6
CONTINUOUS
 62
    7
 10
1326.8801054111223
 20
575.54415513685012
 11
1356.8801054111223
 21
575.54415513685012
  0
TEXT
  8
_0-5_寸法線
 62
    7
 10
1334.3801054111223
 20
575.54415513685012
 40
15
 41
1
 50
0
  1
30
  0
LINE
  8
_0-0_計極細
  6
CENTER1
 62
    2
 10
951.88010541112237
 20
682.86665508896067
 11
1351.8801054111223
 21
682.86665508896067
  0
LINE
  8
_0-0_計極細
  6
CENTER1
 62
    2
 10
1151.8801054111225
 20
664.55517965649074
 11
1151.8801054111225
 21
702.62517965649477
  0
LINE
  8
_0-1_計細線
  6
CONTINUOUS
 62
    3
 10
954.8801054111226
 20
690.86665508896078
 11
1348.880105411122
 21
690.86665508896135
  0
LINE
  8
_0-1_計細線
  6
CONTINUOUS
 62
    3
 10
1348.880105411122
 20
670.86665508896135
 11
1348.880105411122
 21
690.86665508896135
  0
LINE
  8
_0-1_計細線
  6
CONTINUOUS
 62
    3
 10
1348.880105411122
 20
690.86665508896135
 11
1351.8801054111223
 21
690.86665508896135
  0
LINE
  8
_0-1_計細線
  6
CONTINUOUS
 62
    3
 10
1351.8801054111223
 20
690.86665508896135
 11
1351.8801054111223
 21
670.86665508896135
  0
LINE
  8
_0-1_計細線
  6
CONTINUOUS
 62
    3
 10
1351.8801054111223
 20
670.86665508896135
 11
1348.880105411122
 21
670.86665508896135
  0
ARC
  8
_0-1_計細線
  6
CONTINUOUS
 62
    3
 10
1251.880105411122
 20
682.86665508896124
 40
5.25
 50
114.03943363457158
 51
245.96056636541496
  0
ARC
  8
_0-1_計細線
  6
CONTINUOUS
 62
    3
 10
1251.880105411122
 20
682.86665508896124
 40
5.25
 50
294.03943363458887
 51
65.960566365428065
  0
ARC
  8
_0-1_計細線
  6
CONTINUOUS
 62
    3
 10
1251.8801054111277
 20
679.36665508899625
 40
1.4999999999947704
 50
179.99999999999983
 51
359.99999999999966
  0
LINE
  8
_0-1_計細線
  6
CONTINUOUS
 62
    3
 10
1253.380105411122
 20
686.36665508896112
 11
1253.380105411122
 21
679.36665508896112
  0
ARC
  8
_0-1_計細線
  6
CONTINUOUS
 62
    3
 10
1251.8801054111277
 20
686.36665508891838
 40
1.5000000000052296
 50
0
 51
179.99999999999983
  0
LINE
  8
_0-1_計細線
  6
CONTINUOUS
 62
    3
 10
1250.3801054111223
 20
679.36665508896112
 11
1250.3801054111223
 21
686.36665508896112
  0
ARC
  8
_0-1_計細線
  6
CONTINUOUS
 62
    3
 10
1251.8801054111043
 20
679.36665508903491
 40
2.500000000017963
 50
179.99999999999983
 51
359.99999999999966
  0
LINE
  8
_0-1_計細線
  6
CONTINUOUS
 62
    3
 10
1254.380105411122
 20
686.36665508896112
 11
1254.380105411122
 21
679.36665508896112
  0
ARC
  8
_0-1_計細線
  6
CONTINUOUS
 62
    3
 10
1251.8801054111043
 20
686.36665508894157
 40
2.4999999999820375
 50
0
 51
179.99999999999983
  0
LINE
  8
_0-1_計細線
  6
CONTINUOUS
 62
    3
 10
1249.380105411122
 20
679.36665508896112
 11
1249.380105411122
 21
686.36665508896112
  0
ARC
  8
_0-1_計細線
  6
CONTINUOUS
 62
    3
 10
1151.880105411122
 20
682.8666550889609
 40
5.25
 50
114.03943363457158
 51
245.96056636541496
  0
ARC
  8
_0-1_計細線
  6
CONTINUOUS
 62
    3
 10
1151.880105411122
 20
682.8666550889609
 40
5.25
 50
294.03943363458887
 51
65.960566365428065
  0
ARC
  8
_0-1_計細線
  6
CONTINUOUS
 62
    3
 10
1151.8801054110884
 20
679.3666550889568
 40
1.5000000000336513
 50
179.99999999999983
 51
359.99999999999966
  0
LINE
  8
_0-1_計細線
  6
CONTINUOUS
 62
    3
 10
1153.380105411122
 20
686.3666550889609
 11
1153.380105411122
 21
679.36665508896101
  0
ARC
  8
_0-1_計細線
  6
CONTINUOUS
 62
    3
 10
1151.8801054111277
 20
686.36665508899591
 40
1.5000000000052296
 50
0
 51
179.99999999999983
  0
LINE
  8
_0-1_計細線
  6
CONTINUOUS
 62
    3
 10
1150.3801054111223
 20
679.36665508896101
 11
1150.3801054111223
 21
686.3666550889609
  0
ARC
  8
_0-1_計細線
  6
CONTINUOUS
 62
    3
 10
1151.8801054111043
 20
679.3666550889883
 40
2.500000000017963
 50
179.99999999999983
 51
359.99999999999966
  0
LINE
  8
_0-1_計細線
  6
CONTINUOUS
 62
    3
 10
1154.380105411122
 20
686.3666550889609
 11
1154.380105411122
 21
679.36665508896101
  0
ARC
  8
_0-1_計細線
  6
CONTINUOUS
 62
    3
 10
1151.8801054111277
 20
686.36665508896454
 40
2.5000000000052296
 50
0
 51
179.99999999999983
  0
LINE
  8
_0-1_計細線
  6
CONTINUOUS
 62
    3
 10
1149.380105411122
 20
679.36665508896101
 11
1149.380105411122
 21
686.3666550889609
  0
ARC
  8
_0-1_計細線
  6
CONTINUOUS
 62
    3
 10
1051.8801054111348
 20
679.36665508896476
 40
2.4999999999876081
 50
179.99999999999983
 51
359.99999999999966
  0
LINE
  8
_0-1_計細線
  6
CONTINUOUS
 62
    3
 10
1054.3801054111225
 20
686.36665508896067
 11
1054.3801054111225
 21
679.36665508896067
  0
ARC
  8
_0-1_計細線
  6
CONTINUOUS
 62
    3
 10
1051.8801054111232
 20
686.36665508895351
 40
2.5000000000005684
 50
0
 51
179.99999999999983
  0
LINE
  8
_0-1_計細線
  6
CONTINUOUS
 62
    3
 10
1049.3801054111225
 20
679.36665508896067
 11
1049.3801054111225
 21
686.36665508896067
  0
ARC
  8
_0-1_計細線
  6
CONTINUOUS
 62
    3
 10
1051.8801054110891
 20
679.36665508895658
 40
1.5000000000337652
 50
179.99999999999983
 51
359.99999999999966
  0
LINE
  8
_0-1_計細線
  6
CONTINUOUS
 62
    3
 10
1053.3801054111225
 20
686.36665508896067
 11
1053.3801054111225
 21
679.36665508896067
  0
ARC
  8
_0-1_計細線
  6
CONTINUOUS
 62
    3
 10
1051.8801054111277
 20
686.36665508895658
 40
1.5000000000050022
 50
0
 51
179.99999999999983
  0
LINE
  8
_0-1_計細線
  6
CONTINUOUS
 62
    3
 10
1050.3801054111225
 20
679.36665508896067
 11
1050.3801054111225
 21
686.36665508896067
  0
ARC
  8
_0-1_計細線
  6
CONTINUOUS
 62
    3
 10
1051.8801054111225
 20
682.86665508896067
 40
5.25
 50
294.03943363458433
 51
65.960566365428065
  0
ARC
  8
_0-1_計細線
  6
CONTINUOUS
 62
    3
 10
1051.8801054111225
 20
682.86665508896067
 40
5.25
 50
114.03943363457158
 51
245.96056636541044
  0
LINE
  8
_0-1_計細線
  6
CONTINUOUS
 62
    3
 10
954.8801054111226
 20
670.86665508896078
 11
954.8801054111226
 21
690.86665508896078
  0
LINE
  8
_0-1_計細線
  6
CONTINUOUS
 62
    3
 10
954.8801054111226
 20
690.86665508896078
 11
951.88010541112249
 21
690.86665508896078
  0
LINE
  8
_0-1_計細線
  6
CONTINUOUS
 62
    3
 10
951.88010541112249
 20
690.86665508896078
 11
951.88010541112249
 21
670.86665508896078
  0
LINE
  8
_0-1_計細線
  6
CONTINUOUS
 62
    3
 10
951.88010541112249
 20
670.86665508896078
 11
954.8801054111226
 21
670.86665508896078
  0
LINE
  8
_0-1_計細線
  6
CONTINUOUS
 62
    3
 10
954.8801054111226
 20
670.86665508896078
 11
1348.880105411122
 21
670.86665508896135
  0
LINE
  8
_0-5_寸法線
  6
CONTINUOUS
 62
    7
 10
1144.2196609799328
 20
677.29453118582626
 11
1108.2675554724124
 21
707.46192965723355
  0
LINE
  8
_0-5_寸法線
  6
CONTINUOUS
 62
    7
 10
1112.0977776880072
 20
704.2479916088007
 11
1109.509587236982
 21
713.90724987169153
  0
LINE
  8
_0-5_寸法線
  6
CONTINUOUS
 62
    7
 10
1112.0977776880072
 20
704.2479916088007
 11
1114.6859681390324
 21
713.90724987169153
  0
LINE
  8
_0-5_寸法線
  6
CONTINUOUS
 62
    7
 10
1144.2196609799328
 20
697.29453118582626
 11
1108.2675554724124
 21
727.46192965723355
  0
LINE
  8
_0-5_寸法線
  6
CONTINUOUS
 62
    7
 10
1112.0977776880072
 20
724.2479916088007
 11
1114.6859681390324
 21
714.58873334590999
  0
LINE
  8
_0-5_寸法線
  6
CONTINUOUS
 62
    7
 10
1112.0977776880072
 20
724.2479916088007
 11
1109.509587236982
 21
714.58873334590999
  0
LINE
  8
_0-5_寸法線
  6
CONTINUOUS
 62
    7
 10
1112.0977776880072
 20
704.2479916088007
 11
1112.0977776880072
 21
724.2479916088007
  0
TEXT
  8
_0-5_寸法線
 62
    7
 10
1112.0977776880072
 20
706.81679012346558
 40
15
 41
1
 50
90
  1
20
  0
LINE
  8
_0-5_寸法線
  6
CONTINUOUS
 62
    7
 10
946.88010541112249
 20
700.36665508896044
 11
946.88010541112305
 21
850.86665508896078
  0
LINE
  8
_0-5_寸法線
  6
CONTINUOUS
 62
    7
 10
946.88010541112305
 20
845.86665508896078
 11
956.53936367401366
 21
848.45484553998585
  0
LINE
  8
_0-5_寸法線
  6
CONTINUOUS
 62
    7
 10
946.88010541112305
 20
845.86665508896078
 11
956.53936367401366
 21
843.27846463793549
  0
LINE
  8
_0-5_寸法線
  6
CONTINUOUS
 62
    7
 10
1356.8801054111232
 20
700.36665508896044
 11
1356.8801054111234
 21
850.86665508896078
  0
LINE
  8
_0-5_寸法線
  6
CONTINUOUS
 62
    7
 10
1356.8801054111234
 20
845.86665508896078
 11
1347.2208471482327
 21
843.27846463793549
  0
LINE
  8
_0-5_寸法線
  6
CONTINUOUS
 62
    7
 10
1356.8801054111234
 20
845.86665508896078
 11
1347.2208471482327
 21
848.45484553998585
  0
LINE
  8
_0-5_寸法線
  6
CONTINUOUS
 62
    7
 10
946.88010541112305
 20
845.86665508896078
 11
1356.8801054111234
 21
845.86665508896078
  0
TEXT
  8
_0-5_寸法線
 62
    7
 10
1144.3801054111225
 20
845.86665508896078
 40
15
 41
1
 50
0
  1
Ｗ
  0
LINE
  8
_0-5_寸法線
  6
CONTINUOUS
 62
    7
 10
1351.8801054111225
 20
700.36665508896124
 11
1351.8801054111225
 21
780.86665508896078
  0
LINE
  8
_0-5_寸法線
  6
CONTINUOUS
 62
    7
 10
1351.8801054111225
 20
775.86665508896078
 11
1342.2208471482318
 21
773.27846463793549
  0
LINE
  8
_0-5_寸法線
  6
CONTINUOUS
 62
    7
 10
1351.8801054111225
 20
775.86665508896078
 11
1342.2208471482318
 21
778.45484553998585
  0
LINE
  8
_0-5_寸法線
  6
CONTINUOUS
 62
    7
 10
951.88010541112305
 20
700.36665508896044
 11
951.88010541112305
 21
780.86665508896078
  0
LINE
  8
_0-5_寸法線
  6
CONTINUOUS
 62
    7
 10
951.88010541112305
 20
775.86665508896078
 11
961.53936367401366
 21
778.45484553998585
  0
LINE
  8
_0-5_寸法線
  6
CONTINUOUS
 62
    7
 10
951.88010541112305
 20
775.86665508896078
 11
961.53936367401366
 21
773.27846463793549
  0
LINE
  8
_0-5_寸法線
  6
CONTINUOUS
 62
    7
 10
1351.8801054111225
 20
775.86665508896078
 11
951.88010541112305
 21
775.86665508896078
  0
TEXT
  8
_0-5_寸法線
 62
    7
 10
1144.3801054111225
 20
775.86665508895976
 40
15
 41
1
 50
0
  1
Ａ
  0
LINE
  8
_0-5_寸法線
  6
CONTINUOUS
 62
    7
 10
951.88010541112249
 20
700.86665508896078
 11
951.88010541112249
 21
745.86665508896078
  0
LINE
  8
_0-5_寸法線
  6
CONTINUOUS
 62
    7
 10
951.88010541112249
 20
740.86665508896078
 11
961.53936367401332
 21
743.45484553998585
  0
LINE
  8
_0-5_寸法線
  6
CONTINUOUS
 62
    7
 10
951.88010541112249
 20
740.86665508896078
 11
961.53936367401332
 21
738.27846463793549
  0
LINE
  8
_0-5_寸法線
  6
CONTINUOUS
 62
    7
 10
1351.8801054111223
 20
700.86665508896078
 11
1351.8801054111223
 21
745.86665508896078
  0
LINE
  8
_0-5_寸法線
  6
CONTINUOUS
 62
    7
 10
1351.8801054111223
 20
740.86665508896078
 11
1342.2208471482313
 21
738.27846463793549
  0
LINE
  8
_0-5_寸法線
  6
CONTINUOUS
 62
    7
 10
1351.8801054111223
 20
740.86665508896078
 11
1342.2208471482313
 21
743.45484553998585
  0
LINE
  8
_0-5_寸法線
  6
CONTINUOUS
 62
    7
 10
951.88010541112249
 20
740.86665508896078
 11
1351.8801054111223
 21
740.86665508896078
  0
TEXT
  8
_0-5_寸法線
 62
    7
 10
1144.3801054111225
 20
740.86665508896078
 40
15
 41
1
 50
0
  1
Ｐ
  0
LINE
  8
_0-0_計極細
  6
CONTINUOUS
 62
    2
 10
936.57891360454403
 20
683.86665508528426
 11
941.88010541112237
 21
689.16784689186238
  0
LINE
  8
_0-0_計極細
  6
CONTINUOUS
 62
    2
 10
923.85099153435954
 20
683.86665507645739
 11
930.85099154686259
 21
690.86665508896078
  0
LINE
  8
_0-0_計極細
  6
CONTINUOUS
 62
    2
 10
911.1230694641747
 20
683.86665506763052
 11
918.12306948550474
 21
690.86665508896078
  0
LINE
  8
_0-0_計極細
  6
CONTINUOUS
 62
    2
 10
898.39514739399021
 20
683.86665505880387
 11
905.39514742414667
 21
690.86665508896078
  0
LINE
  8
_0-0_計極細
  6
DASHED2
 62
    2
 10
930.21495256945173
 20
683.86665508087071
 11
937.21495257754168
 21
690.8666550889609
  0
LINE
  8
_0-0_計極細
  6
DASHED2
 62
    2
 10
917.48703049926689
 20
683.86665507204407
 11
924.48703051618384
 21
690.86665508896078
  0
LINE
  8
_0-0_計極細
  6
DASHED2
 62
    2
 10
904.75910842908263
 20
683.86665506321742
 11
911.75910845482576
 21
690.86665508896078
  0
LINE
  8
_0-0_計極細
  6
DASHED2
 62
    2
 10
892.0311863588978
 20
683.86665505439055
 11
899.03118639346781
 21
690.86665508896078
  0
LINE
  8
_0-0_計極細
  6
CONTINUOUS
 62
    2
 10
1356.8801054111225
 20
690.36665508896044
 11
1356.8801054111225
 21
690.86665508896078
  0
LINE
  8
_0-0_計極細
  6
CONTINUOUS
 62
    2
 10
1356.8801054111225
 20
690.86665508896078
 11
1415.3867536981916
 21
690.86665508896078
  0
LINE
  8
_0-0_計極細
  6
CONTINUOUS
 62
    2
 10
946.88010541112249
 20
690.36665508896044
 11
946.88010541112249
 21
690.86665508896078
  0
LINE
  8
_0-0_計極細
  6
CONTINUOUS
 62
    2
 10
946.88010541112249
 20
690.86665508896078
 11
888.37345712405363
 21
690.86665508896078
  0
TEXT
  8
_0-7_枠細線
 62
    5
 10
960.5
 20
109.99999999999993
 40
20.000000000000007
 41
0.5999999999999998
 50
0
  1
ＧＳＦ－２０Ｋ３００～６５０
  0
TEXT
  8
_0-7_枠細線
 62
    5
 10
1180
 20
927.5
 40
12.5
 41
0.7199999999999999
 50
0
  1
２０１５．０４．０１
  0
TEXT
  8
_0-7_枠細線
 62
    5
 10
965.49999999999966
 20
70
 40
20.000000000000004
 41
0.5999999999999997
 50
0
  1
表面形状については記号表参照のこと
  0
LINE
  8
_0-7_枠細線
  6
CONTINUOUS
 62
    5
 10
875
 20
180
 11
875
 21
75.000000000000426
  0
TEXT
  8
_0-7_枠細線
 62
    5
 10
784.00000000000091
 20
160
 40
15.000000000000002
 41
0.8
 50
0
  1
ノンスリップ
  0
TEXT
  8
_0-7_枠細線
 62
    5
 10
796.00000000000023
 20
135.00000000000006
 40
15.000000000000002
 41
0.8
 50
0
  1
品番－Ｄ
  0
LINE
  8
_0-7_枠細線
  6
CONTINUOUS
 62
    5
 10
764.99999999999955
 20
180
 11
764.99999999999955
 21
75.000000000000426
  0
TEXT
  8
_0-7_枠細線
 62
    5
 10
685.99999999999955
 20
160.00000000000014
 40
15.000000000000002
 41
0.8
 50
0
  1
プレーン
  0
TEXT
  8
_0-7_枠細線
 62
    5
 10
686.00000000000023
 20
135.00000000000006
 40
15.000000000000002
 41
0.8
 50
0
  1
品番－Ｆ
  0
TEXT
  8
_0-7_枠細線
 62
    5
 10
605.99999999999977
 20
160
 40
15.000000000000002
 41
0.8
 50
0
  1
タ イ プ
  0
LINE
  8
_0-7_枠細線
  6
CONTINUOUS
 62
    5
 10
604.99999999999909
 20
130.00000000000006
 11
875
 21
130.00000000000006
  0
LINE
  8
_0-7_枠細線
  6
CONTINUOUS
 62
    5
 10
604.99999999999909
 20
155
 11
875
 21
155
  0
LINE
  8
_0-7_枠細線
  6
CONTINUOUS
 62
    5
 10
604.99999999999909
 20
180
 11
875
 21
180
  0
LINE
  8
_0-7_枠細線
  6
CONTINUOUS
 62
    5
 10
604.99999999999909
 20
75.000000000000426
 11
875
 21
75.000000000000426
  0
LINE
  8
_0-7_枠細線
  6
CONTINUOUS
 62
    5
 10
655
 20
180
 11
655
 21
75.000000000000426
  0
LINE
  8
_0-7_枠細線
  6
CONTINUOUS
 62
    5
 10
604.99999999999909
 20
180
 11
604.99999999999909
 21
75.000000000000426
  0
TEXT
  8
_0-7_枠細線
 62
    5
 10
605.99999999999977
 20
95.000000000000284
 40
15.000000000000002
 41
0.8
 50
0
  1
表面形状
  0
TEXT
  8
_0-7_枠細線
 62
    5
 10
612.77421134081033
 20
182.50000000000014
 40
17.500000000000004
 41
0.7999999999999996
 50
0
  1
記号表
  0
TEXT
  8
_0-7_枠細線
 62
    5
 10
605.99999999999977
 20
135.00000000000014
 40
15.000000000000002
 41
0.8
 50
0
  1
記　　号
  0
ARC
  8
_0-7_枠細線
  6
CONTINUOUS
 62
    5
 10
751.10052916255586
 20
96.70325492607482
 40
8.5903566658075761
 50
317.56162900000447
 51
42.438370999995371
  0
ARC
  8
_0-7_枠細線
  6
CONTINUOUS
 62
    5
 10
656.22004250537771
 20
96.70325492607482
 40
8.5903566658076702
 50
317.56162899999947
 51
42.43837100000087
  0
ARC
  8
_0-7_枠細線
  6
CONTINUOUS
 62
    5
 10
668.89947083744391
 20
108.29674492491563
 40
8.5903566658076702
 50
137.56162899999987
 51
222.43837100000292
  0
ARC
  8
_0-7_枠細線
  6
CONTINUOUS
 62
    5
 10
763.77995749462184
 20
108.29674492491563
 40
8.5903566658075761
 50
137.56162899999941
 51
222.4383710000034
  0
LINE
  8
_0-7_枠細線
  6
CONTINUOUS
 62
    5
 10
660.4796638296325
 20
109.9999999254949
 11
755.36015048681111
 21
109.9999999254949
  0
LINE
  8
_0-7_枠細線
  6
CONTINUOUS
 62
    5
 10
759.52033617036705
 20
94.999999925495331
 11
664.63984951318889
 21
94.999999925495331
  0
ARC
  8
_0-7_枠細線
  6
CONTINUOUS
 62
    5
 10
766.72039833866074
 20
96.703254926074749
 40
8.5903566658075761
 50
317.5616290000001
 51
42.438371000001837
  0
ARC
  8
_0-7_枠細線
  6
CONTINUOUS
 62
    5
 10
779.39982667072582
 20
108.29674492491556
 40
8.5903566658075761
 50
137.56162900000044
 51
222.43837100000019
  0
ARC
  8
_0-7_枠細線
  6
CONTINUOUS
 62
    5
 10
861.60088499584037
 20
96.703254926074749
 40
8.5903566658075761
 50
317.56162899999799
 51
42.438371000001837
  0
ARC
  8
_0-7_枠細線
  6
CONTINUOUS
 62
    5
 10
874.28031332790533
 20
108.29674492491556
 40
8.5903566658075761
 50
137.56162900000146
 51
222.43837100000019
  0
LINE
  8
_0-7_枠細線
  6
CONTINUOUS
 62
    5
 10
770.98001966291451
 20
109.99999992549483
 11
865.86050632009301
 21
109.99999992549483
  0
LINE
  8
_0-7_枠細線
  6
CONTINUOUS
 62
    5
 10
870.02069200364895
 20
94.999999925495331
 11
775.14020534647091
 21
94.999999925495331
  0
LINE
  8
_0-7_枠細線
  6
CONTINUOUS
 62
    5
 10
770.91772521117969
 20
109.65622367640464
 11
785.57394896208871
 21
94.999999925495402
  0
LINE
  8
_0-7_枠細線
  6
CONTINUOUS
 62
    5
 10
781.18055067988757
 20
109.99999992549483
 11
796.18055067988689
 21
94.999999925495402
  0
LINE
  8
_0-7_枠細線
  6
CONTINUOUS
 62
    5
 10
791.78715239768576
 20
109.99999992549483
 11
806.78715239768508
 21
94.999999925495402
  0
LINE
  8
_0-7_枠細線
  6
CONTINUOUS
 62
    5
 10
802.39375411548394
 20
109.99999992549483
 11
817.39375411548338
 21
94.999999925495402
  0
LINE
  8
_0-7_枠細線
  6
CONTINUOUS
 62
    5
 10
813.0003558332819
 20
109.99999992549483
 11
828.00035583328122
 21
94.999999925495331
  0
LINE
  8
_0-7_枠細線
  6
CONTINUOUS
 62
    5
 10
823.60695755108009
 20
109.99999992549483
 11
838.6069575510794
 21
94.999999925495331
  0
LINE
  8
_0-7_枠細線
  6
CONTINUOUS
 62
    5
 10
834.21355926887827
 20
109.99999992549483
 11
849.2135592688777
 21
94.999999925495331
  0
LINE
  8
_0-7_枠細線
  6
CONTINUOUS
 62
    5
 10
844.82016098667623
 20
109.99999992549483
 11
859.82016098667589
 21
94.999999925495331
  0
LINE
  8
_0-7_枠細線
  6
CONTINUOUS
 62
    5
 10
855.42676270447441
 20
109.99999992549483
 11
870.08298645538389
 21
95.343776174585244
  0
LINE
  8
_0-7_枠細線
  6
CONTINUOUS
 62
    5
 10
866.03336442227317
 20
94.999999925495331
 11
869.91139510994185
 21
98.878030613164185
  0
LINE
  8
_0-7_枠細線
  6
CONTINUOUS
 62
    5
 10
855.42676270447487
 20
94.999999925495331
 11
866.10028190619869
 21
105.67351912721904
  0
LINE
  8
_0-7_枠細線
  6
CONTINUOUS
 62
    5
 10
844.82016098667668
 20
94.999999925495331
 11
859.82016098667623
 21
109.99999992549483
  0
LINE
  8
_0-7_枠細線
  6
CONTINUOUS
 62
    5
 10
834.2135592688785
 20
94.999999925495331
 11
849.21355926887816
 21
109.99999992549483
  0
LINE
  8
_0-7_枠細線
  6
CONTINUOUS
 62
    5
 10
823.60695755108043
 20
94.999999925495402
 11
838.60695755107963
 21
109.99999992549483
  0
LINE
  8
_0-7_枠細線
  6
CONTINUOUS
 62
    5
 10
813.00035583328224
 20
94.999999925495402
 11
828.00035583328156
 21
109.99999992549483
  0
LINE
  8
_0-7_枠細線
  6
CONTINUOUS
 62
    5
 10
802.39375411548383
 20
94.999999925495402
 11
817.39375411548338
 21
109.99999992549483
  0
LINE
  8
_0-7_枠細線
  6
CONTINUOUS
 62
    5
 10
791.78715239768565
 20
94.999999925495402
 11
806.78715239768508
 21
109.99999992549483
  0
LINE
  8
_0-7_枠細線
  6
CONTINUOUS
 62
    5
 10
781.18055067988735
 20
94.999999925495402
 11
796.18055067988689
 21
109.99999992549483
  0
LINE
  8
_0-7_枠細線
  6
CONTINUOUS
 62
    5
 10
774.90042976036489
 20
99.326480723771127
 11
785.57394896208871
 21
109.99999992549483
  0
LINE
  8
_0-7_枠細線
  6
CONTINUOUS
 62
    5
 10
771.08931655662161
 20
106.12196923782584
 11
774.96734724429064
 21
109.99999992549483
  0
TEXT
  8
_0-7_枠細線
 62
    5
 10
1128.5
 20
141.25
 40
20.000000000000007
 41
0.5999999999999998
 50
0
  1
集水マス
  0
LINE
  8
_0-d_寸法3
  6
CONTINUOUS
 62
    7
 10
245.05736963339487
 20
231.4180553467327
 11
207.59797542911954
 21
231.4180553467327
  0
LINE
  8
_0-d_寸法3
  6
CONTINUOUS
 62
    7
 10
212.59797542911954
 20
231.41805534673267
 11
215.18616588014476
 21
221.75879708384201
  0
LINE
  8
_0-d_寸法3
  6
CONTINUOUS
 62
    7
 10
212.59797542911954
 20
231.41805534673267
 11
210.00978497809433
 21
221.75879708384201
  0
LINE
  8
_0-d_寸法3
  6
CONTINUOUS
 62
    7
 10
246.17732299768093
 20
198.08472201339924
 11
207.59797542911954
 21
198.08472201339924
  0
LINE
  8
_0-d_寸法3
  6
CONTINUOUS
 62
    7
 10
212.59797542911954
 20
198.08472201339924
 11
210.00978497809427
 21
207.7439802762899
  0
LINE
  8
_0-d_寸法3
  6
CONTINUOUS
 62
    7
 10
212.59797542911954
 20
198.08472201339924
 11
215.18616588014467
 21
207.7439802762899
  0
LINE
  8
_0-d_寸法3
  6
CONTINUOUS
 62
    7
 10
212.59797542911954
 20
231.41805534673267
 11
212.59797542911954
 21
198.08472201339924
  0
TEXT
  8
_0-d_寸法3
 62
    7
 10
212.59797542911954
 20
207.25138868006596
 40
15
 41
1
 50
90
  1
20
  0
LINE
  8
_0-b_細線3
  6
CONTINUOUS
 62
    7
 10
258.26464209337473
 20
198.08472201339924
 11
256.1773229976809
 21
198.08472201339924
  0
LINE
  8
_0-1_計細線
  6
CONTINUOUS
 62
    3
 10
1356.8801054111225
 20
679.86665508896067
 11
1356.8801054111225
 21
644.8666550889609
  0
LINE
  8
_0-1_計細線
  6
CONTINUOUS
 62
    3
 10
1356.8801054111225
 20
644.8666550889609
 11
1359.1801054111224
 21
644.8666550889609
  0
LINE
  8
_0-1_計細線
  6
CONTINUOUS
 62
    3
 10
1359.1801054111224
 20
644.8666550889609
 11
1359.1801054111224
 21
679.86665508896067
  0
LINE
  8
_0-1_計細線
  6
CONTINUOUS
 62
    3
 10
1359.1801054111224
 20
679.86665508896067
 11
1356.8801054111225
 21
679.86665508896067
  0
LINE
  8
_0-0_計極細
  6
CONTINUOUS
 62
    2
 10
1359.1801054111224
 20
663.8666550889609
 11
1356.8801054111225
 21
663.8666550889609
  0
LINE
  8
_0-0_計極細
  6
CONTINUOUS
 62
    2
 10
1359.1801054111224
 20
665.8666550889609
 11
1356.8801054111225
 21
665.8666550889609
  0
LINE
  8
_0-0_計極細
  6
CONTINUOUS
 62
    2
 10
1359.1801054111224
 20
661.86665508896067
 11
1356.8801054111225
 21
661.86665508896067
  0
LINE
  8
_0-0_計極細
  6
CONTINUOUS
 62
    2
 10
1359.1801054111224
 20
667.86665508896067
 11
1356.8801054111225
 21
667.86665508896067
  0
LINE
  8
_0-0_計極細
  6
CONTINUOUS
 62
    2
 10
1356.8801054111225
 20
647.8666550889609
 11
1359.1801054111224
 21
647.8666550889609
  0
LINE
  8
_0-0_計極細
  6
CONTINUOUS
 62
    2
 10
1359.1801054111224
 20
677.8666550889609
 11
1356.8801054111225
 21
677.8666550889609
  0
LINE
  8
_0-1_計細線
  6
CONTINUOUS
 62
    3
 10
946.88010541112249
 20
679.86665508896067
 11
946.88010541112249
 21
644.8666550889609
  0
LINE
  8
_0-1_計細線
  6
CONTINUOUS
 62
    3
 10
946.88010541112249
 20
644.8666550889609
 11
944.58010541112253
 21
644.8666550889609
  0
LINE
  8
_0-1_計細線
  6
CONTINUOUS
 62
    3
 10
944.58010541112253
 20
644.8666550889609
 11
944.58010541112253
 21
679.86665508896067
  0
LINE
  8
_0-1_計細線
  6
CONTINUOUS
 62
    3
 10
944.58010541112253
 20
679.86665508896067
 11
946.88010541112249
 21
679.86665508896067
  0
LINE
  8
_0-0_計極細
  6
CONTINUOUS
 62
    2
 10
944.58010541112253
 20
663.8666550889609
 11
946.88010541112249
 21
663.8666550889609
  0
LINE
  8
_0-0_計極細
  6
CONTINUOUS
 62
    2
 10
944.58010541112253
 20
665.8666550889609
 11
946.88010541112249
 21
665.8666550889609
  0
LINE
  8
_0-0_計極細
  6
CONTINUOUS
 62
    2
 10
944.58010541112253
 20
661.86665508896067
 11
946.88010541112249
 21
661.86665508896067
  0
LINE
  8
_0-0_計極細
  6
CONTINUOUS
 62
    2
 10
944.58010541112253
 20
667.86665508896067
 11
946.88010541112249
 21
667.86665508896067
  0
LINE
  8
_0-0_計極細
  6
CONTINUOUS
 62
    2
 10
946.88010541112249
 20
647.8666550889609
 11
944.58010541112253
 21
647.8666550889609
  0
LINE
  8
_0-0_計極細
  6
CONTINUOUS
 62
    2
 10
944.58010541112253
 20
677.8666550889609
 11
946.88010541112249
 21
677.8666550889609
  0
LINE
  8
_0-5_寸法線
  6
CONTINUOUS
 62
    7
 10
934.58010541112253
 20
667.86665508896067
 11
857.64681158592907
 21
667.8666550889609
  0
LINE
  8
_0-5_寸法線
  6
CONTINUOUS
 62
    7
 10
862.64681158592907
 20
667.8666550889609
 11
865.23500203695437
 21
658.20739682607029
  0
LINE
  8
_0-5_寸法線
  6
CONTINUOUS
 62
    7
 10
862.64681158592907
 20
667.8666550889609
 11
860.05862113490389
 21
658.20739682607029
  0
LINE
  8
_0-5_寸法線
  6
CONTINUOUS
 62
    7
 10
934.58010541112253
 20
644.8666550889609
 11
857.64681158592907
 21
644.86665508896112
  0
LINE
  8
_0-5_寸法線
  6
CONTINUOUS
 62
    7
 10
862.64681158592907
 20
644.86665508896112
 11
860.05862113490389
 21
654.52591335185184
  0
LINE
  8
_0-5_寸法線
  6
CONTINUOUS
 62
    7
 10
862.64681158592907
 20
644.86665508896112
 11
865.23500203695437
 21
654.52591335185184
  0
LINE
  8
_0-5_寸法線
  6
CONTINUOUS
 62
    7
 10
862.64681158592907
 20
667.8666550889609
 11
862.64681158592907
 21
644.86665508896112
  0
TEXT
  8
_0-5_寸法線
 62
    7
 10
862.64681158592907
 20
648.86665508896112
 40
15
 41
1
 50
90
  1
23
  0
LINE
  8
_0-5_寸法線
  6
CONTINUOUS
 62
    7
 10
878.37345712405363
 20
690.86665508896078
 11
857.64681158592907
 21
690.86665508896078
  0
LINE
  8
_0-5_寸法線
  6
CONTINUOUS
 62
    7
 10
862.64681158592907
 20
690.86665508896078
 11
865.23500203695437
 21
681.20739682606995
  0
LINE
  8
_0-5_寸法線
  6
CONTINUOUS
 62
    7
 10
862.64681158592907
 20
690.86665508896078
 11
860.05862113490389
 21
681.20739682606995
  0
LINE
  8
_0-5_寸法線
  6
CONTINUOUS
 62
    7
 10
934.58010541112253
 20
667.86665508896067
 11
857.64681158592907
 21
667.8666550889609
  0
LINE
  8
_0-5_寸法線
  6
CONTINUOUS
 62
    7
 10
862.64681158592907
 20
667.8666550889609
 11
860.05862113490389
 21
677.52591335185161
  0
LINE
  8
_0-5_寸法線
  6
CONTINUOUS
 62
    7
 10
862.64681158592907
 20
667.8666550889609
 11
865.23500203695437
 21
677.52591335185161
  0
LINE
  8
_0-5_寸法線
  6
CONTINUOUS
 62
    7
 10
862.64681158592907
 20
690.86665508896078
 11
862.64681158592907
 21
667.8666550889609
  0
TEXT
  8
_0-5_寸法線
 62
    7
 10
862.64681158592907
 20
671.86665508896101
 40
15
 41
1
 50
90
  1
23
  0
LINE
  8
_0-7_枠細線
  6
CONTINUOUS
 62
    5
 10
1377.2331686117836
 20
661.44853416330284
 11
1369.7331686117836
 21
676.44853416330284
  0
LINE
  8
_0-7_枠細線
  6
CONTINUOUS
 62
    5
 10
1362.2331686117836
 20
661.44853416330284
 11
1377.2331686117836
 21
661.44853416330284
  0
LINE
  8
_0-7_枠細線
  6
CONTINUOUS
 62
    5
 10
1369.7331686117836
 20
676.44853416330284
 11
1362.2331686117836
 21
661.44853416330284
  0
TEXT
  8
_0-7_枠細線
 62
    5
 10
1364.5983198799318
 20
661.14153191792229
 40
12.5
 41
0.8
 50
0
  1
１
  0
LINE
  8
_0-7_枠細線
  6
CONTINUOUS
 62
    5
 10
1425
 20
907.5
 11
890
 21
907.5
  0
LINE
  8
_0-7_枠細線
  6
CONTINUOUS
 62
    5
 10
915
 20
908.94233397174708
 11
907.5
 21
923.94233397174708
  0
LINE
  8
_0-7_枠細線
  6
CONTINUOUS
 62
    5
 10
900
 20
908.94233397174708
 11
915
 21
908.94233397174708
  0
LINE
  8
_0-7_枠細線
  6
CONTINUOUS
 62
    5
 10
907.5
 20
923.94233397174708
 11
900
 21
908.94233397174708
  0
TEXT
  8
_0-7_枠細線
 62
    5
 10
902.36515126814822
 20
908.63533172636653
 40
12.5
 41
0.8
 50
0
  1
１
  0
TEXT
  8
_0-7_枠細線
 62
    5
 10
1180
 20
910
 40
12.5
 41
0.7199999999999999
 50
0
  1
２０１９．０９．０１
  0
TEXT
  8
_0-7_枠細線
 62
    5
 10
938.85037037037023
 20
910
 40
12.500000000000002
 41
1
 50
0
  1
アンカー材質･厚み変更
  0
LINE
  8
_0-7_枠細線
  6
CONTINUOUS
 62
    5
 10
925
 20
907.5
 11
925
 21
959.99999999999943
  0
LINE
  8
_0-7_枠細線
  6
CONTINUOUS
 62
    5
 10
890
 20
907.5
 11
890
 21
959.99999999999943
  0
LINE
  8
_0-7_枠細線
  6
CONTINUOUS
 62
    5
 10
1175
 20
907.5
 11
1175
 21
959.99999999999943
  0
LINE
  8
_0-7_枠細線
  6
CONTINUOUS
 62
    5
 10
1275
 20
907.5
 11
1275
 21
959.99999999999943
  0
LINE
  8
_0-9_枠極太
  6
CONTINUOUS
 62
    5
 10
60
 20
60
 11
60
 21
960
  0
LINE
  8
_0-9_枠極太
  6
CONTINUOUS
 62
    5
 10
60
 20
960
 11
1425
 21
960
  0
LINE
  8
_0-9_枠極太
  6
CONTINUOUS
 62
    5
 10
1425
 20
960
 11
1425
 21
60
  0
LINE
  8
_0-9_枠極太
  6
CONTINUOUS
 62
    5
 10
1425
 20
60
 11
60
 21
60
  0
LINE
  8
_0-5_寸法線
  6
CONTINUOUS
 62
    7
 10
946.88010541112249
 20
810.86665508896078
 11
937.22084714823177
 21
808.27846463793549
  0
LINE
  8
_0-5_寸法線
  6
CONTINUOUS
 62
    7
 10
946.88010541112249
 20
810.86665508896078
 11
937.22084714823177
 21
813.45484553998585
  0
LINE
  8
_0-5_寸法線
  6
CONTINUOUS
 62
    7
 10
949.8801054111226
 20
700.36665508896044
 11
949.8801054111226
 21
815.86665508896078
  0
LINE
  8
_0-5_寸法線
  6
CONTINUOUS
 62
    7
 10
921.88010541112249
 20
810.86665508896078
 11
949.8801054111226
 21
810.86665508896078
  0
TEXT
  8
_0-5_寸法線
 62
    7
 10
924.64016315013794
 20
810.86665508896078
 40
15
 41
1
 50
0
  1
3
  0
LINE
  8
_0-5_寸法線
  6
CONTINUOUS
 62
    7
 10
949.8801054111226
 20
810.86665508896078
 11
959.5393636740132
 21
813.45484553998585
  0
LINE
  8
_0-5_寸法線
  6
CONTINUOUS
 62
    7
 10
949.8801054111226
 20
810.86665508896078
 11
959.5393636740132
 21
808.27846463793549
  0
LINE
  8
_0-5_寸法線
  6
CONTINUOUS
 62
    7
 10
1353.8801054111229
 20
700.36665508896044
 11
1353.8801054111236
 21
815.86665508896078
  0
LINE
  8
_0-5_寸法線
  6
CONTINUOUS
 62
    7
 10
1353.8801054111236
 20
810.86665508896078
 11
1344.2208471482329
 21
808.27846463793549
  0
LINE
  8
_0-5_寸法線
  6
CONTINUOUS
 62
    7
 10
1353.8801054111236
 20
810.86665508896078
 11
1344.2208471482329
 21
813.45484553998585
  0
LINE
  8
_0-5_寸法線
  6
CONTINUOUS
 62
    7
 10
949.8801054111226
 20
810.86665508896078
 11
1353.8801054111236
 21
810.86665508896078
  0
TEXT
  8
_0-5_寸法線
 62
    7
 10
1136.8801054111232
 20
810.86665508896078
 40
15
 41
1
 50
0
  1
Ｗ-6
  0
LINE
  8
_0-5_寸法線
  6
CONTINUOUS
 62
    7
 10
1356.8801054111234
 20
810.86665508896078
 11
1366.5393636740143
 21
813.45484553998585
  0
LINE
  8
_0-5_寸法線
  6
CONTINUOUS
 62
    7
 10
1356.8801054111234
 20
810.86665508896078
 11
1366.5393636740143
 21
808.27846463793549
  0
LINE
  8
_0-5_寸法線
  6
CONTINUOUS
 62
    7
 10
1353.8801054111236
 20
810.86665508896078
 11
1381.8801054111234
 21
810.86665508896078
  0
TEXT
  8
_0-5_寸法線
 62
    7
 10
1370.9759105121768
 20
810.86665508896078
 40
15
 41
1
 50
0
  1
3
  0
LINE
  8
_0-5_寸法線
  6
CONTINUOUS
 62
    7
 10
231.86751290833897
 20
385.86665508896118
 11
151.86751290833897
 21
385.86665508896147
  0
LINE
  8
_0-5_寸法線
  6
CONTINUOUS
 62
    7
 10
156.86751290833897
 20
385.86665508896147
 11
159.45570335936418
 21
376.20739682607075
  0
LINE
  8
_0-5_寸法線
  6
CONTINUOUS
 62
    7
 10
156.86751290833897
 20
385.86665508896147
 11
154.27932245731375
 21
376.20739682607075
  0
LINE
  8
_0-5_寸法線
  6
CONTINUOUS
 62
    7
 10
231.86751290833897
 20
388.86665508896124
 11
151.86751290833897
 21
388.86665508896147
  0
LINE
  8
_0-5_寸法線
  6
CONTINUOUS
 62
    7
 10
156.86751290833897
 20
360.86665508896141
 11
156.86751290833897
 21
388.86665508896147
  0
TEXT
  8
_0-5_寸法線
 62
    7
 10
156.86751290833897
 20
363.51150893263434
 40
15
 41
1
 50
90
  1
3
  0
LINE
  8
_0-5_寸法線
  6
CONTINUOUS
 62
    7
 10
156.86751290833897
 20
388.86665508896147
 11
154.27932245731384
 21
398.52591335185207
  0
LINE
  8
_0-5_寸法線
  6
CONTINUOUS
 62
    7
 10
156.86751290833897
 20
388.86665508896147
 11
159.45570335936424
 21
398.52591335185207
  0
LINE
  8
_0-5_寸法線
  6
CONTINUOUS
 62
    7
 10
231.86751290833897
 20
792.86665508896078
 11
151.86751290833897
 21
792.8666550889609
  0
LINE
  8
_0-5_寸法線
  6
CONTINUOUS
 62
    7
 10
156.86751290833897
 20
792.8666550889609
 11
159.45570335936418
 21
783.20739682607029
  0
LINE
  8
_0-5_寸法線
  6
CONTINUOUS
 62
    7
 10
156.86751290833897
 20
792.8666550889609
 11
154.27932245731375
 21
783.20739682607029
  0
LINE
  8
_0-5_寸法線
  6
CONTINUOUS
 62
    7
 10
156.86751290833897
 20
388.86665508896147
 11
156.86751290833897
 21
792.8666550889609
  0
TEXT
  8
_0-5_寸法線
 62
    7
 10
156.86751290833897
 20
575.86665508896112
 40
15
 41
1
 50
89.999999999999872
  1
Ｗ-6
  0
LINE
  8
_0-5_寸法線
  6
CONTINUOUS
 62
    7
 10
231.86751290833897
 20
795.86665508896078
 11
151.86751290833897
 21
795.8666550889609
  0
LINE
  8
_0-5_寸法線
  6
CONTINUOUS
 62
    7
 10
156.86751290833897
 20
795.8666550889609
 11
154.27932245731384
 21
805.52591335185173
  0
LINE
  8
_0-5_寸法線
  6
CONTINUOUS
 62
    7
 10
156.86751290833897
 20
795.8666550889609
 11
159.45570335936424
 21
805.52591335185173
  0
LINE
  8
_0-5_寸法線
  6
CONTINUOUS
 62
    7
 10
156.86751290833897
 20
792.8666550889609
 11
156.86751290833897
 21
820.8666550889609
  0
TEXT
  8
_0-5_寸法線
 62
    7
 10
156.86751290833897
 20
809.49413543547496
 40
15
 41
1
 50
90
  1
3
  0
LINE
  8
_0-5_寸法線
  6
CONTINUOUS
 62
    7
 10
241.86751290833897
 20
805.86665508896078
 11
241.86751290833911
 21
885.86665508896078
  0
LINE
  8
_0-5_寸法線
  6
CONTINUOUS
 62
    7
 10
241.86751290833911
 20
880.86665508896078
 11
232.20825464544845
 21
878.27846463793549
  0
LINE
  8
_0-5_寸法線
  6
CONTINUOUS
 62
    7
 10
241.86751290833911
 20
880.86665508896078
 11
232.20825464544845
 21
883.45484553998585
  0
LINE
  8
_0-5_寸法線
  6
CONTINUOUS
 62
    7
 10
244.86751290833899
 20
805.86665508896078
 11
244.86751290833908
 21
885.86665508896078
  0
LINE
  8
_0-5_寸法線
  6
CONTINUOUS
 62
    7
 10
216.86751290833911
 20
880.86665508896078
 11
244.86751290833908
 21
880.86665508896078
  0
TEXT
  8
_0-5_寸法線
 62
    7
 10
220.41540053727948
 20
880.86665508896078
 40
15
 41
1
 50
0
  1
3
  0
LINE
  8
_0-5_寸法線
  6
CONTINUOUS
 62
    7
 10
244.86751290833908
 20
880.86665508896078
 11
254.52677117122983
 21
883.45484553998585
  0
LINE
  8
_0-5_寸法線
  6
CONTINUOUS
 62
    7
 10
244.86751290833908
 20
880.86665508896078
 11
254.52677117122974
 21
878.27846463793549
  0
LINE
  8
_0-5_寸法線
  6
CONTINUOUS
 62
    7
 10
648.86751290833899
 20
805.86665508896078
 11
648.86751290833911
 21
885.86665508896078
  0
LINE
  8
_0-5_寸法線
  6
CONTINUOUS
 62
    7
 10
648.86751290833911
 20
880.86665508896078
 11
639.20825464544839
 21
878.27846463793549
  0
LINE
  8
_0-5_寸法線
  6
CONTINUOUS
 62
    7
 10
648.86751290833911
 20
880.86665508896078
 11
639.20825464544839
 21
883.45484553998585
  0
LINE
  8
_0-5_寸法線
  6
CONTINUOUS
 62
    7
 10
244.86751290833908
 20
880.86665508896078
 11
648.86751290833911
 21
880.86665508896078
  0
TEXT
  8
_0-5_寸法線
 62
    7
 10
431.86751290833911
 20
880.86665508896078
 40
15
 41
1
 50
0
  1
Ｗ-6
  0
LINE
  8
_0-5_寸法線
  6
CONTINUOUS
 62
    7
 10
651.86751290833899
 20
805.86665508896078
 11
651.86751290833911
 21
885.86665508896078
  0
LINE
  8
_0-5_寸法線
  6
CONTINUOUS
 62
    7
 10
651.86751290833911
 20
880.86665508896078
 11
661.52677117122994
 21
883.45484553998585
  0
LINE
  8
_0-5_寸法線
  6
CONTINUOUS
 62
    7
 10
651.86751290833911
 20
880.86665508896078
 11
661.52677117122994
 21
878.27846463793549
  0
LINE
  8
_0-5_寸法線
  6
CONTINUOUS
 62
    7
 10
648.86751290833911
 20
880.86665508896078
 11
676.86751290833911
 21
880.86665508896078
  0
TEXT
  8
_0-5_寸法線
 62
    7
 10
666.31325142026742
 20
880.86665508896078
 40
15
 41
1
 50
0
  1
3
  0
TEXT
  8
_0-7_枠細線
 62
    5
 10
1102.72493063813
 20
529.41804577218318
 40
25.000000000000007
 41
0.8
 50
0
  1
断面詳細図
  0
TEXT
  8
_0-7_枠細線
 62
    5
 10
1228.8508968286408
 20
531.57826432443687
 40
20.000000000000004
 41
0.5999999999999999
 50
0
  1
Ｓ＝１：５
  0
ENDSEC
  0
EOF
