  0
SECTION
  2
HEADER
  9
$ACADVER
  1
AC1009
  9
$INSBASE
 10
0
 20
0
 30
0
  9
$EXTMIN
 10
0
 20
0
  9
$EXTMAX
 10
1485
 20
1050
  9
$LIMMIN
 10
0
 20
0
  9
$LIMMAX
 10
1485
 20
1050
  9
$LTSCALE
 40
5
  0
ENDSEC
  0
SECTION
  2
TABLES
  0
TABLE
  2
LTYPE
 70
     9
  0
LTYPE
  2
CONTINUOUS
 70
    64
  3
実線
 72
    65
 73
     0
 40
0.0
  0
LTYPE
  2
DASHED1
 70
    64
  3
--  --  --  --  --  --  --  --  
 72
    65
 73
     2
 40
2.5
 49
1.25
 49
-1.25
  0
LTYPE
  2
DASHED2
 70
    64
  3
----    ----    ----    ----    
 72
    65
 73
     2
 40
5.0
 49
2.5
 49
-2.5
  0
LTYPE
  2
DASHED3
 70
    64
  3
------  ------  ------  ------  
 72
    65
 73
     2
 40
5.0
 49
3.75
 49
-1.25
  0
LTYPE
  2
CENTER1
 70
    64
  3
----- - ----- - ----- - ----- - 
 72
    65
 73
     4
 40
10.0
 49
6.25
 49
-1.25
 49
1.25
 49
-1.25
  0
LTYPE
  2
CENTER2
 70
    64
  3
----------  --  ----------  --  
 72
    65
 73
     4
 40
20.0
 49
12.5
 49
-2.5
 49
2.5
 49
-2.5
  0
LTYPE
  2
PHANTOM1
 70
    64
  3
--- - - --- - - --- - - --- - - 
 72
    65
 73
     6
 40
10.0
 49
3.25
 49
-1.25
 49
1.25
 49
-1.25
 49
1.25
 49
-1.25
  0
LTYPE
  2
PHANTOM2
 70
    64
  3
--------  -  -  --------  -  -  
 72
    65
 73
     6
 40
20.0
 49
10.0
 49
-2.5
 49
1.25
 49
-2.5
 49
1.25
 49
-2.5
  0
LTYPE
  2
DOT
 70
    64
  3
-   -   -   -   -   -   -   -   
 72
    65
 73
     2
 40
2.5
 49
0.625
 49
-1.875
  0
LTYPE
  2
DUMMY
 70
    64
  3
ダミー
 72
    65
 73
     0
 40
0.0
  0
LTYPE
  2
RAND1
 70
    64
  3
ランダム線1
 72
    65
 73
     4
 40
10.0
 49
1.0
 49
-2.0
 49
3.0
 49
-4.0
  0
LTYPE
  2
RAND2
 70
    64
  3
ランダム線2
 72
    65
 73
     4
 40
14.0
 49
2.0
 49
-3.0
 49
4.0
 49
-5.0
  0
LTYPE
  2
RAND3
 70
    64
  3
ランダム線3
 72
    65
 73
     4
 40
18.0
 49
3.0
 49
-4.0
 49
5.0
 49
-6.0
  0
LTYPE
  2
RAND4
 70
    64
  3
ランダム線4
 72
    65
 73
     4
 40
22.0
 49
4.0
 49
-5.0
 49
6.0
 49
-7.0
  0
LTYPE
  2
RAND5
 70
    64
  3
ランダム線5
 72
    65
 73
     4
 40
26.0
 49
5.0
 49
-6.0
 49
7.0
 49
-8.0
  0
LTYPE
  2
LONG1
 70
    64
  3
----------  --  ----------  --  
 72
    65
 73
     4
 40
40.0
 49
32.5
 49
-2.5
 49
2.5
 49
-2.5
  0
LTYPE
  2
LONG2
 70
    64
  3
--------  -  -  --------  -  -  
 72
    65
 73
     6
 40
40.0
 49
30.0
 49
-2.5
 49
1.25
 49
-2.5
 49
1.25
 49
-2.5
  0
LTYPE
  2
LONG3
 70
    64
  3
+++++++++++++++..+++++++++++++++
 72
    65
 73
     2
 40
40.0
 49
37.5
 49
-2.5
  0
LTYPE
  2
LONG4
 70
    64
  3
+++++++++++++++..+++++++++++++++
 72
    65
 73
     2
 40
80.0
 49
75.0
 49
-5.0
  0
LTYPE
  2
LONG5
 70
    64
  3
----------  --  ----------  --  
 72
    65
 73
     4
 40
60.0
 49
37.5
 49
-7.5
 49
7.5
 49
-7.5
  0
LTYPE
  2
dashed
 70
   64
  3
-------   -------------   ------
 72
   65
 73
    2
 40
7.5
 49
6
 49
-1.5
  0
LTYPE
  2
dashed_spaced
 70
   64
  3
----        --------        ----
 72
   65
 73
    2
 40
12
 49
6
 49
-6
  0
LTYPE
  2
long_dashed_dotted
 70
   64
  3
------------- --- --------------
 72
   65
 73
    4
 40
15.25
 49
12
 49
-1.5
 49
0.25
 49
-1.5
  0
LTYPE
  2
long_dashed_double-dotted
 70
   64
  3
----------- --- --- ------------
 72
   65
 73
    6
 40
17
 49
12
 49
-1.5
 49
0.25
 49
-1.5
 49
0.25
 49
-1.5
  0
LTYPE
  2
long_dashed_triplicate-dotted
 70
   64
  3
--------- --- --- --- ----------
 72
   65
 73
    8
 40
18.75
 49
12
 49
-1.5
 49
0.25
 49
-1.5
 49
0.25
 49
-1.5
 49
0.25
 49
-1.5
  0
LTYPE
  2
dotted
 70
   64
  3
   -       -       -       -    
 72
   65
 73
    2
 40
1.75
 49
0.25
 49
-1.5
  0
LTYPE
  2
chain
 70
   64
  3
-------------- -- --------------
 72
   65
 73
    4
 40
18.5
 49
12
 49
-1.5
 49
3.5
 49
-1.5
  0
LTYPE
  2
chain_double_dash
 70
   64
  3
------------ -- -- -------------
 72
   65
 73
    6
 40
23.5
 49
12
 49
-1.5
 49
3.5
 49
-1.5
 49
3.5
 49
-1.5
  0
LTYPE
  2
dashed_dotted
 70
   64
  3
-----------     -     ----------
 72
   65
 73
    4
 40
9.25
 49
6
 49
-1.5
 49
0.25
 49
-1.5
  0
LTYPE
  2
double-dashed_dotted
 70
   64
  3
------   -----------   -   -----
 72
   65
 73
    6
 40
16.75
 49
6
 49
-1.5
 49
6
 49
-1.5
 49
0.25
 49
-1.5
  0
LTYPE
  2
dashed_double-dotted
 70
   64
  3
---------    -    -    ---------
 72
   65
 73
    6
 40
11
 49
6
 49
-1.5
 49
0.25
 49
-1.5
 49
0.25
 49
-1.5
  0
LTYPE
  2
double-dashed_double-dotted
 70
   64
  3
-----   ---------   -   -   ----
 72
   65
 73
    8
 40
18.5
 49
6
 49
-1.5
 49
6
 49
-1.5
 49
0.25
 49
-1.5
 49
0.25
 49
-1.5
  0
LTYPE
  2
dashed_triplicate-dotted
 70
   64
  3
-------    -    -    -    ------
 72
   65
 73
    8
 40
12.75
 49
6
 49
-1.5
 49
0.25
 49
-1.5
 49
0.25
 49
-1.5
 49
0.25
 49
-1.5
  0
LTYPE
  2
double-dashed_triplicate-dotted
 70
   64
  3
-----  ---------  -  -  -  -----
 72
   65
 73
   10
 40
20.25
 49
6
 49
-1.5
 49
6
 49
-1.5
 49
0.25
 49
-1.5
 49
0.25
 49
-1.5
 49
0.25
 49
-1.5
  0
LTYPE
  2
undefined
 70
   64
  3
--------------------------------
 72
   65
 73
    0
 40
0
  0
ENDTAB
  0
TABLE
  2
STYLE
  5
3
100
AcDbSymbolTable
 70
     1
  0
STYLE
  5
10
100
AcDbSymbolTableRecord
100
AcDbTextStyleTableRecord
  2
STANDARD
 70
     0
 40
0.0
 41
1.0
 50
0.0
 71
     0
 42
0.2
  3
txt
  4
bigfont.shx
  0
STYLE
  5
26
100
AcDbSymbolTableRecord
100
AcDbTextStyleTableRecord
  2
TATEGAKI
 70
    68
 40
0.0
 41
1.0
 50
0.0
 71
     0
 42
1.0
  3
txt
  4
bigfont.shx
  0
ENDTAB
  0
TABLE
  2
LAYER
 70
   10
  0
LAYER
  2
_0-0_計極細
 70
   64
 62
    7
  6
CONTINUOUS
  0
LAYER
  2
_0-1_計細線
 70
   64
 62
    7
  6
CONTINUOUS
  0
LAYER
  2
_0-5_寸法線
 70
   64
 62
    7
  6
CONTINUOUS
  0
LAYER
  2
_0-7_枠細線
 70
   64
 62
    7
  6
CONTINUOUS
  0
LAYER
  2
_0-8_枠中線
 70
   64
 62
    7
  6
CONTINUOUS
  0
LAYER
  2
_0-9_枠極太
 70
   64
 62
    7
  6
CONTINUOUS
  0
LAYER
  2
_0-a_極細3
 70
   64
 62
    7
  6
CONTINUOUS
  0
LAYER
  2
_0-b_細線3
 70
   64
 62
    7
  6
CONTINUOUS
  0
LAYER
  2
_0-d_寸法3
 70
   64
 62
    7
  6
CONTINUOUS
  0
LAYER
  2
ADD_LINE
 70
   64
 62
    7
  6
CONTINUOUS
  0
ENDTAB
  0
ENDSEC
  0
SECTION
  2
BLOCKS
  0
ENDSEC
  0
SECTION
  2
ENTITIES
  0
LINE
  8
_0-7_枠細線
  6
CONTINUOUS
 62
    5
 10
1425
 20
942.5
 11
890
 21
942.5
  0
TEXT
  8
_0-7_枠細線
 62
    5
 10
895
 20
945
 40
12.5
 41
1
 50
0
  1
記号
  0
TEXT
  8
_0-7_枠細線
 62
    5
 10
996.875
 20
945
 40
12.5
 41
1
 50
0
  1
訂　 正　 記　 事
  0
TEXT
  8
_0-7_枠細線
 62
    5
 10
1181.25
 20
945
 40
12.5
 41
1
 50
0
  1
訂 正 年 月 日
  0
TEXT
  8
_0-7_枠細線
 62
    5
 10
1306.25
 20
945
 40
12.5
 41
1
 50
0
  1
備　　　　　考
  0
LINE
  8
_0-7_枠細線
  6
CONTINUOUS
 62
    5
 10
1185
 20
180
 11
1185
 21
100
  0
TEXT
  8
_0-7_枠細線
 62
    5
 10
937.5
 20
97.5
 40
17.5
 41
1
 50
0
  1
備考
  7
TATEGAKI
  0
TEXT
  8
_0-7_枠細線
 62
    5
 10
937.5
 20
137.5
 40
17.5
 41
1
 50
0
  1
品番
  7
TATEGAKI
  0
TEXT
  8
_0-7_枠細線
 62
    5
 10
937.5
 20
177.5
 40
17.5
 41
1
 50
0
  1
品名
  7
TATEGAKI
  0
LINE
  8
_0-7_枠細線
  6
CONTINUOUS
 62
    5
 10
1185
 20
140
 11
925
 21
140
  0
LINE
  8
_0-7_枠細線
  6
CONTINUOUS
 62
    5
 10
950
 20
180
 11
950
 21
60
  0
LINE
  8
_0-8_枠中線
  6
CONTINUOUS
 62
    5
 10
1425
 20
180
 11
925
 21
180
  0
LINE
  8
_0-8_枠中線
  6
CONTINUOUS
 62
    5
 10
925
 20
180
 11
925
 21
60
  0
LINE
  8
_0-7_枠細線
  6
CONTINUOUS
 62
    5
 10
1245
 20
180
 11
1245
 21
60
  0
TEXT
  8
_0-7_枠細線
 62
    5
 10
1192.5
 20
160
 40
15
 41
1
 50
0
  1
縮　尺
  0
TEXT
  8
_0-7_枠細線
 62
    5
 10
1194
 20
117.5
 40
20
 41
0.7000000000000001
 50
0
  1
１：５
  0
LINE
  8
_0-7_枠細線
  6
CONTINUOUS
 62
    5
 10
1185
 20
155
 11
1245
 21
155
  0
LINE
  8
_0-7_枠細線
  6
CONTINUOUS
 62
    5
 10
1245
 20
100
 11
925
 21
100
  0
LINE
  8
_0-7_枠細線
  6
CONTINUOUS
 62
    5
 10
1425
 20
90
 11
1245
 21
90
  0
LINE
  8
_0-7_枠細線
  6
CONTINUOUS
 62
    5
 10
1245
 20
120
 11
1425
 21
120
  0
LINE
  8
_0-7_枠細線
  6
CONTINUOUS
 62
    5
 10
1425
 20
140
 11
1245
 21
140
  0
TEXT
  8
_0-7_枠細線
 62
    5
 10
1255
 20
147.5
 40
25
 41
0.8
 50
0
  1
株式会社シマブン
  0
TEXT
  8
_0-7_枠細線
 62
    5
 10
1252.5
 20
60
 40
15
 41
1
 50
0
  1
年月日
  0
TEXT
  8
_0-7_枠細線
 62
    5
 10
1252.5
 20
75
 40
15
 41
1
 50
0
  1
作　成
  0
TEXT
  8
_0-7_枠細線
 62
    5
 10
1256.25
 20
122.5
 40
15
 41
1
 50
0
  1
承 認
  0
LINE
  8
_0-7_枠細線
  6
CONTINUOUS
 62
    5
 10
1305
 20
140
 11
1305
 21
60
  0
TEXT
  8
_0-7_枠細線
 62
    5
 10
1316.25
 20
122.5
 40
15
 41
1
 50
0
  1
検 図
  0
LINE
  8
_0-7_枠細線
  6
CONTINUOUS
 62
    5
 10
1365
 20
140
 11
1365
 21
90
  0
TEXT
  8
_0-7_枠細線
 62
    5
 10
1375
 20
95
 40
20
 41
1
 50
0
  1
藤戸
  0
TEXT
  8
_0-7_枠細線
 62
    5
 10
1376.25
 20
122.5
 40
15
 41
1
 50
0
  1
設 計
  0
TEXT
  8
_0-7_枠細線
 62
    5
 10
1255
 20
95
 40
20
 41
1
 50
0
  1
隠塚
  0
TEXT
  8
_0-7_枠細線
 62
    5
 10
1315
 20
95
 40
20
 41
1
 50
0
  1
渋田
  0
TEXT
  8
_0-7_枠細線
 62
    5
 10
965.50000000000011
 20
150
 40
20
 41
0.5
 50
0
  1
Ｔバー ステンレスグレーチング Ｈ２０タイプ
  0
TEXT
  8
_0-7_枠細線
 62
    5
 10
1310
 20
67.5
 40
15
 41
0.6666666666666666
 50
0
  1
２０１２年０２月２９日
  0
LINE
  8
_0-7_枠細線
  6
CONTINUOUS
 62
    5
 10
1425
 20
925
 11
890
 21
925
  0
TEXT
  8
_0-7_枠細線
 62
    5
 10
938.85037037037023
 20
927.5
 40
12.500000000000002
 41
1
 50
0
  1
品番変更
  0
LINE
  8
_0-b_細線3
  6
CONTINUOUS
 62
    7
 10
953.15211640940788
 20
296.56810602460041
 11
939.81878307607474
 21
296.56810602460041
  0
LINE
  8
_0-b_細線3
  6
CONTINUOUS
 62
    7
 10
976.48544974274137
 20
296.56810602460041
 11
963.15211640940788
 21
296.56810602460041
  0
LINE
  8
_0-b_細線3
  6
CONTINUOUS
 62
    7
 10
999.81878307607428
 20
296.56810602460041
 11
986.48544974274091
 21
296.56810602460041
  0
LINE
  8
_0-b_細線3
  6
CONTINUOUS
 62
    7
 10
1023.1521164094079
 20
296.56810602460041
 11
1009.8187830760747
 21
296.56810602460041
  0
LINE
  8
_0-d_寸法3
  6
CONTINUOUS
 62
    7
 10
939.81878307607474
 20
306.56810602460041
 11
939.81878307607474
 21
351.56810602460041
  0
LINE
  8
_0-d_寸法3
  6
CONTINUOUS
 62
    7
 10
939.81878307607474
 20
346.56810602460041
 11
930.15952481318413
 21
343.97991557357523
  0
LINE
  8
_0-d_寸法3
  6
CONTINUOUS
 62
    7
 10
939.81878307607474
 20
346.56810602460041
 11
930.15952481318413
 21
349.15629647562571
  0
LINE
  8
_0-d_寸法3
  6
CONTINUOUS
 62
    7
 10
953.15211640940834
 20
306.56810602460041
 11
953.15211640940834
 21
351.56810602460041
  0
CIRCLE
  8
_0-d_寸法3
  6
CONTINUOUS
 62
    1
 10
953.15211640940834
 20
346.56810602460041
 40
1.5000000000000002
  0
LINE
  8
_0-d_寸法3
  6
CONTINUOUS
 62
    7
 10
914.81878307607474
 20
346.56810602460041
 11
953.15211640940834
 21
346.56810602460041
  0
TEXT
  8
_0-d_寸法3
 62
    7
 10
922.31334902649394
 20
346.56810602460041
 40
15
 41
1
 50
0
  1
8
  0
LINE
  8
_0-d_寸法3
  6
CONTINUOUS
 62
    7
 10
963.15211640940834
 20
306.56810602460041
 11
963.15211640940834
 21
351.56810602460041
  0
LINE
  8
_0-d_寸法3
  6
CONTINUOUS
 62
    7
 10
963.15211640940834
 20
346.56810602460041
 11
972.81137467229894
 21
349.15629647562554
  0
LINE
  8
_0-d_寸法3
  6
CONTINUOUS
 62
    7
 10
963.15211640940834
 20
346.56810602460041
 11
972.81137467229894
 21
343.97991557357523
  0
LINE
  8
_0-d_寸法3
  6
CONTINUOUS
 62
    7
 10
953.15211640940834
 20
346.56810602460041
 11
988.15211640940834
 21
346.56810602460041
  0
TEXT
  8
_0-d_寸法3
 62
    7
 10
972.87285519933346
 20
346.56810602460041
 40
15
 41
1
 50
0
  1
6
  0
LINE
  8
_0-b_細線3
  6
CONTINUOUS
 62
    7
 10
1046.4854497427409
 20
296.56810602460041
 11
1033.1521164094079
 21
296.56810602460041
  0
LINE
  8
_0-b_細線3
  6
CONTINUOUS
 62
    7
 10
1069.8187830760739
 20
296.56810602460041
 11
1056.4854497427409
 21
296.56810602460041
  0
LINE
  8
_0-d_寸法3
  6
CONTINUOUS
 62
    7
 10
1016.4854497427414
 20
306.56810602460052
 11
1016.4854497427414
 21
351.56810602460041
  0
LINE
  8
_0-d_寸法3
  6
CONTINUOUS
 62
    7
 10
1016.4854497427414
 20
346.56810602460041
 11
1026.1447080056319
 21
349.1562964756256
  0
LINE
  8
_0-d_寸法3
  6
CONTINUOUS
 62
    7
 10
1016.4854497427414
 20
346.56810602460041
 11
1026.1447080056319
 21
343.97991557357523
  0
LINE
  8
_0-d_寸法3
  6
CONTINUOUS
 62
    7
 10
1039.8187830760749
 20
306.56810602460041
 11
1039.8187830760749
 21
351.56810602460041
  0
LINE
  8
_0-d_寸法3
  6
CONTINUOUS
 62
    7
 10
1039.8187830760749
 20
346.56810602460041
 11
1030.1595248131841
 21
343.97991557357523
  0
LINE
  8
_0-d_寸法3
  6
CONTINUOUS
 62
    7
 10
1039.8187830760749
 20
346.56810602460041
 11
1030.1595248131841
 21
349.15629647562571
  0
LINE
  8
_0-d_寸法3
  6
CONTINUOUS
 62
    7
 10
1016.4854497427414
 20
346.56810602460041
 11
1039.8187830760749
 21
346.56810602460041
  0
TEXT
  8
_0-d_寸法3
 62
    7
 10
1020.6521164094079
 20
346.56810602460041
 40
15
 41
1
 50
0
  1
14
  0
LINE
  8
_0-d_寸法3
  6
CONTINUOUS
 62
    7
 10
1039.8187830760749
 20
346.56810602460041
 11
1049.4780413389658
 21
349.15629647562554
  0
LINE
  8
_0-d_寸法3
  6
CONTINUOUS
 62
    7
 10
1039.8187830760749
 20
346.56810602460041
 11
1049.4780413389658
 21
343.97991557357523
  0
LINE
  8
_0-d_寸法3
  6
CONTINUOUS
 62
    7
 10
1063.1521164094079
 20
306.56810602460041
 11
1063.1521164094079
 21
351.56810602460041
  0
LINE
  8
_0-d_寸法3
  6
CONTINUOUS
 62
    7
 10
1063.1521164094079
 20
346.56810602460041
 11
1053.4928581465172
 21
343.97991557357523
  0
LINE
  8
_0-d_寸法3
  6
CONTINUOUS
 62
    7
 10
1063.1521164094079
 20
346.56810602460041
 11
1053.4928581465172
 21
349.15629647562571
  0
LINE
  8
_0-d_寸法3
  6
CONTINUOUS
 62
    7
 10
1039.8187830760749
 20
346.56810602460041
 11
1063.1521164094079
 21
346.56810602460041
  0
TEXT
  8
_0-d_寸法3
 62
    7
 10
1043.9854497427414
 20
346.56810602460041
 40
15
 41
1
 50
0
  1
14
  0
LINE
  8
_0-d_寸法3
  6
CONTINUOUS
 62
    7
 10
922.26314135259918
 20
296.56810602460047
 11
893.92980801926569
 21
296.56810602460052
  0
LINE
  8
_0-d_寸法3
  6
CONTINUOUS
 62
    7
 10
898.92980801926569
 20
296.56810602460052
 11
901.51799847029088
 21
286.90884776170992
  0
LINE
  8
_0-d_寸法3
  6
CONTINUOUS
 62
    7
 10
898.92980801926569
 20
296.56810602460052
 11
896.34161756824039
 21
286.90884776170992
  0
LINE
  8
_0-d_寸法3
  6
CONTINUOUS
 62
    7
 10
922.26314135259918
 20
263.23477269126721
 11
893.92980801926569
 21
263.23477269126727
  0
LINE
  8
_0-d_寸法3
  6
CONTINUOUS
 62
    7
 10
898.92980801926569
 20
263.23477269126727
 11
896.34161756824039
 21
272.89403095415793
  0
LINE
  8
_0-d_寸法3
  6
CONTINUOUS
 62
    7
 10
898.92980801926569
 20
263.23477269126727
 11
901.51799847029088
 21
272.89403095415793
  0
LINE
  8
_0-d_寸法3
  6
CONTINUOUS
 62
    7
 10
898.92980801926569
 20
296.56810602460052
 11
898.92980801926569
 21
263.23477269126727
  0
TEXT
  8
_0-d_寸法3
 62
    7
 10
898.92980801926569
 20
272.4014393579339
 40
15
 41
1
 50
90
  1
20
  0
LINE
  8
_0-b_細線3
  6
CONTINUOUS
 62
    7
 10
945.48544974274137
 20
263.23477269126715
 11
947.48544974274125
 21
263.23477269126715
  0
LINE
  8
_0-b_細線3
  6
CONTINUOUS
 62
    7
 10
968.81878307607485
 20
263.23477269126715
 11
970.81878307607485
 21
263.23477269126715
  0
LINE
  8
_0-b_細線3
  6
CONTINUOUS
 62
    7
 10
992.15211640940777
 20
263.23477269126715
 11
994.15211640940788
 21
263.23477269126715
  0
LINE
  8
_0-b_細線3
  6
CONTINUOUS
 62
    7
 10
1015.4854497427414
 20
263.23477269126715
 11
1017.4854497427409
 21
263.23477269126715
  0
LINE
  8
_0-b_細線3
  6
CONTINUOUS
 62
    7
 10
1038.8187830760744
 20
263.23477269126715
 11
1040.8187830760739
 21
263.23477269126715
  0
LINE
  8
_0-b_細線3
  6
CONTINUOUS
 62
    7
 10
1062.1521164094074
 20
263.23477269126715
 11
1064.152116409407
 21
263.23477269126715
  0
ARC
  8
_0-a_極細3
  6
CONTINUOUS
 62
    7
 10
951.58512460882491
 20
288.88554488551165
 40
21.070607518177617
 50
150.03871396148139
 51
205.2381040238788
  0
ARC
  8
_0-a_極細3
  6
CONTINUOUS
 62
    7
 10
913.46655438094729
 20
270.91733383035478
 40
21.070607518177617
 50
330.03871396148219
 51
25.238104023878272
  0
LINE
  8
_0-b_細線3
  6
CONTINUOUS
 62
    7
 10
931.96501361196169
 20
296.56810602460041
 11
1075.3920453877322
 21
296.56810602460041
  0
ARC
  8
_0-a_極細3
  6
CONTINUOUS
 62
    7
 10
1094.9758023633772
 20
288.88554488551165
 40
21.070607518177617
 50
150.03871396148139
 51
205.2381040238788
  0
ARC
  8
_0-a_極細3
  6
CONTINUOUS
 62
    7
 10
1056.8572321354995
 20
270.91733383035478
 40
21.070607518177617
 50
330.03871396148219
 51
25.238104023878019
  0
LINE
  8
_0-a_極細3
  6
CENTER1
 62
    7
 10
914.128534257296
 20
279.90143935793344
 11
1087.6337554753186
 21
279.90143935793344
  0
LINE
  8
_0-b_細線3
  6
CONTINUOUS
 62
    7
 10
933.08666537781107
 20
263.23477269126636
 11
1076.4773431323633
 21
263.23477269126624
  0
ARC
  8
_0-b_細線3
  6
CONTINUOUS
 62
    7
 10
958.15211640940834
 20
317.70421713571136
 40
46.136111111111042
 50
256.63227178393157
 51
283.36772821606712
  0
ARC
  8
_0-b_細線3
  6
CONTINUOUS
 62
    7
 10
958.15211640940834
 20
242.0986615801562
 40
46.136111111111042
 50
76.632271783932524
 51
103.36772821606807
  0
ARC
  8
_0-b_細線3
  6
CONTINUOUS
 62
    7
 10
981.48544974274137
 20
317.70421713571136
 40
46.136111111111042
 50
256.63227178393157
 51
283.36772821606712
  0
ARC
  8
_0-b_細線3
  6
CONTINUOUS
 62
    7
 10
981.48544974274137
 20
242.0986615801562
 40
46.136111111111042
 50
76.632271783932524
 51
103.36772821606779
  0
ARC
  8
_0-b_細線3
  6
CONTINUOUS
 62
    7
 10
1004.8187830760747
 20
317.70421713571136
 40
46.136111111111042
 50
256.63227178393186
 51
283.36772821606712
  0
ARC
  8
_0-b_細線3
  6
CONTINUOUS
 62
    7
 10
1004.8187830760747
 20
242.0986615801562
 40
46.136111111111042
 50
76.632271783932524
 51
103.36772821606753
  0
LINE
  8
_0-b_細線3
  6
CONTINUOUS
 62
    7
 10
953.15211640940834
 20
294.56810602460041
 11
953.15211640940834
 21
296.56810602460041
  0
LINE
  8
_0-b_細線3
  6
CONTINUOUS
 62
    7
 10
947.48544974274125
 20
294.56810602460041
 11
953.15211640940834
 21
294.56810602460041
  0
LINE
  8
_0-b_細線3
  6
CONTINUOUS
 62
    7
 10
947.48544974274125
 20
263.23477269126715
 11
947.48544974274125
 21
294.56810602460041
  0
LINE
  8
_0-b_細線3
  6
CONTINUOUS
 62
    7
 10
945.48544974274137
 20
263.23477269126715
 11
947.48544974274125
 21
263.23477269126715
  0
LINE
  8
_0-b_細線3
  6
CONTINUOUS
 62
    7
 10
945.48544974274137
 20
294.56810602460041
 11
945.48544974274137
 21
263.23477269126715
  0
LINE
  8
_0-b_細線3
  6
CONTINUOUS
 62
    7
 10
939.81878307607474
 20
294.56810602460041
 11
945.48544974274137
 21
294.56810602460041
  0
LINE
  8
_0-b_細線3
  6
CONTINUOUS
 62
    7
 10
939.81878307607474
 20
296.56810602460041
 11
939.81878307607474
 21
294.56810602460041
  0
LINE
  8
_0-b_細線3
  6
CONTINUOUS
 62
    7
 10
953.15211640940834
 20
296.56810602460041
 11
939.81878307607474
 21
296.56810602460041
  0
LINE
  8
_0-b_細線3
  6
CONTINUOUS
 62
    7
 10
976.48544974274159
 20
294.56810602460041
 11
976.48544974274159
 21
296.56810602460041
  0
LINE
  8
_0-b_細線3
  6
CONTINUOUS
 62
    7
 10
970.81878307607485
 20
294.56810602460041
 11
976.48544974274159
 21
294.56810602460041
  0
LINE
  8
_0-b_細線3
  6
CONTINUOUS
 62
    7
 10
970.81878307607485
 20
263.23477269126715
 11
970.81878307607485
 21
294.56810602460041
  0
LINE
  8
_0-b_細線3
  6
CONTINUOUS
 62
    7
 10
968.81878307607485
 20
263.23477269126715
 11
970.81878307607485
 21
263.23477269126715
  0
LINE
  8
_0-b_細線3
  6
CONTINUOUS
 62
    7
 10
968.81878307607485
 20
294.56810602460041
 11
968.81878307607485
 21
263.23477269126715
  0
LINE
  8
_0-b_細線3
  6
CONTINUOUS
 62
    7
 10
963.15211640940834
 20
294.56810602460041
 11
968.81878307607485
 21
294.56810602460041
  0
LINE
  8
_0-b_細線3
  6
CONTINUOUS
 62
    7
 10
963.15211640940834
 20
296.56810602460041
 11
963.15211640940834
 21
294.56810602460041
  0
LINE
  8
_0-b_細線3
  6
CONTINUOUS
 62
    7
 10
976.48544974274159
 20
296.56810602460041
 11
963.15211640940834
 21
296.56810602460041
  0
LINE
  8
_0-b_細線3
  6
CONTINUOUS
 62
    7
 10
999.81878307607462
 20
294.56810602460041
 11
999.81878307607462
 21
296.56810602460041
  0
LINE
  8
_0-b_細線3
  6
CONTINUOUS
 62
    7
 10
994.15211640940822
 20
294.56810602460041
 11
999.81878307607462
 21
294.56810602460041
  0
LINE
  8
_0-b_細線3
  6
CONTINUOUS
 62
    7
 10
994.15211640940822
 20
263.23477269126715
 11
994.15211640940822
 21
294.56810602460041
  0
LINE
  8
_0-b_細線3
  6
CONTINUOUS
 62
    7
 10
992.15211640940822
 20
263.23477269126715
 11
994.15211640940822
 21
263.23477269126715
  0
LINE
  8
_0-b_細線3
  6
CONTINUOUS
 62
    7
 10
992.15211640940822
 20
294.56810602460041
 11
992.15211640940822
 21
263.23477269126715
  0
LINE
  8
_0-b_細線3
  6
CONTINUOUS
 62
    7
 10
986.48544974274137
 20
294.56810602460041
 11
992.15211640940822
 21
294.56810602460041
  0
LINE
  8
_0-b_細線3
  6
CONTINUOUS
 62
    7
 10
986.48544974274137
 20
296.56810602460041
 11
986.48544974274137
 21
294.56810602460041
  0
LINE
  8
_0-b_細線3
  6
CONTINUOUS
 62
    7
 10
999.81878307607462
 20
296.56810602460041
 11
986.48544974274137
 21
296.56810602460041
  0
LINE
  8
_0-b_細線3
  6
CONTINUOUS
 62
    7
 10
1023.1521164094084
 20
294.56810602460041
 11
1023.1521164094084
 21
296.56810602460041
  0
LINE
  8
_0-b_細線3
  6
CONTINUOUS
 62
    7
 10
1017.4854497427414
 20
294.56810602460041
 11
1023.1521164094084
 21
294.56810602460041
  0
LINE
  8
_0-b_細線3
  6
CONTINUOUS
 62
    7
 10
1017.4854497427414
 20
263.23477269126715
 11
1017.4854497427414
 21
294.56810602460041
  0
LINE
  8
_0-b_細線3
  6
CONTINUOUS
 62
    7
 10
1015.4854497427415
 20
263.23477269126715
 11
1017.4854497427414
 21
263.23477269126715
  0
LINE
  8
_0-b_細線3
  6
CONTINUOUS
 62
    7
 10
1015.4854497427415
 20
294.56810602460041
 11
1015.4854497427415
 21
263.23477269126715
  0
LINE
  8
_0-b_細線3
  6
CONTINUOUS
 62
    7
 10
1009.8187830760747
 20
294.56810602460041
 11
1015.4854497427415
 21
294.56810602460041
  0
LINE
  8
_0-b_細線3
  6
CONTINUOUS
 62
    7
 10
1009.8187830760747
 20
296.56810602460041
 11
1009.8187830760747
 21
294.56810602460041
  0
LINE
  8
_0-b_細線3
  6
CONTINUOUS
 62
    7
 10
1023.1521164094084
 20
296.56810602460041
 11
1009.8187830760747
 21
296.56810602460041
  0
ARC
  8
_0-b_細線3
  6
CONTINUOUS
 62
    7
 10
1028.1521164094083
 20
317.70421713571136
 40
46.136111111111042
 50
256.63227178393214
 51
283.36772821606712
  0
ARC
  8
_0-b_細線3
  6
CONTINUOUS
 62
    7
 10
1028.1521164094083
 20
242.0986615801562
 40
46.136111111111042
 50
76.632271783932524
 51
103.36772821606753
  0
LINE
  8
_0-b_細線3
  6
CONTINUOUS
 62
    7
 10
1046.4854497427418
 20
294.56810602460041
 11
1046.4854497427418
 21
296.56810602460041
  0
LINE
  8
_0-b_細線3
  6
CONTINUOUS
 62
    7
 10
1040.8187830760749
 20
294.56810602460041
 11
1046.4854497427418
 21
294.56810602460041
  0
LINE
  8
_0-b_細線3
  6
CONTINUOUS
 62
    7
 10
1040.8187830760749
 20
263.23477269126715
 11
1040.8187830760749
 21
294.56810602460041
  0
LINE
  8
_0-b_細線3
  6
CONTINUOUS
 62
    7
 10
1038.8187830760753
 20
294.56810602460041
 11
1038.8187830760753
 21
263.23477269126715
  0
LINE
  8
_0-b_細線3
  6
CONTINUOUS
 62
    7
 10
1033.1521164094083
 20
294.56810602460041
 11
1038.8187830760753
 21
294.56810602460041
  0
LINE
  8
_0-b_細線3
  6
CONTINUOUS
 62
    7
 10
1033.1521164094083
 20
296.56810602460041
 11
1033.1521164094083
 21
294.56810602460041
  0
ARC
  8
_0-b_細線3
  6
CONTINUOUS
 62
    7
 10
1051.4854497427418
 20
317.70421713571136
 40
46.136111111111042
 50
256.63227178393214
 51
283.36772821606712
  0
ARC
  8
_0-b_細線3
  6
CONTINUOUS
 62
    7
 10
1051.4854497427418
 20
242.0986615801562
 40
46.136111111111042
 50
76.632271783932524
 51
103.36772821606753
  0
LINE
  8
_0-b_細線3
  6
CONTINUOUS
 62
    7
 10
1069.8187830760753
 20
294.56810602460041
 11
1069.8187830760753
 21
296.56810602460041
  0
LINE
  8
_0-b_細線3
  6
CONTINUOUS
 62
    7
 10
1064.1521164094083
 20
294.56810602460041
 11
1069.8187830760753
 21
294.56810602460041
  0
LINE
  8
_0-b_細線3
  6
CONTINUOUS
 62
    7
 10
1064.1521164094083
 20
263.23477269126715
 11
1064.1521164094083
 21
294.56810602460041
  0
LINE
  8
_0-b_細線3
  6
CONTINUOUS
 62
    7
 10
1062.1521164094088
 20
294.56810602460041
 11
1062.1521164094088
 21
263.23477269126715
  0
LINE
  8
_0-b_細線3
  6
CONTINUOUS
 62
    7
 10
1056.4854497427418
 20
294.56810602460041
 11
1062.1521164094088
 21
294.56810602460041
  0
LINE
  8
_0-b_細線3
  6
CONTINUOUS
 62
    7
 10
1056.4854497427418
 20
296.56810602460041
 11
1056.4854497427418
 21
294.56810602460041
  0
ARC
  8
_0-b_細線3
  6
CONTINUOUS
 62
    7
 10
934.81878307607474
 20
242.0986615801562
 40
46.136111111111042
 50
76.632271783932524
 51
95.331778543219158
  0
ARC
  8
_0-b_細線3
  6
CONTINUOUS
 62
    7
 10
934.81878307607474
 20
317.70421713571136
 40
46.136111111111042
 50
269.63773734898541
 51
283.36772821606655
  0
ARC
  8
_0-b_細線3
  6
CONTINUOUS
 62
    7
 10
1074.8187830760758
 20
317.70421713571136
 40
46.136111111111042
 50
256.63227178393157
 51
273.84719120855112
  0
ARC
  8
_0-b_細線3
  6
CONTINUOUS
 62
    7
 10
1074.8187830760758
 20
242.0986615801562
 40
46.136111111111042
 50
91.121818745999931
 51
103.36772821606807
  0
TEXT
  8
_0-7_枠細線
 62
    5
 10
956.55807915457694
 20
218.48278215653394
 40
25
 41
0.8
 50
0
  1
側面詳細図
  0
TEXT
  8
_0-7_枠細線
 62
    5
 10
1027.2366688631309
 20
193.70761534481403
 40
20
 41
0.6
 50
0
  1
Ｓ＝１：３
  0
TEXT
  8
_0-7_枠細線
 62
    5
 10
1180
 20
927.5
 40
12.5
 41
0.7199999999999999
 50
0
  1
２０１５．０４．０１
  0
CIRCLE
  8
_0-a_極細3
  6
CONTINUOUS
 62
    7
 10
323.71423256698949
 20
281.52707199681572
 40
0.5530864197530718
  0
LINE
  8
_0-a_極細3
  6
CONTINUOUS
 62
    7
 10
328.7639931035053
 20
296.56810602460041
 11
328.7639931035053
 21
284.90143935793344
  0
LINE
  8
_0-a_極細3
  6
CONTINUOUS
 62
    7
 10
328.7639931035053
 20
296.56810602460041
 11
239.58624595839069
 21
296.56810602460041
  0
LINE
  8
_0-a_極細3
  6
CONTINUOUS
 62
    7
 10
337.09732643683873
 20
284.90143935793344
 11
239.58624595839069
 21
284.90143935793344
  0
LINE
  8
_0-a_極細3
  6
CONTINUOUS
 62
    7
 10
337.09732643683873
 20
296.56810602460041
 11
328.7639931035053
 21
296.56810602460041
  0
LINE
  8
_0-a_極細3
  6
CONTINUOUS
 62
    7
 10
337.09732643683873
 20
295.73477269126693
 11
337.09732643683873
 21
296.56810602460041
  0
LINE
  8
_0-a_極細3
  6
CONTINUOUS
 62
    7
 10
336.89923618047914
 20
284.90143935793344
 11
337.09732643683827
 21
285.09952961429303
  0
LINE
  8
_0-a_極細3
  6
CONTINUOUS
 62
    7
 10
332.6565954933601
 20
284.90143935793344
 11
337.09732643683873
 21
289.34217030141212
  0
LINE
  8
_0-a_極細3
  6
CONTINUOUS
 62
    7
 10
328.7639931035053
 20
285.25147765519819
 11
337.09732643683873
 21
293.58481098853144
  0
LINE
  8
_0-a_極細3
  6
CONTINUOUS
 62
    7
 10
328.7639931035053
 20
289.49411834231728
 11
335.83798078578798
 21
296.56810602460041
  0
LINE
  8
_0-a_極細3
  6
CONTINUOUS
 62
    7
 10
328.7639931035053
 20
293.73675902943683
 11
331.59534009866883
 21
296.56810602460041
  0
LINE
  8
_0-a_極細3
  6
CONTINUOUS
 62
    7
 10
337.09732643683873
 20
294.28713915234175
 11
334.8163595645803
 21
296.56810602460041
  0
LINE
  8
_0-a_極細3
  6
CONTINUOUS
 62
    7
 10
337.09732643683873
 20
290.04449846522243
 11
330.57371887746081
 21
296.56810602460041
  0
LINE
  8
_0-a_極細3
  6
CONTINUOUS
 62
    7
 10
328.7639931035053
 20
294.1351911114366
 11
337.09732643683873
 21
285.80185777810334
  0
LINE
  8
_0-a_極細3
  6
CONTINUOUS
 62
    7
 10
328.7639931035053
 20
289.89255042431728
 11
333.75510416988868
 21
284.90143935793344
  0
LINE
  8
_0-a_極細3
  6
CONTINUOUS
 62
    7
 10
328.7639931035053
 20
285.64990973719796
 11
329.51246348276953
 21
284.90143935793344
  0
LINE
  8
_0-a_極細3
  6
CONTINUOUS
 62
    7
 10
319.92867342587459
 20
284.90143935180618
 11
328.7639931035053
 21
293.73675902943683
  0
LINE
  8
_0-a_極細3
  6
CONTINUOUS
 62
    7
 10
298.7154699755672
 20
284.9014393370951
 11
310.3821366630724
 21
296.56810602460018
  0
LINE
  8
_0-a_極細3
  6
CONTINUOUS
 62
    7
 10
277.50226652525924
 20
284.90143932238357
 11
289.16893322747569
 21
296.56810602460041
  0
LINE
  8
_0-a_極細3
  6
CONTINUOUS
 62
    7
 10
256.28906307495134
 20
284.90143930767249
 11
267.95572979187921
 21
296.56810602460041
  0
LINE
  8
_0-a_極細3
  6
CONTINUOUS
 62
    7
 10
239.58624595839069
 20
289.4118256267077
 11
246.74252635628292
 21
296.56810602460018
  0
LINE
  8
_0-a_極細3
  6
DASHED2
 62
    7
 10
309.32207170072093
 20
284.90143934445064
 11
320.98873838087064
 21
296.56810602460041
  0
LINE
  8
_0-a_極細3
  6
DASHED2
 62
    7
 10
288.10886825041291
 20
284.90143932973933
 11
299.77553494527427
 21
296.56810602460041
  0
LINE
  8
_0-a_極細3
  6
DASHED2
 62
    7
 10
266.89566480010558
 20
284.90143931502803
 11
278.56233150967745
 21
296.56810602460041
  0
LINE
  8
_0-a_極細3
  6
DASHED2
 62
    7
 10
245.68246134979759
 20
284.90143930031695
 11
257.34912807408108
 21
296.56810602460041
  0
CIRCLE
  8
_0-a_極細3
  6
CONTINUOUS
 62
    7
 10
675.75867701143034
 20
281.83355347829706
 40
0.5530864197530718
  0
CIRCLE
  8
_0-a_極細3
  6
CONTINUOUS
 62
    7
 10
623.75867701143079
 20
282.76688681163046
 40
0.5530864197530718
  0
LINE
  8
_0-a_極細3
  6
CONTINUOUS
 62
    7
 10
612.09732643683856
 20
296.56810602460041
 11
612.09732643683856
 21
284.90143935793344
  0
LINE
  8
_0-a_極細3
  6
CONTINUOUS
 62
    7
 10
612.09732643683856
 20
296.56810602460041
 11
701.27507358195317
 21
296.56810602460041
  0
LINE
  8
_0-a_極細3
  6
CONTINUOUS
 62
    7
 10
603.76399310350507
 20
284.90143935793344
 11
701.27507358195317
 21
284.90143935793344
  0
LINE
  8
_0-a_極細3
  6
CONTINUOUS
 62
    7
 10
603.76399310350507
 20
296.56810602460041
 11
612.09732643683856
 21
296.56810602460041
  0
LINE
  8
_0-a_極細3
  6
CONTINUOUS
 62
    7
 10
603.76399310350507
 20
295.73477269126693
 11
603.76399310350507
 21
296.56810602460041
  0
LINE
  8
_0-a_極細3
  6
CONTINUOUS
 62
    7
 10
612.09732643683856
 20
288.57052563865841
 11
608.42824015611359
 21
284.90143935793344
  0
LINE
  8
_0-a_極細3
  6
CONTINUOUS
 62
    7
 10
612.09732643683856
 20
292.8131663257775
 11
604.1855994689945
 21
284.90143935793344
  0
LINE
  8
_0-a_極細3
  6
CONTINUOUS
 62
    7
 10
603.76399310350507
 20
288.72247367956356
 11
611.60962544854192
 21
296.56810602460041
  0
LINE
  8
_0-a_極細3
  6
CONTINUOUS
 62
    7
 10
603.76399310350507
 20
292.96511436668288
 11
607.36698476142237
 21
296.56810602460018
  0
LINE
  8
_0-a_極細3
  6
CONTINUOUS
 62
    7
 10
612.09732643683856
 20
295.05878381509478
 11
610.58800422733293
 21
296.56810602460041
  0
LINE
  8
_0-a_極細3
  6
CONTINUOUS
 62
    7
 10
612.09732643683856
 20
290.81614312797547
 11
606.34536354021384
 21
296.56810602460041
  0
LINE
  8
_0-a_極細3
  6
CONTINUOUS
 62
    7
 10
612.09732643683856
 20
286.57350244085615
 11
603.76399310350507
 21
294.90683577418963
  0
LINE
  8
_0-a_極細3
  6
CONTINUOUS
 62
    7
 10
609.52674883264172
 20
284.90143935793344
 11
603.76399310350507
 21
290.66419508707031
  0
LINE
  8
_0-a_極細3
  6
CONTINUOUS
 62
    7
 10
605.28410814552262
 20
284.90143935793344
 11
603.76399310350507
 21
286.42155439995099
  0
LINE
  8
_0-a_極細3
  6
CONTINUOUS
 62
    7
 10
680.55313183714134
 20
284.90143935793344
 11
692.21979787701912
 21
296.56810539781122
  0
LINE
  8
_0-a_極細3
  6
CONTINUOUS
 62
    7
 10
659.33992840154497
 20
284.90143935793367
 11
671.00659460737143
 21
296.5681055637599
  0
LINE
  8
_0-a_極細3
  6
CONTINUOUS
 62
    7
 10
638.1267249659486
 20
284.90143935793344
 11
649.79339133772328
 21
296.56810572970812
  0
LINE
  8
_0-a_極細3
  6
CONTINUOUS
 62
    7
 10
616.91352153035223
 20
284.90143935793344
 11
628.58018806807559
 21
296.5681058956568
  0
LINE
  8
_0-a_極細3
  6
DASHED2
 62
    7
 10
691.15973355494009
 20
284.90143935793367
 11
701.27507358195317
 21
295.01677938494709
  0
LINE
  8
_0-a_極細3
  6
DASHED2
 62
    7
 10
669.94653011934315
 20
284.90143935793344
 11
681.61319624219504
 21
296.56810548078533
  0
LINE
  8
_0-a_極細3
  6
DASHED2
 62
    7
 10
648.7333266837469
 20
284.90143935793344
 11
660.39999297254735
 21
296.56810564673401
  0
LINE
  8
_0-a_極細3
  6
DASHED2
 62
    7
 10
627.52012324815041
 20
284.90143935793344
 11
639.1867897028992
 21
296.56810581268246
  0
LINE
  8
_0-a_極細3
  6
DASHED2
 62
    7
 10
612.09732643683856
 20
290.69184598221796
 11
617.97358643325151
 21
296.56810597863091
  0
LINE
  8
_0-b_細線3
  6
CONTINUOUS
 62
    7
 10
590.43065977017204
 20
296.56810602460041
 11
350.43065977017181
 21
296.56810602459973
  0
CIRCLE
  8
_0-a_極細3
  6
CONTINUOUS
 62
    7
 10
683.75867701142988
 20
282.20361520669235
 40
1.825531472681392
  0
LINE
  8
_0-a_極細3
  6
CENTER1
 62
    7
 10
470.43065977017199
 20
247.0489432058173
 11
470.43065977017199
 21
310.49894320582348
  0
LINE
  8
_0-d_寸法3
  6
CONTINUOUS
 62
    7
 10
462.23913932728209
 20
268.97053705477765
 11
426.88679760159658
 21
293.72451322446841
  0
LINE
  8
_0-d_寸法3
  6
CONTINUOUS
 62
    7
 10
430.98255782304159
 20
290.85663104271316
 11
428.3943673720164
 21
300.51588930560388
  0
LINE
  8
_0-d_寸法3
  6
CONTINUOUS
 62
    7
 10
430.98255782304159
 20
290.85663104271316
 11
433.57074827406677
 21
300.51588930560388
  0
LINE
  8
_0-d_寸法3
  6
CONTINUOUS
 62
    7
 10
462.23913932728209
 20
302.30387038811091
 11
426.88679760159658
 21
327.05784655780172
  0
LINE
  8
_0-d_寸法3
  6
CONTINUOUS
 62
    7
 10
430.98255782304159
 20
324.18996437604642
 11
433.57074827406677
 21
314.5307061131557
  0
LINE
  8
_0-d_寸法3
  6
CONTINUOUS
 62
    7
 10
430.98255782304159
 20
324.18996437604642
 11
428.39436737201629
 21
314.53070611315576
  0
LINE
  8
_0-d_寸法3
  6
CONTINUOUS
 62
    7
 10
430.98255782304159
 20
290.85663104271316
 11
430.98255782304159
 21
324.18996437604642
  0
TEXT
  8
_0-d_寸法3
 62
    7
 10
430.98255782304159
 20
300.02329770937968
 40
15
 41
1
 50
90
  1
20
  0
TEXT
  8
_0-7_枠細線
 62
    5
 10
420.50861213093816
 20
113.23440768958903
 40
25
 41
0.8
 50
0
  1
断面詳細図
  0
TEXT
  8
_0-7_枠細線
 62
    5
 10
535.45758188010586
 20
113.23440768958903
 40
20
 41
0.6
 50
0
  1
Ｓ＝１：３
  0
LINE
  8
_0-a_極細3
  6
CONTINUOUS
 62
    7
 10
270.43065977017181
 20
251.56810602460041
 11
270.43065977017181
 21
183.23477269126712
  0
LINE
  8
_0-a_極細3
  6
CONTINUOUS
 62
    7
 10
353.7639931035053
 20
183.23477269126712
 11
270.43065977017181
 21
183.23477269126712
  0
LINE
  8
_0-a_極細3
  6
CONTINUOUS
 62
    7
 10
270.43065977017181
 20
251.56810602460041
 11
239.58624595839069
 21
251.56810602460041
  0
LINE
  8
_0-a_極細3
  6
CONTINUOUS
 62
    7
 10
353.7639931035053
 20
183.23477269126712
 11
353.7639931035053
 21
156.99317239648806
  0
LINE
  8
_0-a_極細3
  6
CONTINUOUS
 62
    7
 10
316.3420185385155
 20
156.99317251292499
 11
342.58361871685815
 21
183.23477269126712
  0
LINE
  8
_0-a_極細3
  6
CONTINUOUS
 62
    7
 10
245.6313406398742
 20
156.99317273293809
 11
271.87294059820323
 21
183.23477269126712
  0
LINE
  8
_0-a_極細3
  6
CONTINUOUS
 62
    7
 10
239.58624595839069
 20
221.65875617010943
 11
269.49559581288185
 21
251.56810602460041
  0
LINE
  8
_0-a_極細3
  6
CONTINUOUS
 62
    7
 10
309.27095074865127
 20
156.99317253492632
 11
335.51255090499234
 21
183.23477269126712
  0
LINE
  8
_0-a_極細3
  6
CONTINUOUS
 62
    7
 10
239.58624595839069
 20
158.01914586332009
 11
270.43065977017181
 21
188.86355967510141
  0
LINE
  8
_0-a_極細3
  6
CONTINUOUS
 62
    7
 10
239.58624595839069
 20
228.72982398197496
 11
262.42452800101609
 21
251.56810602460041
  0
LINE
  8
_0-a_極細3
  6
CONTINUOUS
 62
    7
 10
302.19988295878755
 20
156.99317255692768
 11
328.44148309312709
 21
183.23477269126712
  0
LINE
  8
_0-a_極細3
  6
CONTINUOUS
 62
    7
 10
239.58624595839069
 20
165.09021367518562
 11
270.43065977017181
 21
195.93462748696695
  0
LINE
  8
_0-a_極細3
  6
CONTINUOUS
 62
    7
 10
239.58624595839069
 20
235.80089179384029
 11
255.35346018915078
 21
251.56810602460041
  0
CIRCLE
  8
_0-a_極細3
  6
CONTINUOUS
 62
    7
 10
257.48213380155789
 20
266.77151644126047
 40
0.5530864197530718
  0
CIRCLE
  8
_0-a_極細3
  6
CONTINUOUS
 62
    7
 10
247.15126960402742
 20
256.81596088570495
 40
0.5530864197530718
  0
CIRCLE
  8
_0-a_極細3
  6
CONTINUOUS
 62
    7
 10
257.7586770114346
 20
257.88262755237156
 40
0.5530864197530718
  0
CIRCLE
  8
_0-a_極細3
  6
CONTINUOUS
 62
    7
 10
270.38089923365692
 20
259.83818310792708
 40
0.5530864197530718
  0
CIRCLE
  8
_0-a_極細3
  6
CONTINUOUS
 62
    7
 10
298.82534367810081
 20
271.57151644126043
 40
0.5530864197530718
  0
CIRCLE
  8
_0-a_極細3
  6
CONTINUOUS
 62
    7
 10
329.40312145587831
 20
265.34929421903826
 40
0.5530864197530718
  0
CIRCLE
  8
_0-a_極細3
  6
CONTINUOUS
 62
    7
 10
304.51423256698956
 20
264.81596088570495
 40
0.5530864197530718
  0
CIRCLE
  8
_0-a_極細3
  6
CONTINUOUS
 62
    7
 10
277.32534367810115
 20
252.5826275523716
 40
0.5530864197530718
  0
CIRCLE
  8
_0-a_極細3
  6
CONTINUOUS
 62
    7
 10
297.76978812254515
 20
251.33818310792708
 40
0.5530864197530718
  0
CIRCLE
  8
_0-a_極細3
  6
CONTINUOUS
 62
    7
 10
322.83645478921176
 20
247.60484977459399
 40
0.5530864197530718
  0
CIRCLE
  8
_0-a_極細3
  6
CONTINUOUS
 62
    7
 10
310.21423256698944
 20
241.91596088570509
 40
0.5530864197530718
  0
CIRCLE
  8
_0-a_極細3
  6
CONTINUOUS
 62
    7
 10
295.45867701143442
 20
228.40484977459394
 40
0.5530864197530718
  0
CIRCLE
  8
_0-a_極細3
  6
CONTINUOUS
 62
    7
 10
322.83645478921176
 20
235.69373866348292
 40
0.5530864197530718
  0
CIRCLE
  8
_0-a_極細3
  6
CONTINUOUS
 62
    7
 10
281.7253436781009
 20
208.58262755237206
 40
0.5530864197530718
  0
CIRCLE
  8
_0-a_極細3
  6
CONTINUOUS
 62
    7
 10
276.03645478921192
 20
190.62707199681654
 40
0.5530864197530718
  0
CIRCLE
  8
_0-a_極細3
  6
CONTINUOUS
 62
    7
 10
284.7475659003232
 20
197.38262755237201
 40
0.5530864197530718
  0
CIRCLE
  8
_0-a_極細3
  6
CONTINUOUS
 62
    7
 10
290.96978812254531
 20
188.84929421903877
 40
0.5530864197530718
  0
CIRCLE
  8
_0-a_極細3
  6
CONTINUOUS
 62
    7
 10
330.26978812254515
 20
206.73818310792765
 40
0.5530864197530718
  0
CIRCLE
  8
_0-a_極細3
  6
CONTINUOUS
 62
    7
 10
319.06978812254528
 20
201.22707199681642
 40
0.5530864197530718
  0
CIRCLE
  8
_0-a_極細3
  6
CONTINUOUS
 62
    7
 10
325.2920103447675
 20
198.73818310792763
 40
0.5530864197530718
  0
CIRCLE
  8
_0-a_極細3
  6
CONTINUOUS
 62
    7
 10
321.73645478921179
 20
189.49373866348338
 40
0.5530864197530718
  0
CIRCLE
  8
_0-a_極細3
  6
CONTINUOUS
 62
    7
 10
341.64756590032283
 20
190.56040533014993
 40
0.5530864197530718
  0
CIRCLE
  8
_0-a_極細3
  6
CONTINUOUS
 62
    7
 10
354.62534367810053
 20
193.76040533015001
 40
0.5530864197530718
  0
CIRCLE
  8
_0-a_極細3
  6
CONTINUOUS
 62
    7
 10
368.31423256698935
 20
178.82707199681681
 40
0.5530864197530718
  0
CIRCLE
  8
_0-a_極細3
  6
CONTINUOUS
 62
    7
 10
361.38089923365601
 20
163.89373866348342
 40
0.5530864197530718
  0
CIRCLE
  8
_0-a_極細3
  6
CONTINUOUS
 62
    7
 10
344.71423256698949
 20
207.50855347829796
 40
0.5530864197530718
  0
CIRCLE
  8
_0-a_極細3
  6
CONTINUOUS
 62
    7
 10
359.46978812254491
 20
241.64188681163114
 40
0.5530864197530718
  0
CIRCLE
  8
_0-a_極細3
  6
CONTINUOUS
 62
    7
 10
374.58089923365577
 20
231.68633125607562
 40
0.5530864197530718
  0
CIRCLE
  8
_0-a_極細3
  6
CONTINUOUS
 62
    7
 10
375.11423256698913
 20
213.7307757005201
 40
0.5530864197530718
  0
CIRCLE
  8
_0-a_極細3
  6
CONTINUOUS
 62
    7
 10
339.869788122545
 20
243.46410903385322
 40
0.5530864197530718
  0
CIRCLE
  8
_0-a_極細3
  6
CONTINUOUS
 62
    7
 10
319.58089923365617
 20
265.4480596511371
 40
1.825531472681392
  0
CIRCLE
  8
_0-a_極細3
  6
CONTINUOUS
 62
    7
 10
267.81877953222124
 20
272.37767392583487
 40
1.825531472681392
  0
CIRCLE
  8
_0-a_極細3
  6
CONTINUOUS
 62
    7
 10
294.35867701143411
 20
242.64805965113715
 40
1.825531472681392
  0
CIRCLE
  8
_0-a_極細3
  6
CONTINUOUS
 62
    7
 10
274.75867701143414
 20
204.6480596511376
 40
1.825531472681392
  0
CIRCLE
  8
_0-a_極細3
  6
CONTINUOUS
 62
    7
 10
327.95867701143351
 20
191.84805965113787
 40
1.825531472681392
  0
CIRCLE
  8
_0-a_極細3
  6
CONTINUOUS
 62
    7
 10
363.93645478921115
 20
188.24805965113796
 40
1.825531472681392
  0
CIRCLE
  8
_0-a_極細3
  6
CONTINUOUS
 62
    7
 10
368.73645478921094
 20
169.58139298447151
 40
1.825531472681392
  0
CIRCLE
  8
_0-a_極細3
  6
CONTINUOUS
 62
    7
 10
247.62169999114184
 20
273.27028187335918
 40
1.825531472681392
  0
LINE
  8
_0-a_極細3
  6
CONTINUOUS
 62
    7
 10
386.2639931035053
 20
258.23477269126715
 11
387.09732643683878
 21
258.23477269126715
  0
LINE
  8
_0-a_極細3
  6
CONTINUOUS
 62
    7
 10
387.09732643683878
 20
258.23477269126715
 11
387.09732643683878
 21
156.99317239648806
  0
CIRCLE
  8
_0-a_極細3
  6
CONTINUOUS
 62
    7
 10
380.20989228920985
 20
242.24805965113774
 40
1.825531472681392
  0
CIRCLE
  8
_0-a_極細3
  6
CONTINUOUS
 62
    7
 10
379.21793627069263
 20
187.53818310792781
 40
0.5530864197530718
  0
CIRCLE
  8
_0-a_極細3
  6
CONTINUOUS
 62
    7
 10
380.55126960402663
 20
164.882112074758
 40
0.5530864197530718
  0
CIRCLE
  8
_0-a_極細3
  6
CONTINUOUS
 62
    7
 10
368.18089923365159
 20
223.13694854002691
 40
1.825531472681392
  0
LINE
  8
_0-a_極細3
  6
CONTINUOUS
 62
    7
 10
293.45725821635341
 20
208.11647385377071
 11
288.32695606646826
 21
222.21186316555918
  0
LINE
  8
_0-a_極細3
  6
CONTINUOUS
 62
    7
 10
343.45130089014987
 20
242.27548386480547
 11
348.58160304003462
 21
228.18009455301694
  0
LINE
  8
_0-a_極細3
  6
CONTINUOUS
 62
    7
 10
288.32695606646826
 20
222.21186316555918
 11
343.45130089014987
 21
242.27548386480547
  0
LINE
  8
_0-a_極細3
  6
CONTINUOUS
 62
    7
 10
293.45725821635341
 20
208.11647385377071
 11
348.58160304003462
 21
228.18009455301694
  0
LINE
  8
_0-a_極細3
  6
CENTER1
 62
    7
 10
285.93667374941799
 20
213.360538469635
 11
349.96769423198378
 21
236.66592395467049
  0
LINE
  8
_0-a_極細3
  6
CONTINUOUS
 62
    7
 10
312.09732643683878
 20
183.23477269126712
 11
312.09732643683878
 21
227.32033403958326
  0
LINE
  8
_0-a_極細3
  6
CONTINUOUS
 62
    7
 10
312.09732643683878
 20
227.32033403958326
 11
297.09732643683878
 21
227.32033403958326
  0
LINE
  8
_0-a_極細3
  6
CONTINUOUS
 62
    7
 10
297.09732643683878
 20
227.32033403958326
 11
297.09732643683878
 21
183.23477269126712
  0
CIRCLE
  8
_0-a_極細3
  6
CONTINUOUS
 62
    7
 10
326.47719552995272
 20
213.15670162644597
 40
1.825531472681392
  0
CIRCLE
  8
_0-a_極細3
  6
CONTINUOUS
 62
    7
 10
348.1858375052613
 20
219.37892384866839
 40
1.825531472681392
  0
LINE
  8
_0-a_極細3
  6
CENTER1
 62
    7
 10
304.59732643683878
 20
174.95803240681425
 11
304.59732643683878
 21
231.59605420419282
  0
LINE
  8
_0-d_寸法3
  6
CONTINUOUS
 62
    7
 10
327.09732643683873
 20
296.56810602460047
 11
281.14729535824921
 21
296.56810602460041
  0
LINE
  8
_0-d_寸法3
  6
CONTINUOUS
 62
    7
 10
286.14729535824921
 20
296.56810602460041
 11
288.73548580927439
 21
286.90884776170969
  0
LINE
  8
_0-d_寸法3
  6
CONTINUOUS
 62
    7
 10
286.14729535824921
 20
296.56810602460041
 11
283.55910490722397
 21
286.90884776170975
  0
LINE
  8
_0-d_寸法3
  6
CONTINUOUS
 62
    7
 10
325.09732643683878
 20
258.23477269126721
 11
281.14729535824949
 21
258.23477269126715
  0
LINE
  8
_0-d_寸法3
  6
CONTINUOUS
 62
    7
 10
286.14729535824949
 20
258.23477269126715
 11
283.5591049072242
 21
267.89403095415781
  0
LINE
  8
_0-d_寸法3
  6
CONTINUOUS
 62
    7
 10
286.14729535824949
 20
258.23477269126715
 11
288.73548580927462
 21
267.89403095415787
  0
LINE
  8
_0-d_寸法3
  6
CONTINUOUS
 62
    7
 10
286.14729535824921
 20
296.56810602460041
 11
286.14729535824949
 21
258.23477269126715
  0
TEXT
  8
_0-d_寸法3
 62
    7
 10
286.14729535824949
 20
269.90143935793367
 40
15
 41
1
 50
90
  1
23
  0
LINE
  8
_0-d_寸法3
  6
CONTINUOUS
 62
    7
 10
327.09732643683873
 20
258.23477269126698
 11
281.14729535824949
 21
258.23477269126693
  0
LINE
  8
_0-d_寸法3
  6
CONTINUOUS
 62
    7
 10
286.14729535824949
 20
258.23477269126693
 11
288.73548580927462
 21
248.57551442837627
  0
LINE
  8
_0-d_寸法3
  6
CONTINUOUS
 62
    7
 10
286.14729535824949
 20
258.23477269126693
 11
283.5591049072242
 21
248.57551442837629
  0
LINE
  8
_0-d_寸法3
  6
CONTINUOUS
 62
    7
 10
325.09732643683878
 20
219.9014393579337
 11
281.14729535824949
 21
219.9014393579337
  0
LINE
  8
_0-d_寸法3
  6
CONTINUOUS
 62
    7
 10
286.14729535824949
 20
219.9014393579337
 11
283.5591049072242
 21
229.56069762082436
  0
LINE
  8
_0-d_寸法3
  6
CONTINUOUS
 62
    7
 10
286.14729535824949
 20
219.9014393579337
 11
288.73548580927462
 21
229.56069762082436
  0
LINE
  8
_0-d_寸法3
  6
CONTINUOUS
 62
    7
 10
286.14729535824949
 20
258.23477269126693
 11
286.14729535824949
 21
219.9014393579337
  0
TEXT
  8
_0-d_寸法3
 62
    7
 10
286.14729535824949
 20
231.56810602460041
 40
15
 41
1
 50
90
  1
23
  0
LINE
  8
_0-d_寸法3
  6
CONTINUOUS
 62
    7
 10
337.09732643683867
 20
209.9014393579339
 11
337.09732643683844
 21
192.7567474570285
  0
LINE
  8
_0-d_寸法3
  6
CONTINUOUS
 62
    7
 10
337.0973264368385
 20
197.7567474570285
 11
346.75658469972916
 21
200.34493790805371
  0
LINE
  8
_0-d_寸法3
  6
CONTINUOUS
 62
    7
 10
337.0973264368385
 20
197.7567474570285
 11
346.75658469972916
 21
195.16855700600331
  0
LINE
  8
_0-d_寸法3
  6
CONTINUOUS
 62
    7
 10
387.09732643683867
 20
248.23477269126715
 11
387.09732643683799
 21
192.7567474570285
  0
LINE
  8
_0-d_寸法3
  6
CONTINUOUS
 62
    7
 10
387.0973264368381
 20
197.7567474570285
 11
377.43806817394733
 21
195.16855700600331
  0
LINE
  8
_0-d_寸法3
  6
CONTINUOUS
 62
    7
 10
387.0973264368381
 20
197.7567474570285
 11
377.43806817394739
 21
200.34493790805371
  0
LINE
  8
_0-d_寸法3
  6
CONTINUOUS
 62
    7
 10
337.0973264368385
 20
197.7567474570285
 11
387.0973264368381
 21
197.7567474570285
  0
TEXT
  8
_0-d_寸法3
 62
    7
 10
354.59732643683827
 20
197.7567474570285
 40
15
 41
1
 50
0
  1
30
  0
ARC
  8
_0-b_細線3
  6
CONTINUOUS
 62
    7
 10
342.09732643683873
 20
263.23477269126715
 40
5
 50
179.99999999999983
 51
269.99999999999977
  0
LINE
  8
_0-b_細線3
  6
CONTINUOUS
 62
    7
 10
337.09732643683873
 20
263.23477269126715
 11
337.09732643683873
 21
295.73477269126693
  0
LINE
  8
_0-b_細線3
  6
CONTINUOUS
 62
    7
 10
342.09732643683873
 20
258.23477269126715
 11
386.2639931035053
 21
258.23477269126715
  0
LINE
  8
_0-b_細線3
  6
CONTINUOUS
 62
    7
 10
387.09732643683878
 20
259.06810602460041
 11
386.2639931035053
 21
258.23477269126715
  0
LINE
  8
_0-b_細線3
  6
CONTINUOUS
 62
    7
 10
387.09732643683878
 20
262.4014393579339
 11
387.09732643683878
 21
259.06810602460041
  0
LINE
  8
_0-b_細線3
  6
CONTINUOUS
 62
    7
 10
386.2639931035053
 20
263.23477269126715
 11
387.09732643683878
 21
262.4014393579339
  0
LINE
  8
_0-b_細線3
  6
CONTINUOUS
 62
    7
 10
342.09732643683873
 20
263.23477269126715
 11
386.2639931035053
 21
263.23477269126715
  0
LINE
  8
_0-b_細線3
  6
CONTINUOUS
 62
    7
 10
337.93065977017181
 20
296.56810602460041
 11
337.09732643683873
 21
295.73477269126693
  0
LINE
  8
_0-b_細線3
  6
CONTINUOUS
 62
    7
 10
341.2639931035053
 20
296.56810602460041
 11
337.93065977017181
 21
296.56810602460041
  0
LINE
  8
_0-b_細線3
  6
CONTINUOUS
 62
    7
 10
342.09732643683873
 20
295.73477269126693
 11
341.2639931035053
 21
296.56810602460041
  0
LINE
  8
_0-b_細線3
  6
CONTINUOUS
 62
    7
 10
342.09732643683873
 20
263.23477269126715
 11
342.09732643683873
 21
295.73477269126693
  0
LINE
  8
_0-b_細線3
  6
CONTINUOUS
 62
    7
 10
350.43065977017181
 20
263.2347726912667
 11
350.43065977017181
 21
296.56810602459973
  0
LINE
  8
_0-b_細線3
  6
CONTINUOUS
 62
    7
 10
350.43065977017181
 20
296.56810602459973
 11
345.43065977017181
 21
296.56810602459973
  0
LINE
  8
_0-b_細線3
  6
CONTINUOUS
 62
    7
 10
345.43065977017181
 20
296.56810602459973
 11
345.43065977017181
 21
263.2347726912667
  0
LINE
  8
_0-b_細線3
  6
CONTINUOUS
 62
    7
 10
345.43065977017181
 20
263.2347726912667
 11
350.43065977017181
 21
263.2347726912667
  0
LINE
  8
_0-a_極細3
  6
CONTINUOUS
 62
    7
 10
670.43065977017159
 20
251.56810602460041
 11
670.43065977017159
 21
183.23477269126712
  0
LINE
  8
_0-a_極細3
  6
CONTINUOUS
 62
    7
 10
587.09732643683856
 20
183.23477269126712
 11
670.43065977017159
 21
183.23477269126712
  0
LINE
  8
_0-a_極細3
  6
CONTINUOUS
 62
    7
 10
670.43065977017159
 20
251.56810602460041
 11
701.27507358195317
 21
251.56810602460041
  0
LINE
  8
_0-a_極細3
  6
CONTINUOUS
 62
    7
 10
587.09732643683856
 20
183.23477269126712
 11
587.09732643683856
 21
156.99317239648806
  0
LINE
  8
_0-a_極細3
  6
CONTINUOUS
 62
    7
 10
678.72066218476493
 20
156.99317239648806
 11
701.27507362349388
 21
179.54758383521698
  0
LINE
  8
_0-a_極細3
  6
CONTINUOUS
 62
    7
 10
608.00998406611006
 20
156.99317239648806
 11
634.25158436088896
 21
183.23477269126712
  0
LINE
  8
_0-a_極細3
  6
CONTINUOUS
 62
    7
 10
670.43065977017159
 20
219.41384810054981
 11
701.2750735827085
 21
250.2582619130867
  0
LINE
  8
_0-a_極細3
  6
CONTINUOUS
 62
    7
 10
671.64959437289917
 20
156.99317239648806
 11
701.27507361941525
 21
186.61865164300409
  0
LINE
  8
_0-a_極細3
  6
CONTINUOUS
 62
    7
 10
600.9389162542443
 20
156.99317239648806
 11
627.18051654902365
 21
183.23477269126712
  0
LINE
  8
_0-a_極細3
  6
CONTINUOUS
 62
    7
 10
670.43065977017159
 20
226.48491591241535
 11
695.51384970280651
 21
251.56810584505001
  0
LINE
  8
_0-a_極細3
  6
CONTINUOUS
 62
    7
 10
664.57852656103387
 20
156.99317239648806
 11
701.27507361533662
 21
193.68971945079102
  0
LINE
  8
_0-a_極細3
  6
CONTINUOUS
 62
    7
 10
593.867848442379
 20
156.99317239648806
 11
620.10944873715835
 21
183.23477269126712
  0
LINE
  8
_0-a_極細3
  6
CONTINUOUS
 62
    7
 10
670.43065977017159
 20
233.55598372428088
 11
688.44278194155731
 21
251.56810589566615
  0
CIRCLE
  8
_0-a_極細3
  6
CONTINUOUS
 62
    7
 10
573.50312145587577
 20
242.08910903385322
 40
0.5530864197530718
  0
CIRCLE
  8
_0-a_極細3
  6
CONTINUOUS
 62
    7
 10
583.45867701143106
 20
246.8891090338532
 40
0.5530864197530718
  0
CIRCLE
  8
_0-a_極細3
  6
CONTINUOUS
 62
    7
 10
579.36978812254256
 20
221.91133125607578
 40
0.5530864197530718
  0
CIRCLE
  8
_0-a_極細3
  6
CONTINUOUS
 62
    7
 10
596.90312145587586
 20
204.8891090338536
 40
0.5530864197530718
  0
CIRCLE
  8
_0-a_極細3
  6
CONTINUOUS
 62
    7
 10
579.06978812254238
 20
181.5891090338539
 40
0.5530864197530718
  0
CIRCLE
  8
_0-a_極細3
  6
CONTINUOUS
 62
    7
 10
569.73645478920935
 20
163.72244236718734
 40
0.5530864197530718
  0
CIRCLE
  8
_0-a_極細3
  6
CONTINUOUS
 62
    7
 10
581.20312145587559
 20
193.58910903385365
 40
0.5530864197530718
  0
CIRCLE
  8
_0-a_極細3
  6
CONTINUOUS
 62
    7
 10
595.06978812254238
 20
188.78910903385375
 40
0.5530864197530718
  0
CIRCLE
  8
_0-a_極細3
  6
CONTINUOUS
 62
    7
 10
622.00312145587577
 20
189.05577570052037
 40
0.5530864197530718
  0
CIRCLE
  8
_0-a_極細3
  6
CONTINUOUS
 62
    7
 10
610.00312145587577
 20
198.12244236718698
 40
0.5530864197530718
  0
CIRCLE
  8
_0-a_極細3
  6
CONTINUOUS
 62
    7
 10
621.20312145587559
 20
203.72244236718686
 40
0.5530864197530718
  0
CIRCLE
  8
_0-a_極細3
  6
CONTINUOUS
 62
    7
 10
609.22534367809749
 20
258.01133125607521
 40
0.5530864197530718
  0
CIRCLE
  8
_0-a_極細3
  6
CONTINUOUS
 62
    7
 10
629.75867701143079
 20
257.30022014496421
 40
0.5530864197530718
  0
CIRCLE
  8
_0-a_極細3
  6
CONTINUOUS
 62
    7
 10
618.15867701143088
 20
243.30022014496421
 40
0.5530864197530718
  0
CIRCLE
  8
_0-a_極細3
  6
CONTINUOUS
 62
    7
 10
657.35867701143081
 20
190.10022014496485
 40
0.5530864197530718
  0
CIRCLE
  8
_0-a_極細3
  6
CONTINUOUS
 62
    7
 10
664.55867701143052
 20
204.10022014496491
 40
0.5530864197530718
  0
CIRCLE
  8
_0-a_極細3
  6
CONTINUOUS
 62
    7
 10
662.95867701143027
 20
224.90022014496461
 40
0.5530864197530718
  0
CIRCLE
  8
_0-a_極細3
  6
CONTINUOUS
 62
    7
 10
644.95867701143072
 20
246.1002201449644
 40
0.5530864197530718
  0
CIRCLE
  8
_0-a_極細3
  6
CONTINUOUS
 62
    7
 10
661.75867701143034
 20
265.70022014496408
 40
0.5530864197530718
  0
CIRCLE
  8
_0-a_極細3
  6
CONTINUOUS
 62
    7
 10
658.95867701143015
 20
238.90022014496438
 40
0.5530864197530718
  0
CIRCLE
  8
_0-a_極細3
  6
CONTINUOUS
 62
    7
 10
688.55867701143006
 20
260.10022014496417
 40
0.5530864197530718
  0
CIRCLE
  8
_0-a_極細3
  6
CONTINUOUS
 62
    7
 10
668.11423256698572
 20
258.40361520669262
 40
1.825531472681392
  0
CIRCLE
  8
_0-a_極細3
  6
CONTINUOUS
 62
    7
 10
612.69201034476418
 20
264.9813929844704
 40
1.825531472681392
  0
CIRCLE
  8
_0-a_極細3
  6
CONTINUOUS
 62
    7
 10
644.69201034476373
 20
232.98139298447066
 40
1.825531472681392
  0
CIRCLE
  8
_0-a_極細3
  6
CONTINUOUS
 62
    7
 10
574.29756590032048
 20
188.43139298447113
 40
1.825531472681392
  0
CIRCLE
  8
_0-a_極細3
  6
CONTINUOUS
 62
    7
 10
584.5197881225422
 20
218.29805965113769
 40
1.825531472681392
  0
CIRCLE
  8
_0-a_極細3
  6
CONTINUOUS
 62
    7
 10
619.71978812254201
 20
195.89805965113783
 40
1.825531472681392
  0
CIRCLE
  8
_0-a_極細3
  6
CONTINUOUS
 62
    7
 10
665.98498075782572
 20
185.71100725916835
 40
1.825531472681392
  0
CIRCLE
  8
_0-a_極細3
  6
CONTINUOUS
 62
    7
 10
615.31978812254192
 20
239.09805965113745
 40
1.825531472681392
  0
CIRCLE
  8
_0-a_極細3
  6
CONTINUOUS
 62
    7
 10
567.85373873982644
 20
233.67485424410097
 40
0.5530864197530718
  0
CIRCLE
  8
_0-a_極細3
  6
CONTINUOUS
 62
    7
 10
568.05373873982717
 20
209.71929868854571
 40
0.5530864197530718
  0
CIRCLE
  8
_0-a_極細3
  6
CONTINUOUS
 62
    7
 10
645.09201034476393
 20
270.4480596511371
 40
1.825531472681392
  0
LINE
  8
_0-a_極細3
  6
CONTINUOUS
 62
    7
 10
554.59732643683765
 20
258.23477269126715
 11
553.76399310350462
 21
258.23477269126715
  0
LINE
  8
_0-a_極細3
  6
CONTINUOUS
 62
    7
 10
553.76399310350462
 20
258.23477269126715
 11
553.76399310350462
 21
156.99317239648806
  0
CIRCLE
  8
_0-a_極細3
  6
CONTINUOUS
 62
    7
 10
559.74838894558798
 20
218.17799792274243
 40
0.5530864197530718
  0
CIRCLE
  8
_0-a_極細3
  6
CONTINUOUS
 62
    7
 10
561.05497330772778
 20
178.92244236718716
 40
0.5530864197530718
  0
CIRCLE
  8
_0-a_極細3
  6
CONTINUOUS
 62
    7
 10
560.41608441883818
 20
244.87583742891573
 40
1.825531472681392
  0
CIRCLE
  8
_0-a_極細3
  6
CONTINUOUS
 62
    7
 10
563.36423256698617
 20
172.25361520669324
 40
1.825531472681392
  0
LINE
  8
_0-a_極細3
  6
CONTINUOUS
 62
    7
 10
647.40406132399039
 20
208.11647385377071
 11
652.5343634738756
 21
222.21186316555918
  0
LINE
  8
_0-a_極細3
  6
CONTINUOUS
 62
    7
 10
597.41001865019416
 20
242.27548386480547
 11
592.27971650030941
 21
228.18009455301694
  0
LINE
  8
_0-a_極細3
  6
CONTINUOUS
 62
    7
 10
652.5343634738756
 20
222.21186316555918
 11
597.41001865019416
 21
242.27548386480547
  0
LINE
  8
_0-a_極細3
  6
CONTINUOUS
 62
    7
 10
647.40406132399039
 20
208.11647385377071
 11
592.27971650030941
 21
228.18009455301694
  0
LINE
  8
_0-a_極細3
  6
CENTER1
 62
    7
 10
654.92464579092587
 20
213.360538469635
 11
590.89362530836024
 21
236.66592395467049
  0
LINE
  8
_0-a_極細3
  6
CONTINUOUS
 62
    7
 10
628.76399310350507
 20
183.23477269126712
 11
628.76399310350507
 21
227.32033403958326
  0
LINE
  8
_0-a_極細3
  6
CONTINUOUS
 62
    7
 10
628.76399310350507
 20
227.32033403958326
 11
643.76399310350507
 21
227.32033403958326
  0
LINE
  8
_0-a_極細3
  6
CONTINUOUS
 62
    7
 10
643.76399310350507
 20
227.32033403958326
 11
643.76399310350507
 21
183.23477269126712
  0
LINE
  8
_0-a_極細3
  6
CENTER1
 62
    7
 10
636.26399310350507
 20
174.95803240681425
 11
636.26399310350507
 21
231.59605420419282
  0
CIRCLE
  8
_0-a_極細3
  6
CONTINUOUS
 62
    7
 10
630.38089923365351
 20
240.3965164412607
 40
0.5530864197530718
  0
CIRCLE
  8
_0-a_極細3
  6
CONTINUOUS
 62
    7
 10
652.59708579058042
 20
227.05330656471779
 40
0.5530864197530718
  0
LINE
  8
_0-d_寸法3
  6
CONTINUOUS
 62
    7
 10
603.76399310350553
 20
209.9014393579339
 11
603.76399310350553
 21
192.7567474570285
  0
LINE
  8
_0-d_寸法3
  6
CONTINUOUS
 62
    7
 10
603.76399310350553
 20
197.7567474570285
 11
594.10473484061481
 21
195.16855700600331
  0
LINE
  8
_0-d_寸法3
  6
CONTINUOUS
 62
    7
 10
603.76399310350553
 20
197.7567474570285
 11
594.10473484061481
 21
200.34493790805371
  0
LINE
  8
_0-d_寸法3
  6
CONTINUOUS
 62
    7
 10
553.76399310350553
 20
248.23477269126715
 11
553.76399310350553
 21
192.7567474570285
  0
LINE
  8
_0-d_寸法3
  6
CONTINUOUS
 62
    7
 10
553.76399310350553
 20
197.7567474570285
 11
563.42325136639624
 21
200.34493790805371
  0
LINE
  8
_0-d_寸法3
  6
CONTINUOUS
 62
    7
 10
553.76399310350553
 20
197.7567474570285
 11
563.42325136639624
 21
195.16855700600331
  0
LINE
  8
_0-d_寸法3
  6
CONTINUOUS
 62
    7
 10
603.76399310350553
 20
197.7567474570285
 11
553.76399310350553
 21
197.7567474570285
  0
TEXT
  8
_0-d_寸法3
 62
    7
 10
571.26399310350553
 20
197.75674745702844
 40
15
 41
1
 50
0.0000000000005428
  1
30
  0
ARC
  8
_0-b_細線3
  6
CONTINUOUS
 62
    7
 10
598.76399310350507
 20
263.23477269126715
 40
5
 50
269.99999999999977
 51
359.99999999999966
  0
LINE
  8
_0-b_細線3
  6
CONTINUOUS
 62
    7
 10
603.76399310350507
 20
263.23477269126715
 11
603.76399310350507
 21
295.73477269126693
  0
LINE
  8
_0-b_細線3
  6
CONTINUOUS
 62
    7
 10
598.76399310350507
 20
258.23477269126715
 11
554.59732643683765
 21
258.23477269126715
  0
LINE
  8
_0-b_細線3
  6
CONTINUOUS
 62
    7
 10
553.76399310350462
 20
259.06810602460041
 11
554.59732643683765
 21
258.23477269126715
  0
LINE
  8
_0-b_細線3
  6
CONTINUOUS
 62
    7
 10
553.76399310350462
 20
262.4014393579339
 11
553.76399310350462
 21
259.06810602460041
  0
LINE
  8
_0-b_細線3
  6
CONTINUOUS
 62
    7
 10
554.59732643683765
 20
263.23477269126715
 11
553.76399310350462
 21
262.4014393579339
  0
LINE
  8
_0-b_細線3
  6
CONTINUOUS
 62
    7
 10
598.76399310350507
 20
263.23477269126715
 11
554.59732643683765
 21
263.23477269126715
  0
LINE
  8
_0-b_細線3
  6
CONTINUOUS
 62
    7
 10
602.93065977017204
 20
296.56810602460041
 11
603.76399310350507
 21
295.73477269126693
  0
LINE
  8
_0-b_細線3
  6
CONTINUOUS
 62
    7
 10
599.59732643683856
 20
296.56810602460041
 11
602.93065977017204
 21
296.56810602460041
  0
LINE
  8
_0-b_細線3
  6
CONTINUOUS
 62
    7
 10
598.76399310350507
 20
295.73477269126693
 11
599.59732643683856
 21
296.56810602460041
  0
LINE
  8
_0-b_細線3
  6
CONTINUOUS
 62
    7
 10
598.76399310350507
 20
263.23477269126715
 11
598.76399310350507
 21
295.73477269126693
  0
LINE
  8
_0-b_細線3
  6
CONTINUOUS
 62
    7
 10
590.43065977017204
 20
263.23477269126738
 11
590.43065977017204
 21
296.56810602460041
  0
LINE
  8
_0-b_細線3
  6
CONTINUOUS
 62
    7
 10
590.43065977017204
 20
296.56810602460041
 11
595.43065977017204
 21
296.56810602460041
  0
LINE
  8
_0-b_細線3
  6
CONTINUOUS
 62
    7
 10
595.43065977017204
 20
296.56810602460041
 11
595.43065977017204
 21
263.23477269126738
  0
LINE
  8
_0-b_細線3
  6
CONTINUOUS
 62
    7
 10
595.43065977017204
 20
263.23477269126738
 11
590.43065977017204
 21
263.23477269126738
  0
LINE
  8
_0-d_寸法3
  6
CONTINUOUS
 62
    7
 10
387.09732643683878
 20
253.23477269126715
 11
387.09732643683878
 21
192.7567474570285
  0
LINE
  8
_0-d_寸法3
  6
CONTINUOUS
 62
    7
 10
387.09732643683878
 20
197.7567474570285
 11
396.75658469972944
 21
200.34493790805371
  0
LINE
  8
_0-d_寸法3
  6
CONTINUOUS
 62
    7
 10
387.09732643683878
 20
197.7567474570285
 11
396.75658469972944
 21
195.16855700600331
  0
LINE
  8
_0-d_寸法3
  6
CONTINUOUS
 62
    7
 10
553.76399310350462
 20
253.23477269126715
 11
553.76399310350462
 21
192.7567474570285
  0
LINE
  8
_0-d_寸法3
  6
CONTINUOUS
 62
    7
 10
553.76399310350462
 20
197.7567474570285
 11
544.1047348406139
 21
195.16855700600331
  0
LINE
  8
_0-d_寸法3
  6
CONTINUOUS
 62
    7
 10
553.76399310350462
 20
197.7567474570285
 11
544.1047348406139
 21
200.34493790805371
  0
LINE
  8
_0-d_寸法3
  6
CONTINUOUS
 62
    7
 10
387.09732643683878
 20
197.7567474570285
 11
553.76399310350462
 21
197.7567474570285
  0
TEXT
  8
_0-d_寸法3
 62
    7
 10
459.18065977017199
 20
197.7567474570285
 40
15
 41
1
 50
0
  1
100
  0
LINE
  8
_0-b_細線3
  6
CONTINUOUS
 62
    7
 10
590.43065977017204
 20
263.23477269126738
 11
350.43065977017181
 21
263.2347726912667
  0
LINE
  8
_0-a_極細3
  6
CENTER1
 62
    7
 10
606.4307481713272
 20
279.9014393579339
 11
335.44333399229822
 21
279.9014393579339
  0
ARC
  8
_0-b_細線3
  6
CONTINUOUS
 62
    7
 10
387.0973264368385
 20
279.9014393579339
 40
8.75
 50
294.03943363457506
 51
65.960566365424228
  0
ARC
  8
_0-b_細線3
  6
CONTINUOUS
 62
    7
 10
387.0973264368385
 20
279.9014393579339
 40
8.75
 50
114.03943363457542
 51
245.96056636541877
  0
ARC
  8
_0-b_細線3
  6
CONTINUOUS
 62
    7
 10
387.09732643683128
 20
274.06810602454311
 40
2.4999999999928004
 50
179.99999999999983
 51
359.99999999999966
  0
LINE
  8
_0-b_細線3
  6
CONTINUOUS
 62
    7
 10
384.5973264368385
 20
285.73477269126738
 11
384.5973264368385
 21
274.06810602460064
  0
ARC
  8
_0-b_細線3
  6
CONTINUOUS
 62
    7
 10
387.09732643683128
 20
285.73477269133923
 40
2.5000000000072005
 50
0
 51
179.99999999999983
  0
LINE
  8
_0-b_細線3
  6
CONTINUOUS
 62
    7
 10
389.5973264368385
 20
274.06810602460064
 11
389.5973264368385
 21
285.73477269126738
  0
ARC
  8
_0-b_細線3
  6
CONTINUOUS
 62
    7
 10
387.09732643684396
 20
274.06810602458177
 40
4.1666666666723522
 50
179.99999999999983
 51
359.99999999999966
  0
LINE
  8
_0-b_細線3
  6
CONTINUOUS
 62
    7
 10
382.93065977017244
 20
285.73477269126738
 11
382.93065977017244
 21
274.06810602460064
  0
ARC
  8
_0-b_細線3
  6
CONTINUOUS
 62
    7
 10
387.09732643680582
 20
285.73477269136515
 40
4.1666666667000154
 50
0
 51
179.99999999999983
  0
LINE
  8
_0-b_細線3
  6
CONTINUOUS
 62
    7
 10
391.26399310350553
 20
274.06810602460064
 11
391.26399310350553
 21
285.73477269126738
  0
ARC
  8
_0-b_細線3
  6
CONTINUOUS
 62
    7
 10
553.76399310350553
 20
279.9014393579339
 40
8.75
 50
294.03943363457506
 51
65.960566365424228
  0
ARC
  8
_0-b_細線3
  6
CONTINUOUS
 62
    7
 10
553.76399310350553
 20
279.9014393579339
 40
8.75
 50
114.03943363457542
 51
245.96056636541877
  0
ARC
  8
_0-b_細線3
  6
CONTINUOUS
 62
    7
 10
553.76399310349825
 20
274.06810602454311
 40
2.4999999999928004
 50
179.99999999999983
 51
359.99999999999966
  0
LINE
  8
_0-b_細線3
  6
CONTINUOUS
 62
    7
 10
551.26399310350553
 20
285.73477269126738
 11
551.26399310350553
 21
274.06810602460064
  0
ARC
  8
_0-b_細線3
  6
CONTINUOUS
 62
    7
 10
553.76399310349825
 20
285.73477269133923
 40
2.5000000000072005
 50
0
 51
179.99999999999983
  0
LINE
  8
_0-b_細線3
  6
CONTINUOUS
 62
    7
 10
556.26399310350553
 20
274.06810602460064
 11
556.26399310350553
 21
285.73477269126738
  0
ARC
  8
_0-b_細線3
  6
CONTINUOUS
 62
    7
 10
553.76399310351098
 20
274.06810602458177
 40
4.1666666666723522
 50
179.99999999999983
 51
359.99999999999966
  0
LINE
  8
_0-b_細線3
  6
CONTINUOUS
 62
    7
 10
549.59732643683947
 20
285.73477269126738
 11
549.59732643683947
 21
274.06810602460064
  0
ARC
  8
_0-b_細線3
  6
CONTINUOUS
 62
    7
 10
553.76399310347279
 20
285.73477269136515
 40
4.1666666667000154
 50
0
 51
179.99999999999983
  0
LINE
  8
_0-b_細線3
  6
CONTINUOUS
 62
    7
 10
557.9306597701725
 20
274.06810602460064
 11
557.9306597701725
 21
285.73477269126738
  0
LINE
  8
_0-d_寸法3
  6
CONTINUOUS
 62
    7
 10
337.09732643683873
 20
301.56810602460041
 11
337.09732643683901
 21
421.56810602460041
  0
LINE
  8
_0-d_寸法3
  6
CONTINUOUS
 62
    7
 10
337.09732643683901
 20
416.56810602460041
 11
346.75658469972967
 21
419.1562964756256
  0
LINE
  8
_0-d_寸法3
  6
CONTINUOUS
 62
    7
 10
337.09732643683901
 20
416.56810602460041
 11
346.75658469972967
 21
413.97991557357528
  0
LINE
  8
_0-d_寸法3
  6
CONTINUOUS
 62
    7
 10
603.76399310350507
 20
301.56810602460041
 11
603.76399310350553
 21
421.56810602460041
  0
LINE
  8
_0-d_寸法3
  6
CONTINUOUS
 62
    7
 10
603.76399310350553
 20
416.56810602460041
 11
594.10473484061481
 21
413.97991557357528
  0
LINE
  8
_0-d_寸法3
  6
CONTINUOUS
 62
    7
 10
603.76399310350553
 20
416.56810602460041
 11
594.10473484061481
 21
419.15629647562571
  0
LINE
  8
_0-d_寸法3
  6
CONTINUOUS
 62
    7
 10
337.09732643683901
 20
416.56810602460041
 11
603.76399310350553
 21
416.56810602460041
  0
TEXT
  8
_0-d_寸法3
 62
    7
 10
459.18065977017199
 20
416.56810602460041
 40
15
 41
1
 50
0
  1
160
  0
LINE
  8
_0-d_寸法3
  6
CONTINUOUS
 62
    7
 10
345.43065977017181
 20
306.56810602459973
 11
345.43065977017181
 21
351.56810602460041
  0
LINE
  8
_0-d_寸法3
  6
CONTINUOUS
 62
    7
 10
345.43065977017181
 20
346.56810602460041
 11
355.08991803306242
 21
349.1562964756256
  0
LINE
  8
_0-d_寸法3
  6
CONTINUOUS
 62
    7
 10
345.43065977017181
 20
346.56810602460041
 11
355.08991803306242
 21
343.97991557357523
  0
LINE
  8
_0-d_寸法3
  6
CONTINUOUS
 62
    7
 10
387.0973264368385
 20
306.56810602460041
 11
387.0973264368385
 21
351.56810602460041
  0
LINE
  8
_0-d_寸法3
  6
CONTINUOUS
 62
    7
 10
387.0973264368385
 20
346.56810602460041
 11
377.43806817394778
 21
343.97991557357523
  0
LINE
  8
_0-d_寸法3
  6
CONTINUOUS
 62
    7
 10
387.0973264368385
 20
346.56810602460041
 11
377.43806817394784
 21
349.15629647562571
  0
LINE
  8
_0-d_寸法3
  6
CONTINUOUS
 62
    7
 10
345.43065977017181
 20
346.56810602460041
 11
387.0973264368385
 21
346.56810602460041
  0
TEXT
  8
_0-d_寸法3
 62
    7
 10
358.76399310350502
 20
346.56810602460041
 40
15
 41
1
 50
0
  1
25
  0
LINE
  8
_0-d_寸法3
  6
CONTINUOUS
 62
    7
 10
387.0973264368385
 20
346.56810602460041
 11
396.75658469972922
 21
349.15629647562554
  0
LINE
  8
_0-d_寸法3
  6
CONTINUOUS
 62
    7
 10
387.0973264368385
 20
346.56810602460041
 11
396.75658469972916
 21
343.97991557357523
  0
LINE
  8
_0-d_寸法3
  6
CONTINUOUS
 62
    7
 10
553.76399310350519
 20
306.56810602460041
 11
553.76399310350553
 21
351.56810602460041
  0
LINE
  8
_0-d_寸法3
  6
CONTINUOUS
 62
    7
 10
553.76399310350553
 20
346.56810602460041
 11
544.10473484061481
 21
343.97991557357523
  0
LINE
  8
_0-d_寸法3
  6
CONTINUOUS
 62
    7
 10
553.76399310350553
 20
346.56810602460041
 11
544.10473484061481
 21
349.15629647562571
  0
LINE
  8
_0-d_寸法3
  6
CONTINUOUS
 62
    7
 10
387.0973264368385
 20
346.56810602460041
 11
553.76399310350553
 21
346.56810602460041
  0
TEXT
  8
_0-d_寸法3
 62
    7
 10
459.18065977017199
 20
346.56810602460041
 40
15
 41
1
 50
0
  1
100
  0
LINE
  8
_0-d_寸法3
  6
CONTINUOUS
 62
    7
 10
553.76399310350553
 20
346.56810602460041
 11
563.42325136639624
 21
349.15629647562554
  0
LINE
  8
_0-d_寸法3
  6
CONTINUOUS
 62
    7
 10
553.76399310350553
 20
346.56810602460041
 11
563.42325136639624
 21
343.97991557357523
  0
LINE
  8
_0-d_寸法3
  6
CONTINUOUS
 62
    7
 10
595.43065977017204
 20
306.56810602460041
 11
595.43065977017204
 21
351.56810602460041
  0
LINE
  8
_0-d_寸法3
  6
CONTINUOUS
 62
    7
 10
595.43065977017204
 20
346.56810602460041
 11
585.77140150728133
 21
343.97991557357523
  0
LINE
  8
_0-d_寸法3
  6
CONTINUOUS
 62
    7
 10
595.43065977017204
 20
346.56810602460041
 11
585.77140150728133
 21
349.15629647562571
  0
LINE
  8
_0-d_寸法3
  6
CONTINUOUS
 62
    7
 10
553.76399310350553
 20
346.56810602460041
 11
595.43065977017204
 21
346.56810602460041
  0
TEXT
  8
_0-d_寸法3
 62
    7
 10
567.09732643683856
 20
346.56810602460041
 40
15
 41
1
 50
0
  1
25
  0
LINE
  8
_0-7_枠細線
  6
CONTINUOUS
 62
    5
 10
1139.4018171150183
 20
373.42884000293418
 11
1139.4018171150183
 21
453.42884000293424
  0
LINE
  8
_0-7_枠細線
  6
CONTINUOUS
 62
    5
 10
1229.4018171150183
 20
373.42884000293418
 11
1229.4018171150183
 21
453.42884000293424
  0
TEXT
  8
_0-7_枠細線
 62
    5
 10
1251.9018171150183
 20
430.92884000293424
 40
15
 41
1
 50
0
  1
蓋重量
  0
LINE
  8
_0-7_枠細線
  6
CONTINUOUS
 62
    5
 10
1319.4018171150183
 20
373.42884000293418
 11
1319.4018171150183
 21
453.42884000293424
  0
TEXT
  8
_0-7_枠細線
 62
    5
 10
1341.9018171150183
 20
430.92884000293424
 40
15
 41
1
 50
0
  1
枠重量
  0
LINE
  8
_0-7_枠細線
  6
CONTINUOUS
 62
    5
 10
1139.4018171150183
 20
423.42884000293424
 11
1409.4018171150183
 21
423.42884000293424
  0
LINE
  8
_0-7_枠細線
  6
CONTINUOUS
 62
    5
 10
1139.4018171150183
 20
453.42884000293424
 11
1409.4018171150183
 21
453.42884000293424
  0
LINE
  8
_0-7_枠細線
  6
CONTINUOUS
 62
    5
 10
1139.4018171150183
 20
373.42884000293418
 11
1409.4018171150183
 21
373.42884000293418
  0
LINE
  8
_0-7_枠細線
  6
CONTINUOUS
 62
    5
 10
1409.4018171150183
 20
373.42884000293418
 11
1409.4018171150183
 21
453.42884000293424
  0
TEXT
  8
_0-7_枠細線
 62
    5
 10
1154.4018171150183
 20
430.92884000293424
 40
15
 41
1
 50
0
  1
適用荷重
  0
TEXT
  8
_0-7_枠細線
 62
    5
 10
1334.4018171150183
 20
392.17884000293424
 40
15
 41
0.8000000000000001
 50
0
  1
2.4kg/ｍ組
  0
TEXT
  8
_0-7_枠細線
 62
    5
 10
1250.4018171150183
 20
392.17884000293424
 40
15
 41
0.8000000000000001
 50
0
  1
3.9kg/枚
  0
TEXT
  8
_0-7_枠細線
 62
    5
 10
1161.9018171150183
 20
400.92884000293424
 40
15
 41
1
 50
0
  1
歩道用
  0
TEXT
  8
_0-7_枠細線
 62
    5
 10
1139.4018171150183
 20
380.92884000293418
 40
15
 41
1
 50
0
  1
（5.0kN/㎡）
  0
LINE
  8
_0-5_寸法線
  6
CONTINUOUS
 62
    7
 10
563.86406605873833
 20
603.31706851131855
 11
568.8640660698627
 21
594.65681447989687
  0
LINE
  8
_0-5_寸法線
  6
CONTINUOUS
 62
    7
 10
563.86406605873833
 20
603.31706851131855
 11
563.86406607158369
 21
593.31706851131855
  0
LINE
  8
_0-5_寸法線
  6
CONTINUOUS
 62
    7
 10
563.86406605873833
 20
603.31706851131855
 11
575.70543561620389
 21
559.12447591872603
  0
LINE
  8
_0-5_寸法線
  6
CONTINUOUS
 62
    7
 10
575.70543561620389
 20
559.12447591872603
 11
683.70543561620377
 21
559.12447591872603
  0
TEXT
  8
_0-5_寸法線
 62
    7
 10
575.70543561620389
 20
559.7244759187264
 40
15
 41
0.8000000000000001
 50
0
  1
ＳＵＳアングル受枠
  0
LINE
  8
_0-5_寸法線
  6
CONTINUOUS
 62
    7
 10
775.46332226967797
 20
646.29578965970086
 11
780.46332226967797
 21
637.63553562185632
  0
LINE
  8
_0-5_寸法線
  6
CONTINUOUS
 62
    7
 10
775.46332226967797
 20
646.29578965970086
 11
775.46332226967797
 21
636.29578965970074
  0
LINE
  8
_0-5_寸法線
  6
CONTINUOUS
 62
    7
 10
775.46332226967797
 20
646.29578965970086
 11
798.82080538973185
 21
559.12447591872603
  0
LINE
  8
_0-5_寸法線
  6
CONTINUOUS
 62
    7
 10
798.82080538973185
 20
559.12447591872603
 11
933.25981760485183
 21
559.12447591872603
  0
TEXT
  8
_0-5_寸法線
 62
    7
 10
801.25981760485172
 20
559.12447591872603
 40
15
 41
0.8000000000000001
 50
0
  1
ステンレスグレーチング
  0
LINE
  8
_0-1_計細線
  6
CONTINUOUS
 62
    3
 10
238.93374979597672
 20
753.93908616188571
 11
238.93374979597672
 21
609.93908616188583
  0
LINE
  8
_0-1_計細線
  6
CONTINUOUS
 62
    3
 10
230.93374979597669
 20
609.93908616188583
 11
230.93374979597669
 21
753.93908616188571
  0
LINE
  8
_0-1_計細線
  6
CONTINUOUS
 62
    3
 10
252.93374979597672
 20
753.93908616188571
 11
252.93374979597672
 21
609.93908616188583
  0
LINE
  8
_0-1_計細線
  6
CONTINUOUS
 62
    3
 10
244.93374979597675
 20
609.93908616188583
 11
244.93374979597675
 21
753.93908616188571
  0
LINE
  8
_0-1_計細線
  6
CONTINUOUS
 62
    3
 10
266.93374979597678
 20
753.93908616188571
 11
266.93374979597678
 21
609.93908616188583
  0
LINE
  8
_0-1_計細線
  6
CONTINUOUS
 62
    3
 10
258.93374979597672
 20
609.93908616188583
 11
258.93374979597672
 21
753.93908616188571
  0
LINE
  8
_0-1_計細線
  6
CONTINUOUS
 62
    3
 10
280.93374979597672
 20
753.93908616188571
 11
280.93374979597672
 21
609.93908616188583
  0
LINE
  8
_0-1_計細線
  6
CONTINUOUS
 62
    3
 10
272.93374979597672
 20
609.93908616188583
 11
272.93374979597672
 21
753.93908616188571
  0
LINE
  8
_0-1_計細線
  6
CONTINUOUS
 62
    3
 10
294.93374979597672
 20
753.93908616188571
 11
294.93374979597672
 21
609.93908616188583
  0
LINE
  8
_0-1_計細線
  6
CONTINUOUS
 62
    3
 10
286.93374979597678
 20
609.93908616188583
 11
286.93374979597678
 21
753.93908616188571
  0
LINE
  8
_0-1_計細線
  6
CONTINUOUS
 62
    3
 10
308.93374979597672
 20
753.93908616188571
 11
308.93374979597672
 21
609.93908616188583
  0
LINE
  8
_0-1_計細線
  6
CONTINUOUS
 62
    3
 10
300.93374979597672
 20
609.93908616188583
 11
300.93374979597672
 21
753.93908616188571
  0
LINE
  8
_0-1_計細線
  6
CONTINUOUS
 62
    3
 10
322.93374979597672
 20
753.93908616188571
 11
322.93374979597672
 21
609.93908616188583
  0
LINE
  8
_0-1_計細線
  6
CONTINUOUS
 62
    3
 10
314.93374979597672
 20
609.93908616188583
 11
314.93374979597672
 21
753.93908616188571
  0
LINE
  8
_0-1_計細線
  6
CONTINUOUS
 62
    3
 10
336.93374979597672
 20
753.93908616188571
 11
336.93374979597672
 21
609.93908616188583
  0
LINE
  8
_0-1_計細線
  6
CONTINUOUS
 62
    3
 10
328.93374979597672
 20
609.93908616188583
 11
328.93374979597672
 21
753.93908616188571
  0
LINE
  8
_0-1_計細線
  6
CONTINUOUS
 62
    3
 10
350.93374979597678
 20
753.93908616188571
 11
350.93374979597678
 21
609.93908616188583
  0
LINE
  8
_0-1_計細線
  6
CONTINUOUS
 62
    3
 10
342.93374979597672
 20
609.93908616188583
 11
342.93374979597672
 21
753.93908616188571
  0
LINE
  8
_0-1_計細線
  6
CONTINUOUS
 62
    3
 10
364.93374979597672
 20
753.93908616188571
 11
364.93374979597672
 21
609.93908616188583
  0
LINE
  8
_0-1_計細線
  6
CONTINUOUS
 62
    3
 10
356.93374979597672
 20
609.93908616188583
 11
356.93374979597672
 21
753.93908616188571
  0
LINE
  8
_0-1_計細線
  6
CONTINUOUS
 62
    3
 10
378.93374979597672
 20
753.93908616188571
 11
378.93374979597672
 21
609.93908616188583
  0
LINE
  8
_0-1_計細線
  6
CONTINUOUS
 62
    3
 10
370.93374979597678
 20
609.93908616188583
 11
370.93374979597678
 21
753.93908616188571
  0
LINE
  8
_0-1_計細線
  6
CONTINUOUS
 62
    3
 10
392.93374979597672
 20
753.93908616188571
 11
392.93374979597672
 21
609.93908616188583
  0
LINE
  8
_0-1_計細線
  6
CONTINUOUS
 62
    3
 10
384.93374979597672
 20
609.93908616188583
 11
384.93374979597672
 21
753.93908616188571
  0
LINE
  8
_0-1_計細線
  6
CONTINUOUS
 62
    3
 10
406.93374979597678
 20
753.93908616188571
 11
406.93374979597678
 21
609.93908616188583
  0
LINE
  8
_0-1_計細線
  6
CONTINUOUS
 62
    3
 10
398.93374979597672
 20
609.93908616188583
 11
398.93374979597672
 21
753.93908616188571
  0
LINE
  8
_0-1_計細線
  6
CONTINUOUS
 62
    3
 10
420.93374979597678
 20
753.93908616188571
 11
420.93374979597678
 21
609.93908616188583
  0
LINE
  8
_0-1_計細線
  6
CONTINUOUS
 62
    3
 10
412.93374979597672
 20
609.93908616188583
 11
412.93374979597672
 21
753.93908616188571
  0
LINE
  8
_0-1_計細線
  6
CONTINUOUS
 62
    3
 10
434.93374979597672
 20
753.93908616188571
 11
434.93374979597672
 21
609.93908616188583
  0
LINE
  8
_0-1_計細線
  6
CONTINUOUS
 62
    3
 10
426.93374979597678
 20
609.93908616188583
 11
426.93374979597678
 21
753.93908616188571
  0
LINE
  8
_0-1_計細線
  6
CONTINUOUS
 62
    3
 10
448.93374979597672
 20
753.93908616188571
 11
448.93374979597672
 21
609.93908616188583
  0
LINE
  8
_0-1_計細線
  6
CONTINUOUS
 62
    3
 10
440.93374979597678
 20
609.93908616188583
 11
440.93374979597678
 21
753.93908616188571
  0
LINE
  8
_0-1_計細線
  6
CONTINUOUS
 62
    3
 10
462.93374979597672
 20
753.93908616188571
 11
462.93374979597672
 21
609.93908616188583
  0
LINE
  8
_0-1_計細線
  6
CONTINUOUS
 62
    3
 10
454.93374979597672
 20
609.93908616188583
 11
454.93374979597672
 21
753.93908616188571
  0
LINE
  8
_0-1_計細線
  6
CONTINUOUS
 62
    3
 10
476.93374979597678
 20
753.93908616188571
 11
476.93374979597678
 21
609.93908616188583
  0
LINE
  8
_0-1_計細線
  6
CONTINUOUS
 62
    3
 10
468.93374979597672
 20
609.93908616188583
 11
468.93374979597672
 21
753.93908616188571
  0
LINE
  8
_0-1_計細線
  6
CONTINUOUS
 62
    3
 10
490.93374979597678
 20
753.93908616188571
 11
490.93374979597678
 21
609.93908616188583
  0
LINE
  8
_0-1_計細線
  6
CONTINUOUS
 62
    3
 10
482.93374979597672
 20
609.93908616188583
 11
482.93374979597672
 21
753.93908616188571
  0
LINE
  8
_0-1_計細線
  6
CONTINUOUS
 62
    3
 10
504.93374979597672
 20
753.93908616188571
 11
504.93374979597672
 21
609.93908616188583
  0
LINE
  8
_0-1_計細線
  6
CONTINUOUS
 62
    3
 10
496.93374979597678
 20
609.93908616188583
 11
496.93374979597678
 21
753.93908616188571
  0
LINE
  8
_0-1_計細線
  6
CONTINUOUS
 62
    3
 10
518.93374979597672
 20
753.93908616188571
 11
518.93374979597672
 21
609.93908616188583
  0
LINE
  8
_0-1_計細線
  6
CONTINUOUS
 62
    3
 10
510.93374979597678
 20
609.93908616188583
 11
510.93374979597678
 21
753.93908616188571
  0
LINE
  8
_0-1_計細線
  6
CONTINUOUS
 62
    3
 10
532.93374979597672
 20
753.93908616188571
 11
532.93374979597672
 21
609.93908616188583
  0
LINE
  8
_0-1_計細線
  6
CONTINUOUS
 62
    3
 10
524.93374979597672
 20
609.93908616188583
 11
524.93374979597672
 21
753.93908616188571
  0
LINE
  8
_0-1_計細線
  6
CONTINUOUS
 62
    3
 10
546.93374979597684
 20
753.93908616188571
 11
546.93374979597684
 21
609.93908616188583
  0
LINE
  8
_0-1_計細線
  6
CONTINUOUS
 62
    3
 10
538.93374979597672
 20
609.93908616188583
 11
538.93374979597672
 21
753.93908616188571
  0
LINE
  8
_0-1_計細線
  6
CONTINUOUS
 62
    3
 10
560.93374979597672
 20
753.93908616188571
 11
560.93374979597672
 21
609.93908616188583
  0
LINE
  8
_0-1_計細線
  6
CONTINUOUS
 62
    3
 10
552.93374979597672
 20
609.93908616188583
 11
552.93374979597672
 21
753.93908616188571
  0
LINE
  8
_0-1_計細線
  6
CONTINUOUS
 62
    3
 10
574.93374979597672
 20
753.93908616188571
 11
574.93374979597672
 21
609.93908616188583
  0
LINE
  8
_0-1_計細線
  6
CONTINUOUS
 62
    3
 10
566.93374979597684
 20
609.93908616188583
 11
566.93374979597684
 21
753.93908616188571
  0
LINE
  8
_0-1_計細線
  6
CONTINUOUS
 62
    3
 10
588.93374979597672
 20
753.93908616188571
 11
588.93374979597672
 21
609.93908616188583
  0
LINE
  8
_0-1_計細線
  6
CONTINUOUS
 62
    3
 10
580.93374979597672
 20
609.93908616188583
 11
580.93374979597672
 21
753.93908616188571
  0
LINE
  8
_0-1_計細線
  6
CONTINUOUS
 62
    3
 10
602.93374979597672
 20
753.93908616188571
 11
602.93374979597672
 21
609.93908616188583
  0
LINE
  8
_0-1_計細線
  6
CONTINUOUS
 62
    3
 10
594.93374979597672
 20
609.93908616188583
 11
594.93374979597672
 21
753.93908616188571
  0
LINE
  8
_0-1_計細線
  6
CONTINUOUS
 62
    3
 10
616.93374979597684
 20
753.93908616188571
 11
616.93374979597684
 21
609.93908616188583
  0
LINE
  8
_0-1_計細線
  6
CONTINUOUS
 62
    3
 10
608.93374979597672
 20
609.93908616188583
 11
608.93374979597672
 21
753.93908616188571
  0
LINE
  8
_0-1_計細線
  6
CONTINUOUS
 62
    3
 10
630.93374979597672
 20
753.93908616188571
 11
630.93374979597672
 21
609.93908616188583
  0
LINE
  8
_0-1_計細線
  6
CONTINUOUS
 62
    3
 10
622.93374979597672
 20
609.93908616188583
 11
622.93374979597672
 21
753.93908616188571
  0
LINE
  8
_0-1_計細線
  6
CONTINUOUS
 62
    3
 10
644.93374979597672
 20
753.93908616188571
 11
644.93374979597672
 21
609.93908616188583
  0
LINE
  8
_0-1_計細線
  6
CONTINUOUS
 62
    3
 10
636.93374979597684
 20
609.93908616188583
 11
636.93374979597684
 21
753.93908616188571
  0
LINE
  8
_0-1_計細線
  6
CONTINUOUS
 62
    3
 10
658.93374979597684
 20
753.93908616188571
 11
658.93374979597684
 21
609.93908616188583
  0
LINE
  8
_0-1_計細線
  6
CONTINUOUS
 62
    3
 10
650.93374979597672
 20
609.93908616188583
 11
650.93374979597672
 21
753.93908616188571
  0
LINE
  8
_0-1_計細線
  6
CONTINUOUS
 62
    3
 10
672.93374979597672
 20
753.93908616188571
 11
672.93374979597672
 21
609.93908616188583
  0
LINE
  8
_0-1_計細線
  6
CONTINUOUS
 62
    3
 10
664.93374979597672
 20
609.93908616188583
 11
664.93374979597672
 21
753.93908616188571
  0
LINE
  8
_0-1_計細線
  6
CONTINUOUS
 62
    3
 10
686.93374979597684
 20
753.93908616188571
 11
686.93374979597684
 21
609.93908616188583
  0
LINE
  8
_0-1_計細線
  6
CONTINUOUS
 62
    3
 10
678.93374979597684
 20
609.93908616188583
 11
678.93374979597684
 21
753.93908616188571
  0
LINE
  8
_0-1_計細線
  6
CONTINUOUS
 62
    3
 10
700.93374979597672
 20
753.93908616188571
 11
700.93374979597672
 21
609.93908616188583
  0
LINE
  8
_0-1_計細線
  6
CONTINUOUS
 62
    3
 10
692.93374979597672
 20
609.93908616188583
 11
692.93374979597672
 21
753.93908616188571
  0
LINE
  8
_0-1_計細線
  6
CONTINUOUS
 62
    3
 10
714.93374979597672
 20
753.93908616188571
 11
714.93374979597672
 21
609.93908616188583
  0
LINE
  8
_0-1_計細線
  6
CONTINUOUS
 62
    3
 10
706.93374979597684
 20
609.93908616188583
 11
706.93374979597684
 21
753.93908616188571
  0
LINE
  8
_0-1_計細線
  6
CONTINUOUS
 62
    3
 10
728.93374979597684
 20
753.93908616188571
 11
728.93374979597684
 21
609.93908616188583
  0
LINE
  8
_0-1_計細線
  6
CONTINUOUS
 62
    3
 10
720.93374979597672
 20
609.93908616188583
 11
720.93374979597672
 21
753.93908616188571
  0
LINE
  8
_0-1_計細線
  6
CONTINUOUS
 62
    3
 10
742.93374979597672
 20
753.93908616188571
 11
742.93374979597672
 21
609.93908616188583
  0
LINE
  8
_0-1_計細線
  6
CONTINUOUS
 62
    3
 10
734.93374979597672
 20
609.93908616188583
 11
734.93374979597672
 21
753.93908616188571
  0
LINE
  8
_0-1_計細線
  6
CONTINUOUS
 62
    3
 10
756.93374979597684
 20
753.93908616188571
 11
756.93374979597684
 21
609.93908616188583
  0
LINE
  8
_0-1_計細線
  6
CONTINUOUS
 62
    3
 10
748.93374979597684
 20
609.93908616188583
 11
748.93374979597684
 21
753.93908616188571
  0
LINE
  8
_0-1_計細線
  6
CONTINUOUS
 62
    3
 10
770.93374979597684
 20
753.93908616188571
 11
770.93374979597684
 21
609.93908616188583
  0
LINE
  8
_0-1_計細線
  6
CONTINUOUS
 62
    3
 10
762.93374979597672
 20
609.93908616188583
 11
762.93374979597672
 21
753.93908616188571
  0
LINE
  8
_0-1_計細線
  6
CONTINUOUS
 62
    3
 10
784.93374979597672
 20
753.93908616188571
 11
784.93374979597672
 21
609.93908616188583
  0
LINE
  8
_0-1_計細線
  6
CONTINUOUS
 62
    3
 10
776.93374979597684
 20
609.93908616188583
 11
776.93374979597684
 21
753.93908616188571
  0
LINE
  8
_0-1_計細線
  6
CONTINUOUS
 62
    3
 10
798.93374979597684
 20
753.93908616188571
 11
798.93374979597684
 21
609.93908616188583
  0
LINE
  8
_0-1_計細線
  6
CONTINUOUS
 62
    3
 10
790.93374979597684
 20
609.93908616188583
 11
790.93374979597684
 21
753.93908616188571
  0
LINE
  8
_0-1_計細線
  6
CONTINUOUS
 62
    3
 10
812.93374979597672
 20
753.93908616188571
 11
812.93374979597672
 21
609.93908616188583
  0
LINE
  8
_0-1_計細線
  6
CONTINUOUS
 62
    3
 10
804.93374979597672
 20
609.93908616188583
 11
804.93374979597672
 21
753.93908616188571
  0
LINE
  8
_0-1_計細線
  6
CONTINUOUS
 62
    3
 10
826.93374979597684
 20
753.93908616188571
 11
826.93374979597684
 21
609.93908616188583
  0
LINE
  8
_0-1_計細線
  6
CONTINUOUS
 62
    3
 10
818.93374979597684
 20
609.93908616188583
 11
818.93374979597684
 21
753.93908616188571
  0
LINE
  8
_0-1_計細線
  6
CONTINUOUS
 62
    3
 10
840.93374979597684
 20
753.93908616188571
 11
840.93374979597684
 21
609.93908616188583
  0
LINE
  8
_0-1_計細線
  6
CONTINUOUS
 62
    3
 10
832.93374979597672
 20
609.93908616188583
 11
832.93374979597672
 21
753.93908616188571
  0
LINE
  8
_0-1_計細線
  6
CONTINUOUS
 62
    3
 10
854.93374979597672
 20
753.93908616188571
 11
854.93374979597672
 21
609.93908616188583
  0
LINE
  8
_0-1_計細線
  6
CONTINUOUS
 62
    3
 10
846.93374979597684
 20
609.93908616188583
 11
846.93374979597684
 21
753.93908616188571
  0
LINE
  8
_0-1_計細線
  6
CONTINUOUS
 62
    3
 10
868.93374979597684
 20
753.93908616188571
 11
868.93374979597684
 21
609.93908616188583
  0
LINE
  8
_0-1_計細線
  6
CONTINUOUS
 62
    3
 10
860.93374979597684
 20
609.93908616188583
 11
860.93374979597684
 21
753.93908616188571
  0
LINE
  8
_0-1_計細線
  6
CONTINUOUS
 62
    3
 10
882.93374979597672
 20
753.93908616188571
 11
882.93374979597672
 21
609.93908616188583
  0
LINE
  8
_0-1_計細線
  6
CONTINUOUS
 62
    3
 10
874.93374979597672
 20
609.93908616188583
 11
874.93374979597672
 21
753.93908616188571
  0
LINE
  8
_0-1_計細線
  6
CONTINUOUS
 62
    3
 10
896.93374979597684
 20
753.93908616188571
 11
896.93374979597684
 21
609.93908616188583
  0
LINE
  8
_0-1_計細線
  6
CONTINUOUS
 62
    3
 10
888.93374979597684
 20
609.93908616188583
 11
888.93374979597684
 21
753.93908616188571
  0
LINE
  8
_0-1_計細線
  6
CONTINUOUS
 62
    3
 10
910.93374979597684
 20
753.93908616188571
 11
910.93374979597684
 21
609.93908616188583
  0
LINE
  8
_0-1_計細線
  6
CONTINUOUS
 62
    3
 10
902.93374979597672
 20
609.93908616188583
 11
902.93374979597672
 21
753.93908616188571
  0
LINE
  8
_0-1_計細線
  6
CONTINUOUS
 62
    3
 10
924.93374979597672
 20
753.93908616188571
 11
924.93374979597672
 21
609.93908616188583
  0
LINE
  8
_0-1_計細線
  6
CONTINUOUS
 62
    3
 10
916.93374979597684
 20
609.93908616188583
 11
916.93374979597684
 21
753.93908616188571
  0
LINE
  8
_0-1_計細線
  6
CONTINUOUS
 62
    3
 10
938.93374979597684
 20
753.93908616188571
 11
938.93374979597684
 21
609.93908616188583
  0
LINE
  8
_0-1_計細線
  6
CONTINUOUS
 62
    3
 10
930.93374979597684
 20
609.93908616188583
 11
930.93374979597684
 21
753.93908616188571
  0
LINE
  8
_0-1_計細線
  6
CONTINUOUS
 62
    3
 10
952.93374979597672
 20
753.93908616188571
 11
952.93374979597672
 21
609.93908616188583
  0
LINE
  8
_0-1_計細線
  6
CONTINUOUS
 62
    3
 10
944.93374979597672
 20
609.93908616188583
 11
944.93374979597672
 21
753.93908616188571
  0
LINE
  8
_0-1_計細線
  6
CONTINUOUS
 62
    3
 10
966.93374979597684
 20
753.93908616188571
 11
966.93374979597684
 21
609.93908616188583
  0
LINE
  8
_0-1_計細線
  6
CONTINUOUS
 62
    3
 10
958.93374979597684
 20
609.93908616188583
 11
958.93374979597684
 21
753.93908616188571
  0
LINE
  8
_0-1_計細線
  6
CONTINUOUS
 62
    3
 10
980.93374979597684
 20
753.93908616188571
 11
980.93374979597684
 21
609.93908616188583
  0
LINE
  8
_0-1_計細線
  6
CONTINUOUS
 62
    3
 10
972.93374979597672
 20
609.93908616188583
 11
972.93374979597672
 21
753.93908616188571
  0
LINE
  8
_0-1_計細線
  6
CONTINUOUS
 62
    3
 10
994.93374979597672
 20
753.93908616188571
 11
994.93374979597672
 21
609.93908616188583
  0
LINE
  8
_0-1_計細線
  6
CONTINUOUS
 62
    3
 10
986.93374979597684
 20
609.93908616188583
 11
986.93374979597684
 21
753.93908616188571
  0
LINE
  8
_0-1_計細線
  6
CONTINUOUS
 62
    3
 10
1008.9337497959768
 20
753.93908616188571
 11
1008.9337497959768
 21
609.93908616188583
  0
LINE
  8
_0-1_計細線
  6
CONTINUOUS
 62
    3
 10
1000.9337497959768
 20
609.93908616188583
 11
1000.9337497959768
 21
753.93908616188571
  0
LINE
  8
_0-1_計細線
  6
CONTINUOUS
 62
    3
 10
1022.9337497959767
 20
753.93908616188571
 11
1022.9337497959767
 21
609.93908616188583
  0
LINE
  8
_0-1_計細線
  6
CONTINUOUS
 62
    3
 10
1014.9337497959767
 20
609.93908616188583
 11
1014.9337497959767
 21
753.93908616188571
  0
LINE
  8
_0-1_計細線
  6
CONTINUOUS
 62
    3
 10
1036.9337497959768
 20
753.93908616188571
 11
1036.9337497959768
 21
609.93908616188583
  0
LINE
  8
_0-1_計細線
  6
CONTINUOUS
 62
    3
 10
1028.9337497959768
 20
609.93908616188583
 11
1028.9337497959768
 21
753.93908616188571
  0
LINE
  8
_0-1_計細線
  6
CONTINUOUS
 62
    3
 10
1050.9337497959768
 20
753.93908616188571
 11
1050.9337497959768
 21
609.93908616188583
  0
LINE
  8
_0-1_計細線
  6
CONTINUOUS
 62
    3
 10
1042.9337497959768
 20
609.93908616188583
 11
1042.9337497959768
 21
753.93908616188571
  0
LINE
  8
_0-1_計細線
  6
CONTINUOUS
 62
    3
 10
1064.9337497959768
 20
753.93908616188571
 11
1064.9337497959768
 21
609.93908616188583
  0
LINE
  8
_0-1_計細線
  6
CONTINUOUS
 62
    3
 10
1056.9337497959768
 20
609.93908616188583
 11
1056.9337497959768
 21
753.93908616188571
  0
LINE
  8
_0-1_計細線
  6
CONTINUOUS
 62
    3
 10
1078.9337497959768
 20
753.93908616188571
 11
1078.9337497959768
 21
609.93908616188583
  0
LINE
  8
_0-1_計細線
  6
CONTINUOUS
 62
    3
 10
1070.9337497959768
 20
609.93908616188583
 11
1070.9337497959768
 21
753.93908616188571
  0
LINE
  8
_0-1_計細線
  6
CONTINUOUS
 62
    3
 10
1092.9337497959768
 20
753.93908616188571
 11
1092.9337497959768
 21
609.93908616188583
  0
LINE
  8
_0-1_計細線
  6
CONTINUOUS
 62
    3
 10
1084.9337497959768
 20
609.93908616188583
 11
1084.9337497959768
 21
753.93908616188571
  0
LINE
  8
_0-1_計細線
  6
CONTINUOUS
 62
    3
 10
1106.9337497959768
 20
753.93908616188571
 11
1106.9337497959768
 21
609.93908616188583
  0
LINE
  8
_0-1_計細線
  6
CONTINUOUS
 62
    3
 10
1098.9337497959768
 20
609.93908616188583
 11
1098.9337497959768
 21
753.93908616188571
  0
LINE
  8
_0-1_計細線
  6
CONTINUOUS
 62
    3
 10
1120.9337497959768
 20
753.93908616188571
 11
1120.9337497959768
 21
609.93908616188583
  0
LINE
  8
_0-1_計細線
  6
CONTINUOUS
 62
    3
 10
1112.9337497959768
 20
609.93908616188583
 11
1112.9337497959768
 21
753.93908616188571
  0
LINE
  8
_0-1_計細線
  6
CONTINUOUS
 62
    3
 10
1134.9337497959764
 20
753.93908616188571
 11
1134.9337497959764
 21
609.93908616188583
  0
LINE
  8
_0-1_計細線
  6
CONTINUOUS
 62
    3
 10
1126.9337497959764
 20
609.93908616188583
 11
1126.9337497959764
 21
753.93908616188571
  0
LINE
  8
_0-1_計細線
  6
CONTINUOUS
 62
    3
 10
1148.9337497959764
 20
753.93908616188571
 11
1148.9337497959764
 21
609.93908616188583
  0
LINE
  8
_0-1_計細線
  6
CONTINUOUS
 62
    3
 10
1140.9337497959764
 20
609.93908616188583
 11
1140.9337497959764
 21
753.93908616188571
  0
LINE
  8
_0-1_計細線
  6
CONTINUOUS
 62
    3
 10
1162.9337497959764
 20
753.93908616188571
 11
1162.9337497959764
 21
609.93908616188583
  0
LINE
  8
_0-1_計細線
  6
CONTINUOUS
 62
    3
 10
1154.9337497959764
 20
609.93908616188583
 11
1154.9337497959764
 21
753.93908616188571
  0
LINE
  8
_0-1_計細線
  6
CONTINUOUS
 62
    3
 10
1176.9337497959764
 20
753.93908616188571
 11
1176.9337497959764
 21
609.93908616188583
  0
LINE
  8
_0-1_計細線
  6
CONTINUOUS
 62
    3
 10
1168.9337497959764
 20
609.93908616188583
 11
1168.9337497959764
 21
753.93908616188571
  0
LINE
  8
_0-1_計細線
  6
CONTINUOUS
 62
    3
 10
1190.9337497959764
 20
753.93908616188571
 11
1190.9337497959764
 21
609.93908616188583
  0
LINE
  8
_0-1_計細線
  6
CONTINUOUS
 62
    3
 10
1182.9337497959764
 20
609.93908616188583
 11
1182.9337497959764
 21
753.93908616188571
  0
LINE
  8
_0-1_計細線
  6
CONTINUOUS
 62
    3
 10
1204.9337497959764
 20
753.93908616188571
 11
1204.9337497959764
 21
609.93908616188583
  0
LINE
  8
_0-1_計細線
  6
CONTINUOUS
 62
    3
 10
1196.9337497959764
 20
609.93908616188583
 11
1196.9337497959764
 21
753.93908616188571
  0
LINE
  8
_0-1_計細線
  6
CONTINUOUS
 62
    3
 10
1218.9337497959764
 20
753.93908616188571
 11
1218.9337497959764
 21
609.93908616188583
  0
LINE
  8
_0-1_計細線
  6
CONTINUOUS
 62
    3
 10
1210.9337497959764
 20
609.93908616188583
 11
1210.9337497959764
 21
753.93908616188571
  0
LINE
  8
_0-1_計細線
  6
CONTINUOUS
 62
    3
 10
230.93374979597669
 20
631.93908616188571
 11
200.93374979597669
 21
631.93908616188571
  0
LINE
  8
_0-1_計細線
  6
CONTINUOUS
 62
    3
 10
1248.9337497959764
 20
631.93908616188571
 11
1218.9337497959764
 21
631.93908616188571
  0
LINE
  8
_0-1_計細線
  6
CONTINUOUS
 62
    3
 10
202.32086691973507
 20
604.93908616188708
 11
1250.3208669197356
 21
604.93908616188583
  0
LINE
  8
_0-1_計細線
  6
CONTINUOUS
 62
    3
 10
200.93374979597669
 20
601.93908616188708
 11
1248.9337497959764
 21
601.93908616188571
  0
ARC
  8
_0-1_計細線
  6
CONTINUOUS
 62
    3
 10
188.65075454584812
 20
609.43908616188571
 40
14.391732776655759
 50
328.59175045525654
 51
31.408249544743221
  0
ARC
  8
_0-1_計細線
  6
CONTINUOUS
 62
    3
 10
213.21674504610399
 20
624.43908616188571
 40
14.391732776655743
 50
148.59175045525842
 51
211.40824954474076
  0
ARC
  8
_0-1_計細線
  6
CONTINUOUS
 62
    3
 10
1236.6507545458485
 20
609.43908616188571
 40
14.391732776655772
 50
328.59175045525654
 51
31.408249544741235
  0
ARC
  8
_0-1_計細線
  6
CONTINUOUS
 62
    3
 10
1261.2167450461043
 20
624.43908616188571
 40
14.391732776655658
 50
148.59175045525842
 51
211.40824954474121
  0
LINE
  8
_0-1_計細線
  6
CONTINUOUS
 62
    3
 10
238.93374979597672
 20
609.93908616188583
 11
230.93374979597669
 21
609.93908616188583
  0
LINE
  8
_0-1_計細線
  6
CONTINUOUS
 62
    3
 10
252.93374979597672
 20
609.93908616188583
 11
244.93374979597675
 21
609.93908616188583
  0
LINE
  8
_0-1_計細線
  6
CONTINUOUS
 62
    3
 10
266.93374979597678
 20
609.93908616188583
 11
258.93374979597672
 21
609.93908616188583
  0
LINE
  8
_0-1_計細線
  6
CONTINUOUS
 62
    3
 10
280.93374979597672
 20
609.93908616188583
 11
272.93374979597672
 21
609.93908616188583
  0
LINE
  8
_0-1_計細線
  6
CONTINUOUS
 62
    3
 10
294.93374979597672
 20
609.93908616188583
 11
286.93374979597678
 21
609.93908616188583
  0
LINE
  8
_0-1_計細線
  6
CONTINUOUS
 62
    3
 10
308.93374979597672
 20
609.93908616188583
 11
300.93374979597672
 21
609.93908616188583
  0
LINE
  8
_0-1_計細線
  6
CONTINUOUS
 62
    3
 10
322.93374979597672
 20
609.93908616188583
 11
314.93374979597672
 21
609.93908616188583
  0
LINE
  8
_0-1_計細線
  6
CONTINUOUS
 62
    3
 10
336.93374979597672
 20
609.93908616188583
 11
328.93374979597672
 21
609.93908616188583
  0
LINE
  8
_0-1_計細線
  6
CONTINUOUS
 62
    3
 10
350.93374979597678
 20
609.93908616188583
 11
342.93374979597672
 21
609.93908616188583
  0
LINE
  8
_0-1_計細線
  6
CONTINUOUS
 62
    3
 10
364.93374979597672
 20
609.93908616188583
 11
356.93374979597672
 21
609.93908616188583
  0
LINE
  8
_0-1_計細線
  6
CONTINUOUS
 62
    3
 10
378.93374979597672
 20
609.93908616188583
 11
370.93374979597678
 21
609.93908616188583
  0
LINE
  8
_0-1_計細線
  6
CONTINUOUS
 62
    3
 10
392.93374979597672
 20
609.93908616188583
 11
384.93374979597672
 21
609.93908616188583
  0
LINE
  8
_0-1_計細線
  6
CONTINUOUS
 62
    3
 10
406.93374979597678
 20
609.93908616188583
 11
398.93374979597672
 21
609.93908616188583
  0
LINE
  8
_0-1_計細線
  6
CONTINUOUS
 62
    3
 10
420.93374979597678
 20
609.93908616188583
 11
412.93374979597672
 21
609.93908616188583
  0
LINE
  8
_0-1_計細線
  6
CONTINUOUS
 62
    3
 10
434.93374979597672
 20
609.93908616188583
 11
426.93374979597678
 21
609.93908616188583
  0
LINE
  8
_0-1_計細線
  6
CONTINUOUS
 62
    3
 10
448.93374979597672
 20
609.93908616188583
 11
440.93374979597678
 21
609.93908616188583
  0
LINE
  8
_0-1_計細線
  6
CONTINUOUS
 62
    3
 10
462.93374979597672
 20
609.93908616188583
 11
454.93374979597672
 21
609.93908616188583
  0
LINE
  8
_0-1_計細線
  6
CONTINUOUS
 62
    3
 10
476.93374979597678
 20
609.93908616188583
 11
468.93374979597672
 21
609.93908616188583
  0
LINE
  8
_0-1_計細線
  6
CONTINUOUS
 62
    3
 10
490.93374979597678
 20
609.93908616188583
 11
482.93374979597672
 21
609.93908616188583
  0
LINE
  8
_0-1_計細線
  6
CONTINUOUS
 62
    3
 10
504.93374979597672
 20
609.93908616188583
 11
496.93374979597678
 21
609.93908616188583
  0
LINE
  8
_0-1_計細線
  6
CONTINUOUS
 62
    3
 10
518.93374979597672
 20
609.93908616188583
 11
510.93374979597678
 21
609.93908616188583
  0
LINE
  8
_0-1_計細線
  6
CONTINUOUS
 62
    3
 10
532.93374979597672
 20
609.93908616188583
 11
524.93374979597672
 21
609.93908616188583
  0
LINE
  8
_0-1_計細線
  6
CONTINUOUS
 62
    3
 10
546.93374979597684
 20
609.93908616188583
 11
538.93374979597672
 21
609.93908616188583
  0
LINE
  8
_0-1_計細線
  6
CONTINUOUS
 62
    3
 10
560.93374979597672
 20
609.93908616188583
 11
552.93374979597672
 21
609.93908616188583
  0
LINE
  8
_0-1_計細線
  6
CONTINUOUS
 62
    3
 10
574.93374979597672
 20
609.93908616188583
 11
566.93374979597684
 21
609.93908616188583
  0
LINE
  8
_0-1_計細線
  6
CONTINUOUS
 62
    3
 10
588.93374979597672
 20
609.93908616188583
 11
580.93374979597672
 21
609.93908616188583
  0
LINE
  8
_0-1_計細線
  6
CONTINUOUS
 62
    3
 10
602.93374979597672
 20
609.93908616188583
 11
594.93374979597672
 21
609.93908616188583
  0
LINE
  8
_0-1_計細線
  6
CONTINUOUS
 62
    3
 10
616.93374979597684
 20
609.93908616188583
 11
608.93374979597672
 21
609.93908616188583
  0
LINE
  8
_0-1_計細線
  6
CONTINUOUS
 62
    3
 10
630.93374979597672
 20
609.93908616188583
 11
622.93374979597672
 21
609.93908616188583
  0
LINE
  8
_0-1_計細線
  6
CONTINUOUS
 62
    3
 10
644.93374979597672
 20
609.93908616188583
 11
636.93374979597684
 21
609.93908616188583
  0
LINE
  8
_0-1_計細線
  6
CONTINUOUS
 62
    3
 10
658.93374979597684
 20
609.93908616188583
 11
650.93374979597672
 21
609.93908616188583
  0
LINE
  8
_0-1_計細線
  6
CONTINUOUS
 62
    3
 10
672.93374979597672
 20
609.93908616188583
 11
664.93374979597672
 21
609.93908616188583
  0
LINE
  8
_0-1_計細線
  6
CONTINUOUS
 62
    3
 10
686.93374979597684
 20
609.93908616188583
 11
678.93374979597684
 21
609.93908616188583
  0
LINE
  8
_0-1_計細線
  6
CONTINUOUS
 62
    3
 10
700.93374979597672
 20
609.93908616188583
 11
692.93374979597672
 21
609.93908616188583
  0
LINE
  8
_0-1_計細線
  6
CONTINUOUS
 62
    3
 10
714.93374979597672
 20
609.93908616188583
 11
706.93374979597684
 21
609.93908616188583
  0
LINE
  8
_0-1_計細線
  6
CONTINUOUS
 62
    3
 10
728.93374979597684
 20
609.93908616188583
 11
720.93374979597672
 21
609.93908616188583
  0
LINE
  8
_0-1_計細線
  6
CONTINUOUS
 62
    3
 10
742.93374979597672
 20
609.93908616188583
 11
734.93374979597672
 21
609.93908616188583
  0
LINE
  8
_0-1_計細線
  6
CONTINUOUS
 62
    3
 10
756.93374979597684
 20
609.93908616188583
 11
748.93374979597684
 21
609.93908616188583
  0
LINE
  8
_0-1_計細線
  6
CONTINUOUS
 62
    3
 10
770.93374979597684
 20
609.93908616188583
 11
762.93374979597672
 21
609.93908616188583
  0
LINE
  8
_0-1_計細線
  6
CONTINUOUS
 62
    3
 10
784.93374979597672
 20
609.93908616188583
 11
776.93374979597684
 21
609.93908616188583
  0
LINE
  8
_0-1_計細線
  6
CONTINUOUS
 62
    3
 10
798.93374979597684
 20
609.93908616188583
 11
790.93374979597684
 21
609.93908616188583
  0
LINE
  8
_0-1_計細線
  6
CONTINUOUS
 62
    3
 10
812.93374979597672
 20
609.93908616188583
 11
804.93374979597672
 21
609.93908616188583
  0
LINE
  8
_0-1_計細線
  6
CONTINUOUS
 62
    3
 10
826.93374979597684
 20
609.93908616188583
 11
818.93374979597684
 21
609.93908616188583
  0
LINE
  8
_0-1_計細線
  6
CONTINUOUS
 62
    3
 10
840.93374979597684
 20
609.93908616188583
 11
832.93374979597672
 21
609.93908616188583
  0
LINE
  8
_0-1_計細線
  6
CONTINUOUS
 62
    3
 10
854.93374979597672
 20
609.93908616188583
 11
846.93374979597684
 21
609.93908616188583
  0
LINE
  8
_0-1_計細線
  6
CONTINUOUS
 62
    3
 10
868.93374979597684
 20
609.93908616188583
 11
860.93374979597684
 21
609.93908616188583
  0
LINE
  8
_0-1_計細線
  6
CONTINUOUS
 62
    3
 10
882.93374979597672
 20
609.93908616188583
 11
874.93374979597672
 21
609.93908616188583
  0
LINE
  8
_0-1_計細線
  6
CONTINUOUS
 62
    3
 10
896.93374979597684
 20
609.93908616188583
 11
888.93374979597684
 21
609.93908616188583
  0
LINE
  8
_0-1_計細線
  6
CONTINUOUS
 62
    3
 10
910.93374979597684
 20
609.93908616188583
 11
902.93374979597672
 21
609.93908616188583
  0
LINE
  8
_0-1_計細線
  6
CONTINUOUS
 62
    3
 10
924.93374979597672
 20
609.93908616188583
 11
916.93374979597684
 21
609.93908616188583
  0
LINE
  8
_0-1_計細線
  6
CONTINUOUS
 62
    3
 10
938.93374979597684
 20
609.93908616188583
 11
930.93374979597684
 21
609.93908616188583
  0
LINE
  8
_0-1_計細線
  6
CONTINUOUS
 62
    3
 10
952.93374979597672
 20
609.93908616188583
 11
944.93374979597672
 21
609.93908616188583
  0
LINE
  8
_0-1_計細線
  6
CONTINUOUS
 62
    3
 10
966.93374979597684
 20
609.93908616188583
 11
958.93374979597684
 21
609.93908616188583
  0
LINE
  8
_0-1_計細線
  6
CONTINUOUS
 62
    3
 10
980.93374979597684
 20
609.93908616188583
 11
972.93374979597672
 21
609.93908616188583
  0
LINE
  8
_0-1_計細線
  6
CONTINUOUS
 62
    3
 10
994.93374979597672
 20
609.93908616188583
 11
986.93374979597684
 21
609.93908616188583
  0
LINE
  8
_0-1_計細線
  6
CONTINUOUS
 62
    3
 10
1008.9337497959768
 20
609.93908616188583
 11
1000.9337497959768
 21
609.93908616188583
  0
LINE
  8
_0-1_計細線
  6
CONTINUOUS
 62
    3
 10
1022.9337497959767
 20
609.93908616188583
 11
1014.9337497959767
 21
609.93908616188583
  0
LINE
  8
_0-1_計細線
  6
CONTINUOUS
 62
    3
 10
1036.9337497959768
 20
609.93908616188583
 11
1028.9337497959768
 21
609.93908616188583
  0
LINE
  8
_0-1_計細線
  6
CONTINUOUS
 62
    3
 10
1050.9337497959768
 20
609.93908616188583
 11
1042.9337497959768
 21
609.93908616188583
  0
LINE
  8
_0-1_計細線
  6
CONTINUOUS
 62
    3
 10
1064.9337497959768
 20
609.93908616188583
 11
1056.9337497959768
 21
609.93908616188583
  0
LINE
  8
_0-1_計細線
  6
CONTINUOUS
 62
    3
 10
1078.9337497959768
 20
609.93908616188583
 11
1070.9337497959768
 21
609.93908616188583
  0
LINE
  8
_0-1_計細線
  6
CONTINUOUS
 62
    3
 10
1092.9337497959768
 20
609.93908616188583
 11
1084.9337497959768
 21
609.93908616188583
  0
LINE
  8
_0-1_計細線
  6
CONTINUOUS
 62
    3
 10
1106.9337497959768
 20
609.93908616188583
 11
1098.9337497959768
 21
609.93908616188583
  0
LINE
  8
_0-1_計細線
  6
CONTINUOUS
 62
    3
 10
1120.9337497959768
 20
609.93908616188583
 11
1112.9337497959768
 21
609.93908616188583
  0
LINE
  8
_0-1_計細線
  6
CONTINUOUS
 62
    3
 10
1134.9337497959764
 20
609.93908616188583
 11
1126.9337497959764
 21
609.93908616188583
  0
LINE
  8
_0-1_計細線
  6
CONTINUOUS
 62
    3
 10
1148.9337497959764
 20
609.93908616188583
 11
1140.9337497959764
 21
609.93908616188583
  0
LINE
  8
_0-1_計細線
  6
CONTINUOUS
 62
    3
 10
1162.9337497959764
 20
609.93908616188583
 11
1154.9337497959764
 21
609.93908616188583
  0
LINE
  8
_0-1_計細線
  6
CONTINUOUS
 62
    3
 10
1176.9337497959764
 20
609.93908616188583
 11
1168.9337497959764
 21
609.93908616188583
  0
LINE
  8
_0-1_計細線
  6
CONTINUOUS
 62
    3
 10
1190.9337497959764
 20
609.93908616188583
 11
1182.9337497959764
 21
609.93908616188583
  0
LINE
  8
_0-1_計細線
  6
CONTINUOUS
 62
    3
 10
1204.9337497959764
 20
609.93908616188583
 11
1196.9337497959764
 21
609.93908616188583
  0
LINE
  8
_0-1_計細線
  6
CONTINUOUS
 62
    3
 10
1218.9337497959764
 20
609.93908616188583
 11
1210.9337497959764
 21
609.93908616188583
  0
LINE
  8
_0-1_計細線
  6
CONTINUOUS
 62
    3
 10
1218.9337497959764
 20
606.93908616188571
 11
1218.9337497959764
 21
609.93908616188583
  0
LINE
  8
_0-1_計細線
  6
CONTINUOUS
 62
    3
 10
230.93374979597669
 20
606.93908616188571
 11
1218.9337497959764
 21
606.93908616188571
  0
LINE
  8
_0-1_計細線
  6
CONTINUOUS
 62
    3
 10
230.93374979597669
 20
609.93908616188583
 11
230.93374979597669
 21
606.93908616188571
  0
LINE
  8
_0-1_計細線
  6
CONTINUOUS
 62
    3
 10
1218.9337497959764
 20
609.93908616188583
 11
230.93374979597669
 21
609.93908616188583
  0
LINE
  8
_0-1_計細線
  6
CONTINUOUS
 62
    3
 10
230.93374979597669
 20
731.93908616188435
 11
200.93374979597669
 21
731.93908616188435
  0
LINE
  8
_0-1_計細線
  6
CONTINUOUS
 62
    3
 10
1248.9337497959764
 20
731.93908616188355
 11
1218.9337497959764
 21
731.93908616188355
  0
LINE
  8
_0-1_計細線
  6
CONTINUOUS
 62
    3
 10
199.54663267221889
 20
758.93908616188673
 11
1247.546632672218
 21
758.93908616188571
  0
LINE
  8
_0-1_計細線
  6
CONTINUOUS
 62
    3
 10
200.93374979597669
 20
761.93908616188662
 11
1248.9337497959764
 21
761.93908616188583
  0
ARC
  8
_0-1_計細線
  6
CONTINUOUS
 62
    3
 10
188.65075454584769
 20
739.4390861618848
 40
14.391732776656191
 50
328.59175045525751
 51
31.408249544743832
  0
ARC
  8
_0-1_計細線
  6
CONTINUOUS
 62
    3
 10
213.21674504610399
 20
754.43908616188526
 40
14.391732776655743
 50
148.59175045525689
 51
211.40824954473919
  0
ARC
  8
_0-1_計細線
  6
CONTINUOUS
 62
    3
 10
1236.650754545848
 20
739.4390861618848
 40
14.391732776656227
 50
328.59175045525899
 51
31.408249544743374
  0
ARC
  8
_0-1_計細線
  6
CONTINUOUS
 62
    3
 10
1261.2167450461043
 20
754.43908616188583
 40
14.391732776655658
 50
148.59175045525842
 51
211.40824954474121
  0
LINE
  8
_0-1_計細線
  6
CONTINUOUS
 62
    3
 10
230.93374979597669
 20
753.93908616188571
 11
238.93374979597672
 21
753.93908616188571
  0
LINE
  8
_0-1_計細線
  6
CONTINUOUS
 62
    3
 10
244.93374979597675
 20
753.93908616188571
 11
252.93374979597672
 21
753.93908616188571
  0
LINE
  8
_0-1_計細線
  6
CONTINUOUS
 62
    3
 10
258.93374979597672
 20
753.93908616188571
 11
266.93374979597678
 21
753.93908616188571
  0
LINE
  8
_0-1_計細線
  6
CONTINUOUS
 62
    3
 10
272.93374979597672
 20
753.93908616188571
 11
280.93374979597672
 21
753.93908616188571
  0
LINE
  8
_0-1_計細線
  6
CONTINUOUS
 62
    3
 10
286.93374979597678
 20
753.93908616188571
 11
294.93374979597672
 21
753.93908616188571
  0
LINE
  8
_0-1_計細線
  6
CONTINUOUS
 62
    3
 10
300.93374979597672
 20
753.93908616188571
 11
308.93374979597672
 21
753.93908616188571
  0
LINE
  8
_0-1_計細線
  6
CONTINUOUS
 62
    3
 10
314.93374979597672
 20
753.93908616188571
 11
322.93374979597672
 21
753.93908616188571
  0
LINE
  8
_0-1_計細線
  6
CONTINUOUS
 62
    3
 10
328.93374979597672
 20
753.93908616188571
 11
336.93374979597672
 21
753.93908616188571
  0
LINE
  8
_0-1_計細線
  6
CONTINUOUS
 62
    3
 10
342.93374979597672
 20
753.93908616188571
 11
350.93374979597678
 21
753.93908616188571
  0
LINE
  8
_0-1_計細線
  6
CONTINUOUS
 62
    3
 10
356.93374979597672
 20
753.93908616188571
 11
364.93374979597672
 21
753.93908616188571
  0
LINE
  8
_0-1_計細線
  6
CONTINUOUS
 62
    3
 10
370.93374979597678
 20
753.93908616188571
 11
378.93374979597672
 21
753.93908616188571
  0
LINE
  8
_0-1_計細線
  6
CONTINUOUS
 62
    3
 10
384.93374979597672
 20
753.93908616188571
 11
392.93374979597672
 21
753.93908616188571
  0
LINE
  8
_0-1_計細線
  6
CONTINUOUS
 62
    3
 10
398.93374979597672
 20
753.93908616188571
 11
406.93374979597678
 21
753.93908616188571
  0
LINE
  8
_0-1_計細線
  6
CONTINUOUS
 62
    3
 10
412.93374979597672
 20
753.93908616188571
 11
420.93374979597678
 21
753.93908616188571
  0
LINE
  8
_0-1_計細線
  6
CONTINUOUS
 62
    3
 10
426.93374979597678
 20
753.93908616188571
 11
434.93374979597672
 21
753.93908616188571
  0
LINE
  8
_0-1_計細線
  6
CONTINUOUS
 62
    3
 10
440.93374979597678
 20
753.93908616188571
 11
448.93374979597672
 21
753.93908616188571
  0
LINE
  8
_0-1_計細線
  6
CONTINUOUS
 62
    3
 10
454.93374979597672
 20
753.93908616188571
 11
462.93374979597672
 21
753.93908616188571
  0
LINE
  8
_0-1_計細線
  6
CONTINUOUS
 62
    3
 10
468.93374979597672
 20
753.93908616188571
 11
476.93374979597678
 21
753.93908616188571
  0
LINE
  8
_0-1_計細線
  6
CONTINUOUS
 62
    3
 10
482.93374979597672
 20
753.93908616188571
 11
490.93374979597678
 21
753.93908616188571
  0
LINE
  8
_0-1_計細線
  6
CONTINUOUS
 62
    3
 10
496.93374979597678
 20
753.93908616188571
 11
504.93374979597672
 21
753.93908616188571
  0
LINE
  8
_0-1_計細線
  6
CONTINUOUS
 62
    3
 10
510.93374979597678
 20
753.93908616188571
 11
518.93374979597672
 21
753.93908616188571
  0
LINE
  8
_0-1_計細線
  6
CONTINUOUS
 62
    3
 10
524.93374979597672
 20
753.93908616188571
 11
532.93374979597672
 21
753.93908616188571
  0
LINE
  8
_0-1_計細線
  6
CONTINUOUS
 62
    3
 10
538.93374979597672
 20
753.93908616188571
 11
546.93374979597684
 21
753.93908616188571
  0
LINE
  8
_0-1_計細線
  6
CONTINUOUS
 62
    3
 10
552.93374979597672
 20
753.93908616188571
 11
560.93374979597672
 21
753.93908616188571
  0
LINE
  8
_0-1_計細線
  6
CONTINUOUS
 62
    3
 10
566.93374979597684
 20
753.93908616188571
 11
574.93374979597672
 21
753.93908616188571
  0
LINE
  8
_0-1_計細線
  6
CONTINUOUS
 62
    3
 10
580.93374979597672
 20
753.93908616188571
 11
588.93374979597672
 21
753.93908616188571
  0
LINE
  8
_0-1_計細線
  6
CONTINUOUS
 62
    3
 10
594.93374979597672
 20
753.93908616188571
 11
602.93374979597672
 21
753.93908616188571
  0
LINE
  8
_0-1_計細線
  6
CONTINUOUS
 62
    3
 10
608.93374979597672
 20
753.93908616188571
 11
616.93374979597684
 21
753.93908616188571
  0
LINE
  8
_0-1_計細線
  6
CONTINUOUS
 62
    3
 10
622.93374979597672
 20
753.93908616188571
 11
630.93374979597672
 21
753.93908616188571
  0
LINE
  8
_0-1_計細線
  6
CONTINUOUS
 62
    3
 10
636.93374979597684
 20
753.93908616188571
 11
644.93374979597672
 21
753.93908616188571
  0
LINE
  8
_0-1_計細線
  6
CONTINUOUS
 62
    3
 10
650.93374979597672
 20
753.93908616188571
 11
658.93374979597684
 21
753.93908616188571
  0
LINE
  8
_0-1_計細線
  6
CONTINUOUS
 62
    3
 10
664.93374979597672
 20
753.93908616188571
 11
672.93374979597672
 21
753.93908616188571
  0
LINE
  8
_0-1_計細線
  6
CONTINUOUS
 62
    3
 10
678.93374979597684
 20
753.93908616188571
 11
686.93374979597684
 21
753.93908616188571
  0
LINE
  8
_0-1_計細線
  6
CONTINUOUS
 62
    3
 10
692.93374979597672
 20
753.93908616188571
 11
700.93374979597672
 21
753.93908616188571
  0
LINE
  8
_0-1_計細線
  6
CONTINUOUS
 62
    3
 10
706.93374979597684
 20
753.93908616188571
 11
714.93374979597672
 21
753.93908616188571
  0
LINE
  8
_0-1_計細線
  6
CONTINUOUS
 62
    3
 10
720.93374979597672
 20
753.93908616188571
 11
728.93374979597684
 21
753.93908616188571
  0
LINE
  8
_0-1_計細線
  6
CONTINUOUS
 62
    3
 10
734.93374979597672
 20
753.93908616188571
 11
742.93374979597672
 21
753.93908616188571
  0
LINE
  8
_0-1_計細線
  6
CONTINUOUS
 62
    3
 10
748.93374979597684
 20
753.93908616188571
 11
756.93374979597684
 21
753.93908616188571
  0
LINE
  8
_0-1_計細線
  6
CONTINUOUS
 62
    3
 10
762.93374979597672
 20
753.93908616188571
 11
770.93374979597684
 21
753.93908616188571
  0
LINE
  8
_0-1_計細線
  6
CONTINUOUS
 62
    3
 10
776.93374979597684
 20
753.93908616188571
 11
784.93374979597672
 21
753.93908616188571
  0
LINE
  8
_0-1_計細線
  6
CONTINUOUS
 62
    3
 10
790.93374979597684
 20
753.93908616188571
 11
798.93374979597684
 21
753.93908616188571
  0
LINE
  8
_0-1_計細線
  6
CONTINUOUS
 62
    3
 10
804.93374979597672
 20
753.93908616188571
 11
812.93374979597672
 21
753.93908616188571
  0
LINE
  8
_0-1_計細線
  6
CONTINUOUS
 62
    3
 10
818.93374979597684
 20
753.93908616188571
 11
826.93374979597684
 21
753.93908616188571
  0
LINE
  8
_0-1_計細線
  6
CONTINUOUS
 62
    3
 10
832.93374979597672
 20
753.93908616188571
 11
840.93374979597684
 21
753.93908616188571
  0
LINE
  8
_0-1_計細線
  6
CONTINUOUS
 62
    3
 10
846.93374979597684
 20
753.93908616188571
 11
854.93374979597672
 21
753.93908616188571
  0
LINE
  8
_0-1_計細線
  6
CONTINUOUS
 62
    3
 10
860.93374979597684
 20
753.93908616188571
 11
868.93374979597684
 21
753.93908616188571
  0
LINE
  8
_0-1_計細線
  6
CONTINUOUS
 62
    3
 10
874.93374979597672
 20
753.93908616188571
 11
882.93374979597672
 21
753.93908616188571
  0
LINE
  8
_0-1_計細線
  6
CONTINUOUS
 62
    3
 10
888.93374979597684
 20
753.93908616188571
 11
896.93374979597684
 21
753.93908616188571
  0
LINE
  8
_0-1_計細線
  6
CONTINUOUS
 62
    3
 10
902.93374979597672
 20
753.93908616188571
 11
910.93374979597684
 21
753.93908616188571
  0
LINE
  8
_0-1_計細線
  6
CONTINUOUS
 62
    3
 10
916.93374979597684
 20
753.93908616188571
 11
924.93374979597672
 21
753.93908616188571
  0
LINE
  8
_0-1_計細線
  6
CONTINUOUS
 62
    3
 10
930.93374979597684
 20
753.93908616188571
 11
938.93374979597684
 21
753.93908616188571
  0
LINE
  8
_0-1_計細線
  6
CONTINUOUS
 62
    3
 10
944.93374979597672
 20
753.93908616188571
 11
952.93374979597672
 21
753.93908616188571
  0
LINE
  8
_0-1_計細線
  6
CONTINUOUS
 62
    3
 10
958.93374979597684
 20
753.93908616188571
 11
966.93374979597684
 21
753.93908616188571
  0
LINE
  8
_0-1_計細線
  6
CONTINUOUS
 62
    3
 10
972.93374979597672
 20
753.93908616188571
 11
980.93374979597684
 21
753.93908616188571
  0
LINE
  8
_0-1_計細線
  6
CONTINUOUS
 62
    3
 10
986.93374979597684
 20
753.93908616188571
 11
994.93374979597672
 21
753.93908616188571
  0
LINE
  8
_0-1_計細線
  6
CONTINUOUS
 62
    3
 10
1000.9337497959768
 20
753.93908616188571
 11
1008.9337497959768
 21
753.93908616188571
  0
LINE
  8
_0-1_計細線
  6
CONTINUOUS
 62
    3
 10
1014.9337497959767
 20
753.93908616188571
 11
1022.9337497959767
 21
753.93908616188571
  0
LINE
  8
_0-1_計細線
  6
CONTINUOUS
 62
    3
 10
1028.9337497959768
 20
753.93908616188571
 11
1036.9337497959768
 21
753.93908616188571
  0
LINE
  8
_0-1_計細線
  6
CONTINUOUS
 62
    3
 10
1042.9337497959768
 20
753.93908616188571
 11
1050.9337497959768
 21
753.93908616188571
  0
LINE
  8
_0-1_計細線
  6
CONTINUOUS
 62
    3
 10
1056.9337497959768
 20
753.93908616188571
 11
1064.9337497959768
 21
753.93908616188571
  0
LINE
  8
_0-1_計細線
  6
CONTINUOUS
 62
    3
 10
1070.9337497959768
 20
753.93908616188571
 11
1078.9337497959768
 21
753.93908616188571
  0
LINE
  8
_0-1_計細線
  6
CONTINUOUS
 62
    3
 10
1084.9337497959768
 20
753.93908616188571
 11
1092.9337497959768
 21
753.93908616188571
  0
LINE
  8
_0-1_計細線
  6
CONTINUOUS
 62
    3
 10
1098.9337497959768
 20
753.93908616188571
 11
1106.9337497959768
 21
753.93908616188571
  0
LINE
  8
_0-1_計細線
  6
CONTINUOUS
 62
    3
 10
1112.9337497959768
 20
753.93908616188571
 11
1120.9337497959768
 21
753.93908616188571
  0
LINE
  8
_0-1_計細線
  6
CONTINUOUS
 62
    3
 10
1126.9337497959764
 20
753.93908616188571
 11
1134.9337497959764
 21
753.93908616188571
  0
LINE
  8
_0-1_計細線
  6
CONTINUOUS
 62
    3
 10
1140.9337497959764
 20
753.93908616188571
 11
1148.9337497959764
 21
753.93908616188571
  0
LINE
  8
_0-1_計細線
  6
CONTINUOUS
 62
    3
 10
1154.9337497959764
 20
753.93908616188571
 11
1162.9337497959764
 21
753.93908616188571
  0
LINE
  8
_0-1_計細線
  6
CONTINUOUS
 62
    3
 10
1168.9337497959764
 20
753.93908616188571
 11
1176.9337497959764
 21
753.93908616188571
  0
LINE
  8
_0-1_計細線
  6
CONTINUOUS
 62
    3
 10
1182.9337497959764
 20
753.93908616188571
 11
1190.9337497959764
 21
753.93908616188571
  0
LINE
  8
_0-1_計細線
  6
CONTINUOUS
 62
    3
 10
1196.9337497959764
 20
753.93908616188571
 11
1204.9337497959764
 21
753.93908616188571
  0
LINE
  8
_0-1_計細線
  6
CONTINUOUS
 62
    3
 10
1210.9337497959764
 20
753.93908616188571
 11
1218.9337497959764
 21
753.93908616188571
  0
LINE
  8
_0-1_計細線
  6
CONTINUOUS
 62
    3
 10
1218.9337497959764
 20
753.93908616188571
 11
1218.9337497959764
 21
756.93908616188583
  0
LINE
  8
_0-1_計細線
  6
CONTINUOUS
 62
    3
 10
230.93374979597669
 20
753.93908616188571
 11
1218.9337497959764
 21
753.93908616188571
  0
LINE
  8
_0-1_計細線
  6
CONTINUOUS
 62
    3
 10
230.93374979597669
 20
756.93908616188583
 11
230.93374979597669
 21
753.93908616188571
  0
LINE
  8
_0-1_計細線
  6
CONTINUOUS
 62
    3
 10
1218.9337497959764
 20
756.93908616188583
 11
230.93374979597669
 21
756.93908616188583
  0
LINE
  8
_0-0_計極細
  6
CONTINUOUS
 62
    2
 10
1210.9337497959764
 20
734.43908616188583
 11
1204.9337497959764
 21
734.43908616188583
  0
LINE
  8
_0-0_計極細
  6
CONTINUOUS
 62
    2
 10
1210.9337497959764
 20
729.43908616188435
 11
1204.9337497959764
 21
729.43908616188435
  0
LINE
  8
_0-0_計極細
  6
CONTINUOUS
 62
    2
 10
1196.9337497959764
 20
734.43908616188583
 11
1190.9337497959764
 21
734.43908616188583
  0
LINE
  8
_0-0_計極細
  6
CONTINUOUS
 62
    2
 10
1196.9337497959764
 20
729.43908616188435
 11
1190.9337497959764
 21
729.43908616188435
  0
LINE
  8
_0-0_計極細
  6
CONTINUOUS
 62
    2
 10
1182.9337497959764
 20
734.43908616188583
 11
1176.9337497959764
 21
734.43908616188583
  0
LINE
  8
_0-0_計極細
  6
CONTINUOUS
 62
    2
 10
1182.9337497959764
 20
729.43908616188435
 11
1176.9337497959764
 21
729.43908616188435
  0
LINE
  8
_0-0_計極細
  6
CONTINUOUS
 62
    2
 10
1168.9337497959764
 20
734.43908616188583
 11
1162.9337497959764
 21
734.43908616188583
  0
LINE
  8
_0-0_計極細
  6
CONTINUOUS
 62
    2
 10
1168.9337497959764
 20
729.43908616188435
 11
1162.9337497959764
 21
729.43908616188435
  0
LINE
  8
_0-0_計極細
  6
CONTINUOUS
 62
    2
 10
1154.9337497959764
 20
734.43908616188583
 11
1148.9337497959764
 21
734.43908616188583
  0
LINE
  8
_0-0_計極細
  6
CONTINUOUS
 62
    2
 10
1154.9337497959764
 20
729.43908616188435
 11
1148.9337497959764
 21
729.43908616188435
  0
LINE
  8
_0-0_計極細
  6
CONTINUOUS
 62
    2
 10
1140.9337497959764
 20
734.43908616188583
 11
1134.9337497959764
 21
734.43908616188583
  0
LINE
  8
_0-0_計極細
  6
CONTINUOUS
 62
    2
 10
1140.9337497959764
 20
729.43908616188435
 11
1134.9337497959764
 21
729.43908616188435
  0
LINE
  8
_0-0_計極細
  6
CONTINUOUS
 62
    2
 10
1126.9337497959764
 20
734.43908616188583
 11
1120.9337497959768
 21
734.43908616188583
  0
LINE
  8
_0-0_計極細
  6
CONTINUOUS
 62
    2
 10
1126.9337497959764
 20
729.43908616188435
 11
1120.9337497959768
 21
729.43908616188435
  0
LINE
  8
_0-0_計極細
  6
CONTINUOUS
 62
    2
 10
1112.9337497959768
 20
734.43908616188583
 11
1106.9337497959768
 21
734.43908616188583
  0
LINE
  8
_0-0_計極細
  6
CONTINUOUS
 62
    2
 10
1112.9337497959768
 20
729.43908616188435
 11
1106.9337497959768
 21
729.43908616188435
  0
LINE
  8
_0-0_計極細
  6
CONTINUOUS
 62
    2
 10
1098.9337497959768
 20
734.43908616188583
 11
1092.9337497959768
 21
734.43908616188583
  0
LINE
  8
_0-0_計極細
  6
CONTINUOUS
 62
    2
 10
1098.9337497959768
 20
729.43908616188435
 11
1092.9337497959768
 21
729.43908616188435
  0
LINE
  8
_0-0_計極細
  6
CONTINUOUS
 62
    2
 10
1084.9337497959768
 20
734.43908616188583
 11
1078.9337497959768
 21
734.43908616188583
  0
LINE
  8
_0-0_計極細
  6
CONTINUOUS
 62
    2
 10
1084.9337497959768
 20
729.43908616188435
 11
1078.9337497959768
 21
729.43908616188435
  0
LINE
  8
_0-0_計極細
  6
CONTINUOUS
 62
    2
 10
1070.9337497959768
 20
734.43908616188583
 11
1064.9337497959768
 21
734.43908616188583
  0
LINE
  8
_0-0_計極細
  6
CONTINUOUS
 62
    2
 10
1070.9337497959768
 20
729.43908616188435
 11
1064.9337497959768
 21
729.43908616188435
  0
LINE
  8
_0-0_計極細
  6
CONTINUOUS
 62
    2
 10
1056.9337497959768
 20
734.43908616188583
 11
1050.9337497959768
 21
734.43908616188583
  0
LINE
  8
_0-0_計極細
  6
CONTINUOUS
 62
    2
 10
1056.9337497959768
 20
729.43908616188435
 11
1050.9337497959768
 21
729.43908616188435
  0
LINE
  8
_0-0_計極細
  6
CONTINUOUS
 62
    2
 10
1042.9337497959768
 20
734.43908616188583
 11
1036.9337497959768
 21
734.43908616188583
  0
LINE
  8
_0-0_計極細
  6
CONTINUOUS
 62
    2
 10
1042.9337497959768
 20
729.43908616188435
 11
1036.9337497959768
 21
729.43908616188435
  0
LINE
  8
_0-0_計極細
  6
CONTINUOUS
 62
    2
 10
1028.9337497959768
 20
734.43908616188583
 11
1022.9337497959767
 21
734.43908616188583
  0
LINE
  8
_0-0_計極細
  6
CONTINUOUS
 62
    2
 10
1028.9337497959768
 20
729.43908616188435
 11
1022.9337497959767
 21
729.43908616188435
  0
LINE
  8
_0-0_計極細
  6
CONTINUOUS
 62
    2
 10
1014.9337497959767
 20
734.43908616188583
 11
1008.9337497959768
 21
734.43908616188583
  0
LINE
  8
_0-0_計極細
  6
CONTINUOUS
 62
    2
 10
1014.9337497959767
 20
729.43908616188435
 11
1008.9337497959768
 21
729.43908616188435
  0
LINE
  8
_0-0_計極細
  6
CONTINUOUS
 62
    2
 10
1000.9337497959768
 20
734.43908616188583
 11
994.93374979597672
 21
734.43908616188583
  0
LINE
  8
_0-0_計極細
  6
CONTINUOUS
 62
    2
 10
1000.9337497959768
 20
729.43908616188435
 11
994.93374979597672
 21
729.43908616188435
  0
LINE
  8
_0-0_計極細
  6
CONTINUOUS
 62
    2
 10
986.93374979597684
 20
734.43908616188583
 11
980.93374979597684
 21
734.43908616188583
  0
LINE
  8
_0-0_計極細
  6
CONTINUOUS
 62
    2
 10
986.93374979597684
 20
729.43908616188435
 11
980.93374979597684
 21
729.43908616188435
  0
LINE
  8
_0-0_計極細
  6
CONTINUOUS
 62
    2
 10
972.93374979597672
 20
734.43908616188583
 11
966.93374979597684
 21
734.43908616188583
  0
LINE
  8
_0-0_計極細
  6
CONTINUOUS
 62
    2
 10
972.93374979597672
 20
729.43908616188435
 11
966.93374979597684
 21
729.43908616188435
  0
LINE
  8
_0-0_計極細
  6
CONTINUOUS
 62
    2
 10
958.93374979597684
 20
734.43908616188583
 11
952.93374979597672
 21
734.43908616188583
  0
LINE
  8
_0-0_計極細
  6
CONTINUOUS
 62
    2
 10
958.93374979597684
 20
729.43908616188435
 11
952.93374979597672
 21
729.43908616188435
  0
LINE
  8
_0-0_計極細
  6
CONTINUOUS
 62
    2
 10
944.93374979597672
 20
734.43908616188583
 11
938.93374979597684
 21
734.43908616188583
  0
LINE
  8
_0-0_計極細
  6
CONTINUOUS
 62
    2
 10
944.93374979597672
 20
729.43908616188435
 11
938.93374979597684
 21
729.43908616188435
  0
LINE
  8
_0-0_計極細
  6
CONTINUOUS
 62
    2
 10
930.93374979597684
 20
734.43908616188583
 11
924.93374979597672
 21
734.43908616188583
  0
LINE
  8
_0-0_計極細
  6
CONTINUOUS
 62
    2
 10
930.93374979597684
 20
729.43908616188435
 11
924.93374979597672
 21
729.43908616188435
  0
LINE
  8
_0-0_計極細
  6
CONTINUOUS
 62
    2
 10
916.93374979597684
 20
734.43908616188583
 11
910.93374979597684
 21
734.43908616188583
  0
LINE
  8
_0-0_計極細
  6
CONTINUOUS
 62
    2
 10
916.93374979597684
 20
729.43908616188435
 11
910.93374979597684
 21
729.43908616188435
  0
LINE
  8
_0-0_計極細
  6
CONTINUOUS
 62
    2
 10
902.93374979597672
 20
734.43908616188583
 11
896.93374979597684
 21
734.43908616188583
  0
LINE
  8
_0-0_計極細
  6
CONTINUOUS
 62
    2
 10
902.93374979597672
 20
729.43908616188435
 11
896.93374979597684
 21
729.43908616188435
  0
LINE
  8
_0-0_計極細
  6
CONTINUOUS
 62
    2
 10
888.93374979597684
 20
734.43908616188583
 11
882.93374979597672
 21
734.43908616188583
  0
LINE
  8
_0-0_計極細
  6
CONTINUOUS
 62
    2
 10
888.93374979597684
 20
729.43908616188435
 11
882.93374979597672
 21
729.43908616188435
  0
LINE
  8
_0-0_計極細
  6
CONTINUOUS
 62
    2
 10
874.93374979597672
 20
734.43908616188583
 11
868.93374979597684
 21
734.43908616188583
  0
LINE
  8
_0-0_計極細
  6
CONTINUOUS
 62
    2
 10
874.93374979597672
 20
729.43908616188435
 11
868.93374979597684
 21
729.43908616188435
  0
LINE
  8
_0-0_計極細
  6
CONTINUOUS
 62
    2
 10
860.93374979597684
 20
734.43908616188583
 11
854.93374979597672
 21
734.43908616188583
  0
LINE
  8
_0-0_計極細
  6
CONTINUOUS
 62
    2
 10
860.93374979597684
 20
729.43908616188435
 11
854.93374979597672
 21
729.43908616188435
  0
LINE
  8
_0-0_計極細
  6
CONTINUOUS
 62
    2
 10
846.93374979597684
 20
734.43908616188583
 11
840.93374979597684
 21
734.43908616188583
  0
LINE
  8
_0-0_計極細
  6
CONTINUOUS
 62
    2
 10
846.93374979597684
 20
729.43908616188435
 11
840.93374979597684
 21
729.43908616188435
  0
LINE
  8
_0-0_計極細
  6
CONTINUOUS
 62
    2
 10
832.93374979597672
 20
734.43908616188583
 11
826.93374979597684
 21
734.43908616188583
  0
LINE
  8
_0-0_計極細
  6
CONTINUOUS
 62
    2
 10
832.93374979597672
 20
729.43908616188435
 11
826.93374979597684
 21
729.43908616188435
  0
LINE
  8
_0-0_計極細
  6
CONTINUOUS
 62
    2
 10
818.93374979597684
 20
734.43908616188583
 11
812.93374979597672
 21
734.43908616188583
  0
LINE
  8
_0-0_計極細
  6
CONTINUOUS
 62
    2
 10
818.93374979597684
 20
729.43908616188435
 11
812.93374979597672
 21
729.43908616188435
  0
LINE
  8
_0-0_計極細
  6
CONTINUOUS
 62
    2
 10
804.93374979597672
 20
734.43908616188583
 11
798.93374979597684
 21
734.43908616188583
  0
LINE
  8
_0-0_計極細
  6
CONTINUOUS
 62
    2
 10
804.93374979597672
 20
729.43908616188435
 11
798.93374979597684
 21
729.43908616188435
  0
LINE
  8
_0-0_計極細
  6
CONTINUOUS
 62
    2
 10
790.93374979597684
 20
734.43908616188583
 11
784.93374979597672
 21
734.43908616188583
  0
LINE
  8
_0-0_計極細
  6
CONTINUOUS
 62
    2
 10
790.93374979597684
 20
729.43908616188435
 11
784.93374979597672
 21
729.43908616188435
  0
LINE
  8
_0-0_計極細
  6
CONTINUOUS
 62
    2
 10
776.93374979597684
 20
734.43908616188583
 11
770.93374979597684
 21
734.43908616188583
  0
LINE
  8
_0-0_計極細
  6
CONTINUOUS
 62
    2
 10
776.93374979597684
 20
729.43908616188435
 11
770.93374979597684
 21
729.43908616188435
  0
LINE
  8
_0-0_計極細
  6
CONTINUOUS
 62
    2
 10
762.93374979597672
 20
734.43908616188583
 11
756.93374979597684
 21
734.43908616188583
  0
LINE
  8
_0-0_計極細
  6
CONTINUOUS
 62
    2
 10
762.93374979597672
 20
729.43908616188435
 11
756.93374979597684
 21
729.43908616188435
  0
LINE
  8
_0-0_計極細
  6
CONTINUOUS
 62
    2
 10
748.93374979597684
 20
734.43908616188583
 11
742.93374979597672
 21
734.43908616188583
  0
LINE
  8
_0-0_計極細
  6
CONTINUOUS
 62
    2
 10
748.93374979597684
 20
729.43908616188435
 11
742.93374979597672
 21
729.43908616188435
  0
LINE
  8
_0-0_計極細
  6
CONTINUOUS
 62
    2
 10
734.93374979597672
 20
734.43908616188583
 11
728.93374979597684
 21
734.43908616188583
  0
LINE
  8
_0-0_計極細
  6
CONTINUOUS
 62
    2
 10
734.93374979597672
 20
729.43908616188435
 11
728.93374979597684
 21
729.43908616188435
  0
LINE
  8
_0-0_計極細
  6
CONTINUOUS
 62
    2
 10
720.93374979597672
 20
734.43908616188583
 11
714.93374979597672
 21
734.43908616188583
  0
LINE
  8
_0-0_計極細
  6
CONTINUOUS
 62
    2
 10
720.93374979597672
 20
729.43908616188435
 11
714.93374979597672
 21
729.43908616188435
  0
LINE
  8
_0-0_計極細
  6
CONTINUOUS
 62
    2
 10
706.93374979597684
 20
734.43908616188583
 11
700.93374979597672
 21
734.43908616188583
  0
LINE
  8
_0-0_計極細
  6
CONTINUOUS
 62
    2
 10
706.93374979597684
 20
729.43908616188435
 11
700.93374979597672
 21
729.43908616188435
  0
LINE
  8
_0-0_計極細
  6
CONTINUOUS
 62
    2
 10
692.93374979597672
 20
734.43908616188583
 11
686.93374979597684
 21
734.43908616188583
  0
LINE
  8
_0-0_計極細
  6
CONTINUOUS
 62
    2
 10
692.93374979597672
 20
729.43908616188435
 11
686.93374979597684
 21
729.43908616188435
  0
LINE
  8
_0-0_計極細
  6
CONTINUOUS
 62
    2
 10
678.93374979597684
 20
734.43908616188583
 11
672.93374979597672
 21
734.43908616188583
  0
LINE
  8
_0-0_計極細
  6
CONTINUOUS
 62
    2
 10
678.93374979597684
 20
729.43908616188435
 11
672.93374979597672
 21
729.43908616188435
  0
LINE
  8
_0-0_計極細
  6
CONTINUOUS
 62
    2
 10
664.93374979597672
 20
734.43908616188583
 11
658.93374979597684
 21
734.43908616188583
  0
LINE
  8
_0-0_計極細
  6
CONTINUOUS
 62
    2
 10
664.93374979597672
 20
729.43908616188435
 11
658.93374979597684
 21
729.43908616188435
  0
LINE
  8
_0-0_計極細
  6
CONTINUOUS
 62
    2
 10
650.93374979597672
 20
734.43908616188583
 11
644.93374979597672
 21
734.43908616188583
  0
LINE
  8
_0-0_計極細
  6
CONTINUOUS
 62
    2
 10
650.93374979597672
 20
729.43908616188435
 11
644.93374979597672
 21
729.43908616188435
  0
LINE
  8
_0-0_計極細
  6
CONTINUOUS
 62
    2
 10
636.93374979597684
 20
734.43908616188583
 11
630.93374979597672
 21
734.43908616188583
  0
LINE
  8
_0-0_計極細
  6
CONTINUOUS
 62
    2
 10
636.93374979597684
 20
729.43908616188435
 11
630.93374979597672
 21
729.43908616188435
  0
LINE
  8
_0-0_計極細
  6
CONTINUOUS
 62
    2
 10
622.93374979597672
 20
734.43908616188583
 11
616.93374979597684
 21
734.43908616188583
  0
LINE
  8
_0-0_計極細
  6
CONTINUOUS
 62
    2
 10
622.93374979597672
 20
729.43908616188435
 11
616.93374979597684
 21
729.43908616188435
  0
LINE
  8
_0-0_計極細
  6
CONTINUOUS
 62
    2
 10
608.93374979597672
 20
734.43908616188583
 11
602.93374979597672
 21
734.43908616188583
  0
LINE
  8
_0-0_計極細
  6
CONTINUOUS
 62
    2
 10
608.93374979597672
 20
729.43908616188435
 11
602.93374979597672
 21
729.43908616188435
  0
LINE
  8
_0-0_計極細
  6
CONTINUOUS
 62
    2
 10
594.93374979597672
 20
734.43908616188583
 11
588.93374979597672
 21
734.43908616188583
  0
LINE
  8
_0-0_計極細
  6
CONTINUOUS
 62
    2
 10
594.93374979597672
 20
729.43908616188435
 11
588.93374979597672
 21
729.43908616188435
  0
LINE
  8
_0-0_計極細
  6
CONTINUOUS
 62
    2
 10
580.93374979597672
 20
734.43908616188583
 11
574.93374979597672
 21
734.43908616188583
  0
LINE
  8
_0-0_計極細
  6
CONTINUOUS
 62
    2
 10
580.93374979597672
 20
729.43908616188435
 11
574.93374979597672
 21
729.43908616188435
  0
LINE
  8
_0-0_計極細
  6
CONTINUOUS
 62
    2
 10
566.93374979597684
 20
734.43908616188583
 11
560.93374979597672
 21
734.43908616188583
  0
LINE
  8
_0-0_計極細
  6
CONTINUOUS
 62
    2
 10
566.93374979597684
 20
729.43908616188435
 11
560.93374979597672
 21
729.43908616188435
  0
LINE
  8
_0-0_計極細
  6
CONTINUOUS
 62
    2
 10
552.93374979597672
 20
734.43908616188583
 11
546.93374979597684
 21
734.43908616188583
  0
LINE
  8
_0-0_計極細
  6
CONTINUOUS
 62
    2
 10
552.93374979597672
 20
729.43908616188435
 11
546.93374979597684
 21
729.43908616188435
  0
LINE
  8
_0-0_計極細
  6
CONTINUOUS
 62
    2
 10
538.93374979597672
 20
734.43908616188583
 11
532.93374979597672
 21
734.43908616188583
  0
LINE
  8
_0-0_計極細
  6
CONTINUOUS
 62
    2
 10
538.93374979597672
 20
729.43908616188435
 11
532.93374979597672
 21
729.43908616188435
  0
LINE
  8
_0-0_計極細
  6
CONTINUOUS
 62
    2
 10
524.93374979597672
 20
734.43908616188583
 11
518.93374979597672
 21
734.43908616188583
  0
LINE
  8
_0-0_計極細
  6
CONTINUOUS
 62
    2
 10
524.93374979597672
 20
729.43908616188435
 11
518.93374979597672
 21
729.43908616188435
  0
LINE
  8
_0-0_計極細
  6
CONTINUOUS
 62
    2
 10
510.93374979597678
 20
734.43908616188583
 11
504.93374979597672
 21
734.43908616188583
  0
LINE
  8
_0-0_計極細
  6
CONTINUOUS
 62
    2
 10
510.93374979597678
 20
729.43908616188435
 11
504.93374979597672
 21
729.43908616188435
  0
LINE
  8
_0-0_計極細
  6
CONTINUOUS
 62
    2
 10
496.93374979597678
 20
734.43908616188583
 11
490.93374979597678
 21
734.43908616188583
  0
LINE
  8
_0-0_計極細
  6
CONTINUOUS
 62
    2
 10
496.93374979597678
 20
729.43908616188435
 11
490.93374979597678
 21
729.43908616188435
  0
LINE
  8
_0-0_計極細
  6
CONTINUOUS
 62
    2
 10
482.93374979597672
 20
734.43908616188583
 11
476.93374979597678
 21
734.43908616188583
  0
LINE
  8
_0-0_計極細
  6
CONTINUOUS
 62
    2
 10
482.93374979597672
 20
729.43908616188435
 11
476.93374979597678
 21
729.43908616188435
  0
LINE
  8
_0-0_計極細
  6
CONTINUOUS
 62
    2
 10
468.93374979597672
 20
734.43908616188583
 11
462.93374979597672
 21
734.43908616188583
  0
LINE
  8
_0-0_計極細
  6
CONTINUOUS
 62
    2
 10
468.93374979597672
 20
729.43908616188435
 11
462.93374979597672
 21
729.43908616188435
  0
LINE
  8
_0-0_計極細
  6
CONTINUOUS
 62
    2
 10
454.93374979597672
 20
734.43908616188583
 11
448.93374979597672
 21
734.43908616188583
  0
LINE
  8
_0-0_計極細
  6
CONTINUOUS
 62
    2
 10
454.93374979597672
 20
729.43908616188435
 11
448.93374979597672
 21
729.43908616188435
  0
LINE
  8
_0-0_計極細
  6
CONTINUOUS
 62
    2
 10
440.93374979597678
 20
734.43908616188583
 11
434.93374979597672
 21
734.43908616188583
  0
LINE
  8
_0-0_計極細
  6
CONTINUOUS
 62
    2
 10
440.93374979597678
 20
729.43908616188435
 11
434.93374979597672
 21
729.43908616188435
  0
LINE
  8
_0-0_計極細
  6
CONTINUOUS
 62
    2
 10
426.93374979597678
 20
734.43908616188583
 11
420.93374979597678
 21
734.43908616188583
  0
LINE
  8
_0-0_計極細
  6
CONTINUOUS
 62
    2
 10
426.93374979597678
 20
729.43908616188435
 11
420.93374979597678
 21
729.43908616188435
  0
LINE
  8
_0-0_計極細
  6
CONTINUOUS
 62
    2
 10
412.93374979597672
 20
734.43908616188583
 11
406.93374979597678
 21
734.43908616188583
  0
LINE
  8
_0-0_計極細
  6
CONTINUOUS
 62
    2
 10
412.93374979597672
 20
729.43908616188435
 11
406.93374979597678
 21
729.43908616188435
  0
LINE
  8
_0-0_計極細
  6
CONTINUOUS
 62
    2
 10
398.93374979597672
 20
734.43908616188583
 11
392.93374979597672
 21
734.43908616188583
  0
LINE
  8
_0-0_計極細
  6
CONTINUOUS
 62
    2
 10
398.93374979597672
 20
729.43908616188435
 11
392.93374979597672
 21
729.43908616188435
  0
LINE
  8
_0-0_計極細
  6
CONTINUOUS
 62
    2
 10
384.93374979597672
 20
734.43908616188583
 11
378.93374979597672
 21
734.43908616188583
  0
LINE
  8
_0-0_計極細
  6
CONTINUOUS
 62
    2
 10
384.93374979597672
 20
729.43908616188435
 11
378.93374979597672
 21
729.43908616188435
  0
LINE
  8
_0-0_計極細
  6
CONTINUOUS
 62
    2
 10
370.93374979597678
 20
734.43908616188583
 11
364.93374979597672
 21
734.43908616188583
  0
LINE
  8
_0-0_計極細
  6
CONTINUOUS
 62
    2
 10
370.93374979597678
 20
729.43908616188435
 11
364.93374979597672
 21
729.43908616188435
  0
LINE
  8
_0-0_計極細
  6
CONTINUOUS
 62
    2
 10
356.93374979597672
 20
734.43908616188583
 11
350.93374979597678
 21
734.43908616188583
  0
LINE
  8
_0-0_計極細
  6
CONTINUOUS
 62
    2
 10
356.93374979597672
 20
729.43908616188435
 11
350.93374979597678
 21
729.43908616188435
  0
LINE
  8
_0-0_計極細
  6
CONTINUOUS
 62
    2
 10
342.93374979597672
 20
734.43908616188583
 11
336.93374979597672
 21
734.43908616188583
  0
LINE
  8
_0-0_計極細
  6
CONTINUOUS
 62
    2
 10
342.93374979597672
 20
729.43908616188435
 11
336.93374979597672
 21
729.43908616188435
  0
LINE
  8
_0-0_計極細
  6
CONTINUOUS
 62
    2
 10
328.93374979597672
 20
734.43908616188583
 11
322.93374979597672
 21
734.43908616188583
  0
LINE
  8
_0-0_計極細
  6
CONTINUOUS
 62
    2
 10
328.93374979597672
 20
729.43908616188435
 11
322.93374979597672
 21
729.43908616188435
  0
LINE
  8
_0-0_計極細
  6
CONTINUOUS
 62
    2
 10
314.93374979597672
 20
734.43908616188583
 11
308.93374979597672
 21
734.43908616188583
  0
LINE
  8
_0-0_計極細
  6
CONTINUOUS
 62
    2
 10
314.93374979597672
 20
729.43908616188435
 11
308.93374979597672
 21
729.43908616188435
  0
LINE
  8
_0-0_計極細
  6
CONTINUOUS
 62
    2
 10
300.93374979597672
 20
734.43908616188583
 11
294.93374979597672
 21
734.43908616188583
  0
LINE
  8
_0-0_計極細
  6
CONTINUOUS
 62
    2
 10
300.93374979597672
 20
729.43908616188435
 11
294.93374979597672
 21
729.43908616188435
  0
LINE
  8
_0-0_計極細
  6
CONTINUOUS
 62
    2
 10
286.93374979597678
 20
734.43908616188583
 11
280.93374979597672
 21
734.43908616188583
  0
LINE
  8
_0-0_計極細
  6
CONTINUOUS
 62
    2
 10
286.93374979597678
 20
729.43908616188435
 11
280.93374979597672
 21
729.43908616188435
  0
LINE
  8
_0-0_計極細
  6
CONTINUOUS
 62
    2
 10
272.93374979597672
 20
734.43908616188583
 11
266.93374979597678
 21
734.43908616188583
  0
LINE
  8
_0-0_計極細
  6
CONTINUOUS
 62
    2
 10
272.93374979597672
 20
729.43908616188435
 11
266.93374979597678
 21
729.43908616188435
  0
LINE
  8
_0-0_計極細
  6
CONTINUOUS
 62
    2
 10
258.93374979597672
 20
734.43908616188583
 11
252.93374979597672
 21
734.43908616188583
  0
LINE
  8
_0-0_計極細
  6
CONTINUOUS
 62
    2
 10
258.93374979597672
 20
729.43908616188435
 11
252.93374979597672
 21
729.43908616188435
  0
LINE
  8
_0-0_計極細
  6
CONTINUOUS
 62
    2
 10
244.93374979597675
 20
734.43908616188583
 11
238.93374979597672
 21
734.43908616188583
  0
LINE
  8
_0-0_計極細
  6
CONTINUOUS
 62
    2
 10
244.93374979597675
 20
729.43908616188435
 11
238.93374979597672
 21
729.43908616188435
  0
LINE
  8
_0-0_計極細
  6
CONTINUOUS
 62
    2
 10
1210.9337497959764
 20
634.43908616188571
 11
1204.9337497959764
 21
634.43908616188571
  0
LINE
  8
_0-0_計極細
  6
CONTINUOUS
 62
    2
 10
1210.9337497959764
 20
629.43908616188571
 11
1204.9337497959764
 21
629.43908616188571
  0
LINE
  8
_0-0_計極細
  6
CONTINUOUS
 62
    2
 10
1196.9337497959764
 20
634.43908616188571
 11
1190.9337497959764
 21
634.43908616188571
  0
LINE
  8
_0-0_計極細
  6
CONTINUOUS
 62
    2
 10
1196.9337497959764
 20
629.43908616188571
 11
1190.9337497959764
 21
629.43908616188571
  0
LINE
  8
_0-0_計極細
  6
CONTINUOUS
 62
    2
 10
1182.9337497959764
 20
634.43908616188571
 11
1176.9337497959764
 21
634.43908616188571
  0
LINE
  8
_0-0_計極細
  6
CONTINUOUS
 62
    2
 10
1182.9337497959764
 20
629.43908616188571
 11
1176.9337497959764
 21
629.43908616188571
  0
LINE
  8
_0-0_計極細
  6
CONTINUOUS
 62
    2
 10
1168.9337497959764
 20
634.43908616188571
 11
1162.9337497959764
 21
634.43908616188571
  0
LINE
  8
_0-0_計極細
  6
CONTINUOUS
 62
    2
 10
1168.9337497959764
 20
629.43908616188571
 11
1162.9337497959764
 21
629.43908616188571
  0
LINE
  8
_0-0_計極細
  6
CONTINUOUS
 62
    2
 10
1154.9337497959764
 20
634.43908616188571
 11
1148.9337497959764
 21
634.43908616188571
  0
LINE
  8
_0-0_計極細
  6
CONTINUOUS
 62
    2
 10
1154.9337497959764
 20
629.43908616188571
 11
1148.9337497959764
 21
629.43908616188571
  0
LINE
  8
_0-0_計極細
  6
CONTINUOUS
 62
    2
 10
1140.9337497959764
 20
634.43908616188571
 11
1134.9337497959764
 21
634.43908616188571
  0
LINE
  8
_0-0_計極細
  6
CONTINUOUS
 62
    2
 10
1140.9337497959764
 20
629.43908616188571
 11
1134.9337497959764
 21
629.43908616188571
  0
LINE
  8
_0-0_計極細
  6
CONTINUOUS
 62
    2
 10
1126.9337497959764
 20
634.43908616188571
 11
1120.9337497959768
 21
634.43908616188571
  0
LINE
  8
_0-0_計極細
  6
CONTINUOUS
 62
    2
 10
1126.9337497959764
 20
629.43908616188571
 11
1120.9337497959768
 21
629.43908616188571
  0
LINE
  8
_0-0_計極細
  6
CONTINUOUS
 62
    2
 10
1112.9337497959768
 20
634.43908616188571
 11
1106.9337497959768
 21
634.43908616188571
  0
LINE
  8
_0-0_計極細
  6
CONTINUOUS
 62
    2
 10
1112.9337497959768
 20
629.43908616188571
 11
1106.9337497959768
 21
629.43908616188571
  0
LINE
  8
_0-0_計極細
  6
CONTINUOUS
 62
    2
 10
1098.9337497959768
 20
634.43908616188571
 11
1092.9337497959768
 21
634.43908616188571
  0
LINE
  8
_0-0_計極細
  6
CONTINUOUS
 62
    2
 10
1098.9337497959768
 20
629.43908616188571
 11
1092.9337497959768
 21
629.43908616188571
  0
LINE
  8
_0-0_計極細
  6
CONTINUOUS
 62
    2
 10
1084.9337497959768
 20
634.43908616188571
 11
1078.9337497959768
 21
634.43908616188571
  0
LINE
  8
_0-0_計極細
  6
CONTINUOUS
 62
    2
 10
1084.9337497959768
 20
629.43908616188571
 11
1078.9337497959768
 21
629.43908616188571
  0
LINE
  8
_0-0_計極細
  6
CONTINUOUS
 62
    2
 10
1070.9337497959768
 20
634.43908616188571
 11
1064.9337497959768
 21
634.43908616188571
  0
LINE
  8
_0-0_計極細
  6
CONTINUOUS
 62
    2
 10
1070.9337497959768
 20
629.43908616188571
 11
1064.9337497959768
 21
629.43908616188571
  0
LINE
  8
_0-0_計極細
  6
CONTINUOUS
 62
    2
 10
1056.9337497959768
 20
634.43908616188571
 11
1050.9337497959768
 21
634.43908616188571
  0
LINE
  8
_0-0_計極細
  6
CONTINUOUS
 62
    2
 10
1056.9337497959768
 20
629.43908616188571
 11
1050.9337497959768
 21
629.43908616188571
  0
LINE
  8
_0-0_計極細
  6
CONTINUOUS
 62
    2
 10
1042.9337497959768
 20
634.43908616188571
 11
1036.9337497959768
 21
634.43908616188571
  0
LINE
  8
_0-0_計極細
  6
CONTINUOUS
 62
    2
 10
1042.9337497959768
 20
629.43908616188571
 11
1036.9337497959768
 21
629.43908616188571
  0
LINE
  8
_0-0_計極細
  6
CONTINUOUS
 62
    2
 10
1028.9337497959768
 20
634.43908616188571
 11
1022.9337497959767
 21
634.43908616188571
  0
LINE
  8
_0-0_計極細
  6
CONTINUOUS
 62
    2
 10
1028.9337497959768
 20
629.43908616188571
 11
1022.9337497959767
 21
629.43908616188571
  0
LINE
  8
_0-0_計極細
  6
CONTINUOUS
 62
    2
 10
1014.9337497959767
 20
634.43908616188571
 11
1008.9337497959768
 21
634.43908616188571
  0
LINE
  8
_0-0_計極細
  6
CONTINUOUS
 62
    2
 10
1014.9337497959767
 20
629.43908616188571
 11
1008.9337497959768
 21
629.43908616188571
  0
LINE
  8
_0-0_計極細
  6
CONTINUOUS
 62
    2
 10
1000.9337497959768
 20
634.43908616188571
 11
994.93374979597672
 21
634.43908616188571
  0
LINE
  8
_0-0_計極細
  6
CONTINUOUS
 62
    2
 10
1000.9337497959768
 20
629.43908616188571
 11
994.93374979597672
 21
629.43908616188571
  0
LINE
  8
_0-0_計極細
  6
CONTINUOUS
 62
    2
 10
986.93374979597684
 20
634.43908616188571
 11
980.93374979597684
 21
634.43908616188571
  0
LINE
  8
_0-0_計極細
  6
CONTINUOUS
 62
    2
 10
986.93374979597684
 20
629.43908616188571
 11
980.93374979597684
 21
629.43908616188571
  0
LINE
  8
_0-0_計極細
  6
CONTINUOUS
 62
    2
 10
972.93374979597672
 20
634.43908616188571
 11
966.93374979597684
 21
634.43908616188571
  0
LINE
  8
_0-0_計極細
  6
CONTINUOUS
 62
    2
 10
972.93374979597672
 20
629.43908616188571
 11
966.93374979597684
 21
629.43908616188571
  0
LINE
  8
_0-0_計極細
  6
CONTINUOUS
 62
    2
 10
958.93374979597684
 20
634.43908616188571
 11
952.93374979597672
 21
634.43908616188571
  0
LINE
  8
_0-0_計極細
  6
CONTINUOUS
 62
    2
 10
958.93374979597684
 20
629.43908616188571
 11
952.93374979597672
 21
629.43908616188571
  0
LINE
  8
_0-0_計極細
  6
CONTINUOUS
 62
    2
 10
944.93374979597672
 20
634.43908616188571
 11
938.93374979597684
 21
634.43908616188571
  0
LINE
  8
_0-0_計極細
  6
CONTINUOUS
 62
    2
 10
944.93374979597672
 20
629.43908616188571
 11
938.93374979597684
 21
629.43908616188571
  0
LINE
  8
_0-0_計極細
  6
CONTINUOUS
 62
    2
 10
930.93374979597684
 20
634.43908616188571
 11
924.93374979597672
 21
634.43908616188571
  0
LINE
  8
_0-0_計極細
  6
CONTINUOUS
 62
    2
 10
930.93374979597684
 20
629.43908616188571
 11
924.93374979597672
 21
629.43908616188571
  0
LINE
  8
_0-0_計極細
  6
CONTINUOUS
 62
    2
 10
916.93374979597684
 20
634.43908616188571
 11
910.93374979597684
 21
634.43908616188571
  0
LINE
  8
_0-0_計極細
  6
CONTINUOUS
 62
    2
 10
916.93374979597684
 20
629.43908616188571
 11
910.93374979597684
 21
629.43908616188571
  0
LINE
  8
_0-0_計極細
  6
CONTINUOUS
 62
    2
 10
902.93374979597672
 20
634.43908616188571
 11
896.93374979597684
 21
634.43908616188571
  0
LINE
  8
_0-0_計極細
  6
CONTINUOUS
 62
    2
 10
902.93374979597672
 20
629.43908616188571
 11
896.93374979597684
 21
629.43908616188571
  0
LINE
  8
_0-0_計極細
  6
CONTINUOUS
 62
    2
 10
888.93374979597684
 20
634.43908616188571
 11
882.93374979597672
 21
634.43908616188571
  0
LINE
  8
_0-0_計極細
  6
CONTINUOUS
 62
    2
 10
888.93374979597684
 20
629.43908616188571
 11
882.93374979597672
 21
629.43908616188571
  0
LINE
  8
_0-0_計極細
  6
CONTINUOUS
 62
    2
 10
874.93374979597672
 20
634.43908616188571
 11
868.93374979597684
 21
634.43908616188571
  0
LINE
  8
_0-0_計極細
  6
CONTINUOUS
 62
    2
 10
874.93374979597672
 20
629.43908616188571
 11
868.93374979597684
 21
629.43908616188571
  0
LINE
  8
_0-0_計極細
  6
CONTINUOUS
 62
    2
 10
860.93374979597684
 20
634.43908616188571
 11
854.93374979597672
 21
634.43908616188571
  0
LINE
  8
_0-0_計極細
  6
CONTINUOUS
 62
    2
 10
860.93374979597684
 20
629.43908616188571
 11
854.93374979597672
 21
629.43908616188571
  0
LINE
  8
_0-0_計極細
  6
CONTINUOUS
 62
    2
 10
846.93374979597684
 20
634.43908616188571
 11
840.93374979597684
 21
634.43908616188571
  0
LINE
  8
_0-0_計極細
  6
CONTINUOUS
 62
    2
 10
846.93374979597684
 20
629.43908616188571
 11
840.93374979597684
 21
629.43908616188571
  0
LINE
  8
_0-0_計極細
  6
CONTINUOUS
 62
    2
 10
832.93374979597672
 20
634.43908616188571
 11
826.93374979597684
 21
634.43908616188571
  0
LINE
  8
_0-0_計極細
  6
CONTINUOUS
 62
    2
 10
832.93374979597672
 20
629.43908616188571
 11
826.93374979597684
 21
629.43908616188571
  0
LINE
  8
_0-0_計極細
  6
CONTINUOUS
 62
    2
 10
818.93374979597684
 20
634.43908616188571
 11
812.93374979597672
 21
634.43908616188571
  0
LINE
  8
_0-0_計極細
  6
CONTINUOUS
 62
    2
 10
818.93374979597684
 20
629.43908616188571
 11
812.93374979597672
 21
629.43908616188571
  0
LINE
  8
_0-0_計極細
  6
CONTINUOUS
 62
    2
 10
804.93374979597672
 20
634.43908616188571
 11
798.93374979597684
 21
634.43908616188571
  0
LINE
  8
_0-0_計極細
  6
CONTINUOUS
 62
    2
 10
804.93374979597672
 20
629.43908616188571
 11
798.93374979597684
 21
629.43908616188571
  0
LINE
  8
_0-0_計極細
  6
CONTINUOUS
 62
    2
 10
790.93374979597684
 20
634.43908616188571
 11
784.93374979597672
 21
634.43908616188571
  0
LINE
  8
_0-0_計極細
  6
CONTINUOUS
 62
    2
 10
790.93374979597684
 20
629.43908616188571
 11
784.93374979597672
 21
629.43908616188571
  0
LINE
  8
_0-0_計極細
  6
CONTINUOUS
 62
    2
 10
776.93374979597684
 20
634.43908616188571
 11
770.93374979597684
 21
634.43908616188571
  0
LINE
  8
_0-0_計極細
  6
CONTINUOUS
 62
    2
 10
776.93374979597684
 20
629.43908616188571
 11
770.93374979597684
 21
629.43908616188571
  0
LINE
  8
_0-0_計極細
  6
CONTINUOUS
 62
    2
 10
762.93374979597672
 20
634.43908616188571
 11
756.93374979597684
 21
634.43908616188571
  0
LINE
  8
_0-0_計極細
  6
CONTINUOUS
 62
    2
 10
762.93374979597672
 20
629.43908616188571
 11
756.93374979597684
 21
629.43908616188571
  0
LINE
  8
_0-0_計極細
  6
CONTINUOUS
 62
    2
 10
748.93374979597684
 20
634.43908616188571
 11
742.93374979597672
 21
634.43908616188571
  0
LINE
  8
_0-0_計極細
  6
CONTINUOUS
 62
    2
 10
748.93374979597684
 20
629.43908616188571
 11
742.93374979597672
 21
629.43908616188571
  0
LINE
  8
_0-0_計極細
  6
CONTINUOUS
 62
    2
 10
734.93374979597672
 20
634.43908616188571
 11
728.93374979597684
 21
634.43908616188571
  0
LINE
  8
_0-0_計極細
  6
CONTINUOUS
 62
    2
 10
734.93374979597672
 20
629.43908616188571
 11
728.93374979597684
 21
629.43908616188571
  0
LINE
  8
_0-0_計極細
  6
CONTINUOUS
 62
    2
 10
720.93374979597672
 20
634.43908616188571
 11
714.93374979597672
 21
634.43908616188571
  0
LINE
  8
_0-0_計極細
  6
CONTINUOUS
 62
    2
 10
720.93374979597672
 20
629.43908616188571
 11
714.93374979597672
 21
629.43908616188571
  0
LINE
  8
_0-0_計極細
  6
CONTINUOUS
 62
    2
 10
706.93374979597684
 20
634.43908616188571
 11
700.93374979597672
 21
634.43908616188571
  0
LINE
  8
_0-0_計極細
  6
CONTINUOUS
 62
    2
 10
706.93374979597684
 20
629.43908616188571
 11
700.93374979597672
 21
629.43908616188571
  0
LINE
  8
_0-0_計極細
  6
CONTINUOUS
 62
    2
 10
692.93374979597672
 20
634.43908616188571
 11
686.93374979597684
 21
634.43908616188571
  0
LINE
  8
_0-0_計極細
  6
CONTINUOUS
 62
    2
 10
692.93374979597672
 20
629.43908616188571
 11
686.93374979597684
 21
629.43908616188571
  0
LINE
  8
_0-0_計極細
  6
CONTINUOUS
 62
    2
 10
678.93374979597684
 20
634.43908616188571
 11
672.93374979597672
 21
634.43908616188571
  0
LINE
  8
_0-0_計極細
  6
CONTINUOUS
 62
    2
 10
678.93374979597684
 20
629.43908616188571
 11
672.93374979597672
 21
629.43908616188571
  0
LINE
  8
_0-0_計極細
  6
CONTINUOUS
 62
    2
 10
664.93374979597672
 20
634.43908616188571
 11
658.93374979597684
 21
634.43908616188571
  0
LINE
  8
_0-0_計極細
  6
CONTINUOUS
 62
    2
 10
664.93374979597672
 20
629.43908616188571
 11
658.93374979597684
 21
629.43908616188571
  0
LINE
  8
_0-0_計極細
  6
CONTINUOUS
 62
    2
 10
650.93374979597672
 20
634.43908616188571
 11
644.93374979597672
 21
634.43908616188571
  0
LINE
  8
_0-0_計極細
  6
CONTINUOUS
 62
    2
 10
650.93374979597672
 20
629.43908616188571
 11
644.93374979597672
 21
629.43908616188571
  0
LINE
  8
_0-0_計極細
  6
CONTINUOUS
 62
    2
 10
636.93374979597684
 20
634.43908616188571
 11
630.93374979597672
 21
634.43908616188571
  0
LINE
  8
_0-0_計極細
  6
CONTINUOUS
 62
    2
 10
636.93374979597684
 20
629.43908616188571
 11
630.93374979597672
 21
629.43908616188571
  0
LINE
  8
_0-0_計極細
  6
CONTINUOUS
 62
    2
 10
622.93374979597672
 20
634.43908616188571
 11
616.93374979597684
 21
634.43908616188571
  0
LINE
  8
_0-0_計極細
  6
CONTINUOUS
 62
    2
 10
622.93374979597672
 20
629.43908616188571
 11
616.93374979597684
 21
629.43908616188571
  0
LINE
  8
_0-0_計極細
  6
CONTINUOUS
 62
    2
 10
608.93374979597672
 20
634.43908616188571
 11
602.93374979597672
 21
634.43908616188571
  0
LINE
  8
_0-0_計極細
  6
CONTINUOUS
 62
    2
 10
608.93374979597672
 20
629.43908616188571
 11
602.93374979597672
 21
629.43908616188571
  0
LINE
  8
_0-0_計極細
  6
CONTINUOUS
 62
    2
 10
594.93374979597672
 20
634.43908616188571
 11
588.93374979597672
 21
634.43908616188571
  0
LINE
  8
_0-0_計極細
  6
CONTINUOUS
 62
    2
 10
594.93374979597672
 20
629.43908616188571
 11
588.93374979597672
 21
629.43908616188571
  0
LINE
  8
_0-0_計極細
  6
CONTINUOUS
 62
    2
 10
580.93374979597672
 20
634.43908616188571
 11
574.93374979597672
 21
634.43908616188571
  0
LINE
  8
_0-0_計極細
  6
CONTINUOUS
 62
    2
 10
580.93374979597672
 20
629.43908616188571
 11
574.93374979597672
 21
629.43908616188571
  0
LINE
  8
_0-0_計極細
  6
CONTINUOUS
 62
    2
 10
566.93374979597684
 20
634.43908616188571
 11
560.93374979597672
 21
634.43908616188571
  0
LINE
  8
_0-0_計極細
  6
CONTINUOUS
 62
    2
 10
566.93374979597684
 20
629.43908616188571
 11
560.93374979597672
 21
629.43908616188571
  0
LINE
  8
_0-0_計極細
  6
CONTINUOUS
 62
    2
 10
552.93374979597672
 20
634.43908616188571
 11
546.93374979597684
 21
634.43908616188571
  0
LINE
  8
_0-0_計極細
  6
CONTINUOUS
 62
    2
 10
552.93374979597672
 20
629.43908616188571
 11
546.93374979597684
 21
629.43908616188571
  0
LINE
  8
_0-0_計極細
  6
CONTINUOUS
 62
    2
 10
538.93374979597672
 20
634.43908616188571
 11
532.93374979597672
 21
634.43908616188571
  0
LINE
  8
_0-0_計極細
  6
CONTINUOUS
 62
    2
 10
538.93374979597672
 20
629.43908616188571
 11
532.93374979597672
 21
629.43908616188571
  0
LINE
  8
_0-0_計極細
  6
CONTINUOUS
 62
    2
 10
524.93374979597672
 20
634.43908616188571
 11
518.93374979597672
 21
634.43908616188571
  0
LINE
  8
_0-0_計極細
  6
CONTINUOUS
 62
    2
 10
524.93374979597672
 20
629.43908616188571
 11
518.93374979597672
 21
629.43908616188571
  0
LINE
  8
_0-0_計極細
  6
CONTINUOUS
 62
    2
 10
510.93374979597678
 20
634.43908616188571
 11
504.93374979597672
 21
634.43908616188571
  0
LINE
  8
_0-0_計極細
  6
CONTINUOUS
 62
    2
 10
510.93374979597678
 20
629.43908616188571
 11
504.93374979597672
 21
629.43908616188571
  0
LINE
  8
_0-0_計極細
  6
CONTINUOUS
 62
    2
 10
496.93374979597678
 20
634.43908616188571
 11
490.93374979597678
 21
634.43908616188571
  0
LINE
  8
_0-0_計極細
  6
CONTINUOUS
 62
    2
 10
496.93374979597678
 20
629.43908616188571
 11
490.93374979597678
 21
629.43908616188571
  0
LINE
  8
_0-0_計極細
  6
CONTINUOUS
 62
    2
 10
482.93374979597672
 20
634.43908616188571
 11
476.93374979597678
 21
634.43908616188571
  0
LINE
  8
_0-0_計極細
  6
CONTINUOUS
 62
    2
 10
482.93374979597672
 20
629.43908616188571
 11
476.93374979597678
 21
629.43908616188571
  0
LINE
  8
_0-0_計極細
  6
CONTINUOUS
 62
    2
 10
468.93374979597672
 20
634.43908616188571
 11
462.93374979597672
 21
634.43908616188571
  0
LINE
  8
_0-0_計極細
  6
CONTINUOUS
 62
    2
 10
468.93374979597672
 20
629.43908616188571
 11
462.93374979597672
 21
629.43908616188571
  0
LINE
  8
_0-0_計極細
  6
CONTINUOUS
 62
    2
 10
454.93374979597672
 20
634.43908616188571
 11
448.93374979597672
 21
634.43908616188571
  0
LINE
  8
_0-0_計極細
  6
CONTINUOUS
 62
    2
 10
454.93374979597672
 20
629.43908616188571
 11
448.93374979597672
 21
629.43908616188571
  0
LINE
  8
_0-0_計極細
  6
CONTINUOUS
 62
    2
 10
440.93374979597678
 20
634.43908616188571
 11
434.93374979597672
 21
634.43908616188571
  0
LINE
  8
_0-0_計極細
  6
CONTINUOUS
 62
    2
 10
440.93374979597678
 20
629.43908616188571
 11
434.93374979597672
 21
629.43908616188571
  0
LINE
  8
_0-0_計極細
  6
CONTINUOUS
 62
    2
 10
426.93374979597678
 20
634.43908616188571
 11
420.93374979597678
 21
634.43908616188571
  0
LINE
  8
_0-0_計極細
  6
CONTINUOUS
 62
    2
 10
426.93374979597678
 20
629.43908616188571
 11
420.93374979597678
 21
629.43908616188571
  0
LINE
  8
_0-0_計極細
  6
CONTINUOUS
 62
    2
 10
412.93374979597672
 20
634.43908616188571
 11
406.93374979597678
 21
634.43908616188571
  0
LINE
  8
_0-0_計極細
  6
CONTINUOUS
 62
    2
 10
412.93374979597672
 20
629.43908616188571
 11
406.93374979597678
 21
629.43908616188571
  0
LINE
  8
_0-0_計極細
  6
CONTINUOUS
 62
    2
 10
398.93374979597672
 20
634.43908616188571
 11
392.93374979597672
 21
634.43908616188571
  0
LINE
  8
_0-0_計極細
  6
CONTINUOUS
 62
    2
 10
398.93374979597672
 20
629.43908616188571
 11
392.93374979597672
 21
629.43908616188571
  0
LINE
  8
_0-0_計極細
  6
CONTINUOUS
 62
    2
 10
384.93374979597672
 20
634.43908616188571
 11
378.93374979597672
 21
634.43908616188571
  0
LINE
  8
_0-0_計極細
  6
CONTINUOUS
 62
    2
 10
384.93374979597672
 20
629.43908616188571
 11
378.93374979597672
 21
629.43908616188571
  0
LINE
  8
_0-0_計極細
  6
CONTINUOUS
 62
    2
 10
370.93374979597678
 20
634.43908616188571
 11
364.93374979597672
 21
634.43908616188571
  0
LINE
  8
_0-0_計極細
  6
CONTINUOUS
 62
    2
 10
370.93374979597678
 20
629.43908616188571
 11
364.93374979597672
 21
629.43908616188571
  0
LINE
  8
_0-0_計極細
  6
CONTINUOUS
 62
    2
 10
356.93374979597672
 20
634.43908616188571
 11
350.93374979597678
 21
634.43908616188571
  0
LINE
  8
_0-0_計極細
  6
CONTINUOUS
 62
    2
 10
356.93374979597672
 20
629.43908616188571
 11
350.93374979597678
 21
629.43908616188571
  0
LINE
  8
_0-0_計極細
  6
CONTINUOUS
 62
    2
 10
342.93374979597672
 20
634.43908616188571
 11
336.93374979597672
 21
634.43908616188571
  0
LINE
  8
_0-0_計極細
  6
CONTINUOUS
 62
    2
 10
342.93374979597672
 20
629.43908616188571
 11
336.93374979597672
 21
629.43908616188571
  0
LINE
  8
_0-0_計極細
  6
CONTINUOUS
 62
    2
 10
328.93374979597672
 20
634.43908616188571
 11
322.93374979597672
 21
634.43908616188571
  0
LINE
  8
_0-0_計極細
  6
CONTINUOUS
 62
    2
 10
328.93374979597672
 20
629.43908616188571
 11
322.93374979597672
 21
629.43908616188571
  0
LINE
  8
_0-0_計極細
  6
CONTINUOUS
 62
    2
 10
314.93374979597672
 20
634.43908616188571
 11
308.93374979597672
 21
634.43908616188571
  0
LINE
  8
_0-0_計極細
  6
CONTINUOUS
 62
    2
 10
314.93374979597672
 20
629.43908616188571
 11
308.93374979597672
 21
629.43908616188571
  0
LINE
  8
_0-0_計極細
  6
CONTINUOUS
 62
    2
 10
300.93374979597672
 20
634.43908616188571
 11
294.93374979597672
 21
634.43908616188571
  0
LINE
  8
_0-0_計極細
  6
CONTINUOUS
 62
    2
 10
300.93374979597672
 20
629.43908616188571
 11
294.93374979597672
 21
629.43908616188571
  0
LINE
  8
_0-0_計極細
  6
CONTINUOUS
 62
    2
 10
286.93374979597678
 20
634.43908616188571
 11
280.93374979597672
 21
634.43908616188571
  0
LINE
  8
_0-0_計極細
  6
CONTINUOUS
 62
    2
 10
286.93374979597678
 20
629.43908616188571
 11
280.93374979597672
 21
629.43908616188571
  0
LINE
  8
_0-0_計極細
  6
CONTINUOUS
 62
    2
 10
272.93374979597672
 20
634.43908616188571
 11
266.93374979597678
 21
634.43908616188571
  0
LINE
  8
_0-0_計極細
  6
CONTINUOUS
 62
    2
 10
272.93374979597672
 20
629.43908616188571
 11
266.93374979597678
 21
629.43908616188571
  0
LINE
  8
_0-0_計極細
  6
CONTINUOUS
 62
    2
 10
258.93374979597672
 20
634.43908616188571
 11
252.93374979597672
 21
634.43908616188571
  0
LINE
  8
_0-0_計極細
  6
CONTINUOUS
 62
    2
 10
258.93374979597672
 20
629.43908616188571
 11
252.93374979597672
 21
629.43908616188571
  0
LINE
  8
_0-0_計極細
  6
CONTINUOUS
 62
    2
 10
244.93374979597675
 20
634.43908616188571
 11
238.93374979597672
 21
634.43908616188571
  0
LINE
  8
_0-0_計極細
  6
CONTINUOUS
 62
    2
 10
244.93374979597675
 20
629.43908616188571
 11
238.93374979597672
 21
629.43908616188571
  0
LINE
  8
_0-5_寸法線
  6
CONTINUOUS
 62
    7
 10
230.93374979597678
 20
771.93908616188583
 11
230.93374979597669
 21
816.93908616188583
  0
LINE
  8
_0-5_寸法線
  6
CONTINUOUS
 62
    7
 10
230.93374979597669
 20
811.93908616188583
 11
240.59300805886744
 21
814.5272766129109
  0
LINE
  8
_0-5_寸法線
  6
CONTINUOUS
 62
    7
 10
230.93374979597669
 20
811.93908616188583
 11
240.59300805886744
 21
809.35089571086053
  0
LINE
  8
_0-5_寸法線
  6
CONTINUOUS
 62
    7
 10
1218.9337497959768
 20
771.93908616188583
 11
1218.9337497959768
 21
816.93908616188583
  0
LINE
  8
_0-5_寸法線
  6
CONTINUOUS
 62
    7
 10
1218.9337497959768
 20
811.93908616188583
 11
1209.2744915330861
 21
809.35089571086053
  0
LINE
  8
_0-5_寸法線
  6
CONTINUOUS
 62
    7
 10
1218.9337497959768
 20
811.93908616188583
 11
1209.2744915330861
 21
814.5272766129109
  0
LINE
  8
_0-5_寸法線
  6
CONTINUOUS
 62
    7
 10
230.93374979597669
 20
811.93908616188583
 11
1218.9337497959768
 21
811.93908616188583
  0
TEXT
  8
_0-5_寸法線
 62
    7
 10
713.68374979597672
 20
811.93908616188583
 40
15
 41
1
 50
0
  1
988
  0
TEXT
  8
_0-5_寸法線
 62
    7
 10
575.70543561620389
 20
544.12447591872603
 40
15
 41
0.8000000000000001
 50
0
  1
ＧＳＬ－２０
  0
TEXT
  8
_0-5_寸法線
 62
    7
 10
798.82080538973185
 20
544.12447591872603
 40
15
 41
0.8000000000000001
 50
0
  1
ＧＳＴＪ－２０Ｗ１５０
  0
TEXT
  8
_0-7_枠細線
 62
    5
 10
965.50000000000011
 20
110
 40
20
 41
0.6
 50
0
  1
ＧＳＴＪ－２０Ｗ１５０
  0
TEXT
  8
_0-7_枠細線
 62
    5
 10
965.49999999999966
 20
70
 40
20.000000000000004
 41
0.5999999999999997
 50
0
  1
表面形状については記号表参照のこと
  0
LINE
  8
_0-7_枠細線
  6
CONTINUOUS
 62
    5
 10
1409.4018171150183
 20
328.47321710336223
 11
1409.4018171150183
 21
223.47321710336274
  0
TEXT
  8
_0-7_枠細線
 62
    5
 10
1318.4018171150192
 20
308.47321710336223
 40
15.000000000000002
 41
0.8
 50
0
  1
ノンスリップ
  0
TEXT
  8
_0-7_枠細線
 62
    5
 10
1330.4018171150185
 20
283.47321710336234
 40
15.000000000000002
 41
0.8
 50
0
  1
品番－Ｄ
  0
LINE
  8
_0-7_枠細線
  6
CONTINUOUS
 62
    5
 10
1299.4018171150178
 20
328.47321710336223
 11
1299.4018171150178
 21
223.47321710336274
  0
TEXT
  8
_0-7_枠細線
 62
    5
 10
1220.4018171150178
 20
308.47321710336234
 40
15.000000000000002
 41
0.8
 50
0
  1
プレーン
  0
TEXT
  8
_0-7_枠細線
 62
    5
 10
1220.4018171150185
 20
283.47321710336234
 40
15.000000000000002
 41
0.8
 50
0
  1
品番－Ｆ
  0
TEXT
  8
_0-7_枠細線
 62
    5
 10
1140.4018171150183
 20
308.47321710336223
 40
15.000000000000002
 41
0.8
 50
0
  1
タ イ プ
  0
LINE
  8
_0-7_枠細線
  6
CONTINUOUS
 62
    5
 10
1139.4018171150174
 20
278.47321710336234
 11
1409.4018171150183
 21
278.47321710336234
  0
LINE
  8
_0-7_枠細線
  6
CONTINUOUS
 62
    5
 10
1139.4018171150174
 20
303.47321710336223
 11
1409.4018171150183
 21
303.47321710336223
  0
LINE
  8
_0-7_枠細線
  6
CONTINUOUS
 62
    5
 10
1139.4018171150174
 20
328.47321710336223
 11
1409.4018171150183
 21
328.47321710336223
  0
LINE
  8
_0-7_枠細線
  6
CONTINUOUS
 62
    5
 10
1139.4018171150174
 20
223.47321710336274
 11
1409.4018171150183
 21
223.47321710336274
  0
LINE
  8
_0-7_枠細線
  6
CONTINUOUS
 62
    5
 10
1189.4018171150183
 20
328.47321710336223
 11
1189.4018171150183
 21
223.47321710336274
  0
LINE
  8
_0-7_枠細線
  6
CONTINUOUS
 62
    5
 10
1139.4018171150174
 20
328.47321710336223
 11
1139.4018171150174
 21
223.47321710336274
  0
TEXT
  8
_0-7_枠細線
 62
    5
 10
1140.4018171150183
 20
243.47321710336257
 40
15.000000000000002
 41
0.8
 50
0
  1
表面形状
  0
TEXT
  8
_0-7_枠細線
 62
    5
 10
1147.1760284558286
 20
330.9732171033624
 40
17.500000000000004
 41
0.7999999999999996
 50
0
  1
記号表
  0
TEXT
  8
_0-7_枠細線
 62
    5
 10
1140.4018171150183
 20
283.47321710336246
 40
15.000000000000002
 41
0.8
 50
0
  1
記　　号
  0
ARC
  8
_0-7_枠細線
  6
CONTINUOUS
 62
    5
 10
1282.9664605906703
 20
242.85777402966897
 40
12.026499332130607
 50
317.5616290000047
 51
42.438370999994966
  0
ARC
  8
_0-7_枠細線
  6
CONTINUOUS
 62
    5
 10
1300.7176602555628
 20
259.08866002804609
 40
12.026499332130607
 50
137.56162900000001
 51
222.43837100000297
  0
ARC
  8
_0-7_枠細線
  6
CONTINUOUS
 62
    5
 10
1188.0859738141417
 20
242.85777402966897
 40
12.026499332130607
 50
317.5616290000047
 51
42.438370999994966
  0
ARC
  8
_0-7_枠細線
  6
CONTINUOUS
 62
    5
 10
1205.8371734790342
 20
259.08866002804609
 40
12.026499332130607
 50
137.56162900000001
 51
222.43837100000297
  0
LINE
  8
_0-7_枠細線
  6
CONTINUOUS
 62
    5
 10
1194.4553061852557
 20
262.97321702885733
 11
1289.3357929617841
 21
262.97321702885733
  0
LINE
  8
_0-7_枠細線
  6
CONTINUOUS
 62
    5
 10
1294.3483278844485
 20
238.97321702885733
 11
1199.4678411079201
 21
238.97321702885733
  0
ARC
  8
_0-7_枠細線
  6
CONTINUOUS
 62
    5
 10
1392.966460590671
 20
242.85777402966897
 40
12.026499332130607
 50
317.5616290000047
 51
42.438370999994966
  0
ARC
  8
_0-7_枠細線
  6
CONTINUOUS
 62
    5
 10
1410.7176602555635
 20
259.08866002804609
 40
12.026499332130607
 50
137.56162900000001
 51
222.43837100000297
  0
ARC
  8
_0-7_枠細線
  6
CONTINUOUS
 62
    5
 10
1298.0859738141421
 20
242.85777402966897
 40
12.026499332130607
 50
317.5616290000047
 51
42.438370999994966
  0
ARC
  8
_0-7_枠細線
  6
CONTINUOUS
 62
    5
 10
1315.8371734790348
 20
259.08866002804609
 40
12.026499332130607
 50
137.56162900000001
 51
222.43837100000297
  0
LINE
  8
_0-7_枠細線
  6
CONTINUOUS
 62
    5
 10
1304.4553061852562
 20
262.97321702885733
 11
1399.3357929617846
 21
262.97321702885733
  0
LINE
  8
_0-7_枠細線
  6
CONTINUOUS
 62
    5
 10
1404.3483278844492
 20
238.97321702885733
 11
1309.4678411079208
 21
238.97321702885733
  0
LINE
  8
_0-7_枠細線
  6
CONTINUOUS
 62
    5
 10
1310.0055655050667
 20
244.4577803132122
 11
1315.4901287894213
 21
238.9732170288575
  0
LINE
  8
_0-7_枠細線
  6
CONTINUOUS
 62
    5
 10
1304.3960893257238
 20
262.79517855391305
 11
1328.218050850779
 21
238.97321702885748
  0
LINE
  8
_0-7_枠細線
  6
CONTINUOUS
 62
    5
 10
1316.9459729121372
 20
262.97321702885745
 11
1340.9459729121368
 21
238.97321702885748
  0
LINE
  8
_0-7_枠細線
  6
CONTINUOUS
 62
    5
 10
1329.6738949734947
 20
262.97321702885745
 11
1353.6738949734945
 21
238.97321702885748
  0
LINE
  8
_0-7_枠細線
  6
CONTINUOUS
 62
    5
 10
1342.4018170348527
 20
262.97321702885745
 11
1366.4018170348525
 21
238.97321702885745
  0
LINE
  8
_0-7_枠細線
  6
CONTINUOUS
 62
    5
 10
1355.1297390962102
 20
262.97321702885733
 11
1379.12973909621
 21
238.97321702885739
  0
LINE
  8
_0-7_枠細線
  6
CONTINUOUS
 62
    5
 10
1367.8576611575681
 20
262.97321702885733
 11
1391.8576611575677
 21
238.97321702885739
  0
LINE
  8
_0-7_枠細線
  6
CONTINUOUS
 62
    5
 10
1380.5855832189261
 20
262.97321702885733
 11
1404.4075447439814
 21
239.15125550380145
  0
LINE
  8
_0-7_枠細線
  6
CONTINUOUS
 62
    5
 10
1393.3135052802836
 20
262.97321702885733
 11
1398.7980685646389
 21
257.48865374450202
  0
LINE
  8
_0-7_枠細線
  6
CONTINUOUS
 62
    5
 10
1393.3135052802843
 20
238.97321702885739
 11
1403.3188705607763
 21
248.97858230934932
  0
LINE
  8
_0-7_枠細線
  6
CONTINUOUS
 62
    5
 10
1380.5855832189263
 20
238.97321702885739
 11
1398.8365633238182
 21
257.22419713374904
  0
LINE
  8
_0-7_枠細線
  6
CONTINUOUS
 62
    5
 10
1367.8576611575684
 20
238.97321702885745
 11
1391.8576611575686
 21
262.97321702885733
  0
LINE
  8
_0-7_枠細線
  6
CONTINUOUS
 62
    5
 10
1355.1297390962109
 20
238.97321702885748
 11
1379.1297390962106
 21
262.97321702885733
  0
LINE
  8
_0-7_枠細線
  6
CONTINUOUS
 62
    5
 10
1342.4018170348527
 20
238.97321702885748
 11
1366.4018170348527
 21
262.97321702885733
  0
LINE
  8
_0-7_枠細線
  6
CONTINUOUS
 62
    5
 10
1329.673894973495
 20
238.97321702885748
 11
1353.673894973495
 21
262.97321702885733
  0
LINE
  8
_0-7_枠細線
  6
CONTINUOUS
 62
    5
 10
1316.9459729121374
 20
238.9732170288575
 11
1340.9459729121372
 21
262.97321702885745
  0
LINE
  8
_0-7_枠細線
  6
CONTINUOUS
 62
    5
 10
1309.9670707458877
 20
244.72223692396568
 11
1328.2180508507793
 21
262.97321702885745
  0
LINE
  8
_0-7_枠細線
  6
CONTINUOUS
 62
    5
 10
1305.4847635089297
 20
252.96785174836555
 11
1315.4901287894218
 21
262.97321702885745
  0
LINE
  8
_0-9_枠極太
  6
CONTINUOUS
 62
    5
 10
60
 20
60
 11
60
 21
960
  0
LINE
  8
_0-9_枠極太
  6
CONTINUOUS
 62
    5
 10
60
 20
960
 11
1425
 21
960
  0
LINE
  8
_0-9_枠極太
  6
CONTINUOUS
 62
    5
 10
1425
 20
960
 11
1425
 21
60
  0
LINE
  8
_0-9_枠極太
  6
CONTINUOUS
 62
    5
 10
1425
 20
60
 11
60
 21
60
  0
LINE
  8
_0-5_寸法線
  6
CONTINUOUS
 62
    7
 10
190.93374979597718
 20
601.93908616188639
 11
145.93374979597698
 21
601.93908616188651
  0
LINE
  8
_0-5_寸法線
  6
CONTINUOUS
 62
    7
 10
150.93374979597698
 20
601.93908616188651
 11
148.34555934495185
 21
611.59834442477722
  0
LINE
  8
_0-5_寸法線
  6
CONTINUOUS
 62
    7
 10
150.93374979597698
 20
601.93908616188651
 11
153.52194024700225
 21
611.59834442477722
  0
LINE
  8
_0-5_寸法線
  6
CONTINUOUS
 62
    7
 10
190.93374979597797
 20
631.93908616188912
 11
145.93374979597698
 21
631.93908616188924
  0
LINE
  8
_0-5_寸法線
  6
CONTINUOUS
 62
    7
 10
150.93374979597698
 20
631.93908616188924
 11
153.52194024700219
 21
622.27982789899852
  0
LINE
  8
_0-5_寸法線
  6
CONTINUOUS
 62
    7
 10
150.93374979597698
 20
631.93908616188924
 11
148.34555934495177
 21
622.27982789899852
  0
LINE
  8
_0-5_寸法線
  6
CONTINUOUS
 62
    7
 10
150.93374979597698
 20
601.93908616188651
 11
150.93374979597698
 21
631.93908616188924
  0
TEXT
  8
_0-5_寸法線
 62
    7
 10
150.93374979597698
 20
609.43908616188605
 40
15
 41
1
 50
90
  1
30
  0
LINE
  8
_0-5_寸法線
  6
CONTINUOUS
 62
    7
 10
150.93374979597698
 20
631.93908616188924
 11
148.34555934495185
 21
641.59834442477995
  0
LINE
  8
_0-5_寸法線
  6
CONTINUOUS
 62
    7
 10
150.93374979597698
 20
631.93908616188924
 11
153.52194024700225
 21
641.59834442477995
  0
LINE
  8
_0-5_寸法線
  6
CONTINUOUS
 62
    7
 10
190.93374979597598
 20
731.93908616188446
 11
145.93374979597698
 21
731.93908616188469
  0
LINE
  8
_0-5_寸法線
  6
CONTINUOUS
 62
    7
 10
150.93374979597698
 20
731.93908616188469
 11
153.52194024700219
 21
722.27982789899386
  0
LINE
  8
_0-5_寸法線
  6
CONTINUOUS
 62
    7
 10
150.93374979597698
 20
731.93908616188469
 11
148.34555934495177
 21
722.27982789899386
  0
LINE
  8
_0-5_寸法線
  6
CONTINUOUS
 62
    7
 10
150.93374979597698
 20
631.93908616188924
 11
150.93374979597698
 21
731.93908616188469
  0
TEXT
  8
_0-5_寸法線
 62
    7
 10
150.93374979597698
 20
670.68908616188605
 40
15
 41
1
 50
89.999999999999815
  1
100
  0
LINE
  8
_0-5_寸法線
  6
CONTINUOUS
 62
    7
 10
150.93374979597698
 20
731.93908616188469
 11
148.34555934495185
 21
741.59834442477529
  0
LINE
  8
_0-5_寸法線
  6
CONTINUOUS
 62
    7
 10
150.93374979597698
 20
731.93908616188469
 11
153.52194024700225
 21
741.59834442477529
  0
LINE
  8
_0-5_寸法線
  6
CONTINUOUS
 62
    7
 10
190.93374979597826
 20
761.93908616188901
 11
145.93374979597698
 21
761.93908616188924
  0
LINE
  8
_0-5_寸法線
  6
CONTINUOUS
 62
    7
 10
150.93374979597698
 20
761.93908616188924
 11
153.52194024700219
 21
752.27982789899841
  0
LINE
  8
_0-5_寸法線
  6
CONTINUOUS
 62
    7
 10
150.93374979597698
 20
761.93908616188924
 11
148.34555934495177
 21
752.27982789899841
  0
LINE
  8
_0-5_寸法線
  6
CONTINUOUS
 62
    7
 10
150.93374979597698
 20
731.93908616188469
 11
150.93374979597698
 21
761.93908616188924
  0
TEXT
  8
_0-5_寸法線
 62
    7
 10
150.93374979597698
 20
739.43908616188605
 40
15
 41
1
 50
90
  1
30
  0
LINE
  8
_0-5_寸法線
  6
CONTINUOUS
 62
    7
 10
1258.9337497959775
 20
601.93908616188753
 11
1338.9337497959766
 21
601.93908616188742
  0
LINE
  8
_0-5_寸法線
  6
CONTINUOUS
 62
    7
 10
1333.9337497959766
 20
601.93908616188742
 11
1331.3455593449517
 21
611.59834442477802
  0
LINE
  8
_0-5_寸法線
  6
CONTINUOUS
 62
    7
 10
1333.9337497959766
 20
601.93908616188742
 11
1336.5219402470018
 21
611.59834442477802
  0
LINE
  8
_0-5_寸法線
  6
CONTINUOUS
 62
    7
 10
1258.9337497959782
 20
761.93908616188821
 11
1338.9337497959766
 21
761.9390861618881
  0
LINE
  8
_0-5_寸法線
  6
CONTINUOUS
 62
    7
 10
1333.9337497959766
 20
761.9390861618881
 11
1336.5219402470018
 21
752.27982789899727
  0
LINE
  8
_0-5_寸法線
  6
CONTINUOUS
 62
    7
 10
1333.9337497959766
 20
761.9390861618881
 11
1331.3455593449517
 21
752.27982789899727
  0
LINE
  8
_0-5_寸法線
  6
CONTINUOUS
 62
    7
 10
1333.9337497959766
 20
601.93908616188742
 11
1333.9337497959766
 21
761.9390861618881
  0
TEXT
  8
_0-5_寸法線
 62
    7
 10
1333.9337497959766
 20
670.68908616188537
 40
15
 41
1
 50
90
  1
160
  0
LINE
  8
_0-a_極細3
  6
CONTINUOUS
 62
    7
 10
607.5973264368389
 20
251.56810602460041
 11
603.76399310350553
 21
251.56810602460041
  0
LINE
  8
_0-a_極細3
  6
CONTINUOUS
 62
    7
 10
607.5973264368389
 20
254.9014393579339
 11
603.76399310350553
 21
254.9014393579339
  0
LINE
  8
_0-a_極細3
  6
CONTINUOUS
 62
    7
 10
607.5973264368389
 20
248.23477269126715
 11
603.76399310350553
 21
248.23477269126715
  0
LINE
  8
_0-a_極細3
  6
CONTINUOUS
 62
    7
 10
607.5973264368389
 20
258.23477269126715
 11
603.76399310350553
 21
258.23477269126715
  0
LINE
  8
_0-a_極細3
  6
CONTINUOUS
 62
    7
 10
603.76399310350553
 20
224.9014393579339
 11
607.5973264368389
 21
224.9014393579339
  0
LINE
  8
_0-a_極細3
  6
CONTINUOUS
 62
    7
 10
607.5973264368389
 20
274.9014393579339
 11
603.76399310350553
 21
274.9014393579339
  0
LINE
  8
_0-b_細線3
  6
CONTINUOUS
 62
    7
 10
603.76399310350553
 20
278.23477269126715
 11
603.76399310350553
 21
219.9014393579339
  0
LINE
  8
_0-b_細線3
  6
CONTINUOUS
 62
    7
 10
603.76399310350553
 20
219.9014393579339
 11
607.5973264368389
 21
219.9014393579339
  0
LINE
  8
_0-b_細線3
  6
CONTINUOUS
 62
    7
 10
607.5973264368389
 20
219.9014393579339
 11
607.5973264368389
 21
278.23477269126715
  0
LINE
  8
_0-b_細線3
  6
CONTINUOUS
 62
    7
 10
607.5973264368389
 20
278.23477269126715
 11
603.76399310350553
 21
278.23477269126715
  0
LINE
  8
_0-7_枠細線
  6
CONTINUOUS
 62
    5
 10
626.68319453007837
 20
255.9635226874212
 11
619.18319453007837
 21
270.96352268742118
  0
LINE
  8
_0-7_枠細線
  6
CONTINUOUS
 62
    5
 10
611.68319453007837
 20
255.9635226874212
 11
626.68319453007837
 21
255.9635226874212
  0
LINE
  8
_0-7_枠細線
  6
CONTINUOUS
 62
    5
 10
619.18319453007837
 20
270.96352268742118
 11
611.68319453007837
 21
255.9635226874212
  0
TEXT
  8
_0-7_枠細線
 62
    5
 10
614.04834579822648
 20
255.65652044204063
 40
12.5
 41
0.8
 50
0
  1
１
  0
LINE
  8
_0-a_極細3
  6
CONTINUOUS
 62
    7
 10
333.26399310350507
 20
251.56810602460041
 11
337.09732643683844
 21
251.56810602460041
  0
LINE
  8
_0-a_極細3
  6
CONTINUOUS
 62
    7
 10
333.26399310350507
 20
254.9014393579339
 11
337.09732643683844
 21
254.9014393579339
  0
LINE
  8
_0-a_極細3
  6
CONTINUOUS
 62
    7
 10
333.26399310350507
 20
248.23477269126715
 11
337.09732643683844
 21
248.23477269126715
  0
LINE
  8
_0-a_極細3
  6
CONTINUOUS
 62
    7
 10
333.26399310350507
 20
258.23477269126715
 11
337.09732643683844
 21
258.23477269126715
  0
LINE
  8
_0-a_極細3
  6
CONTINUOUS
 62
    7
 10
337.09732643683844
 20
224.9014393579339
 11
333.26399310350507
 21
224.9014393579339
  0
LINE
  8
_0-a_極細3
  6
CONTINUOUS
 62
    7
 10
333.26399310350507
 20
274.9014393579339
 11
337.09732643683844
 21
274.9014393579339
  0
LINE
  8
_0-b_細線3
  6
CONTINUOUS
 62
    7
 10
337.09732643683844
 20
278.23477269126715
 11
337.09732643683844
 21
219.9014393579339
  0
LINE
  8
_0-b_細線3
  6
CONTINUOUS
 62
    7
 10
337.09732643683844
 20
219.9014393579339
 11
333.26399310350507
 21
219.9014393579339
  0
LINE
  8
_0-b_細線3
  6
CONTINUOUS
 62
    7
 10
333.26399310350507
 20
219.9014393579339
 11
333.26399310350507
 21
278.23477269126715
  0
LINE
  8
_0-b_細線3
  6
CONTINUOUS
 62
    7
 10
333.26399310350507
 20
278.23477269126715
 11
337.09732643683844
 21
278.23477269126715
  0
LINE
  8
_0-7_枠細線
  6
CONTINUOUS
 62
    5
 10
1425
 20
907.5
 11
890
 21
907.5
  0
LINE
  8
_0-7_枠細線
  6
CONTINUOUS
 62
    5
 10
915
 20
908.94233397174708
 11
907.5
 21
923.94233397174708
  0
LINE
  8
_0-7_枠細線
  6
CONTINUOUS
 62
    5
 10
900
 20
908.94233397174708
 11
915
 21
908.94233397174708
  0
LINE
  8
_0-7_枠細線
  6
CONTINUOUS
 62
    5
 10
907.5
 20
923.94233397174708
 11
900
 21
908.94233397174708
  0
TEXT
  8
_0-7_枠細線
 62
    5
 10
902.36515126814822
 20
908.63533172636653
 40
12.5
 41
0.8
 50
0
  1
１
  0
TEXT
  8
_0-7_枠細線
 62
    5
 10
1180
 20
910
 40
12.5
 41
0.7199999999999999
 50
0
  1
２０１９．０９．０１
  0
TEXT
  8
_0-7_枠細線
 62
    5
 10
938.85037037037023
 20
910
 40
12.500000000000002
 41
1
 50
0
  1
アンカー材質･厚み変更
  0
LINE
  8
_0-7_枠細線
  6
CONTINUOUS
 62
    5
 10
890
 20
907.5
 11
890
 21
959.99999999999909
  0
LINE
  8
_0-7_枠細線
  6
CONTINUOUS
 62
    5
 10
925
 20
907.5
 11
925
 21
959.99999999999943
  0
LINE
  8
_0-7_枠細線
  6
CONTINUOUS
 62
    5
 10
1175
 20
907.5
 11
1175
 21
959.99999999999943
  0
LINE
  8
_0-7_枠細線
  6
CONTINUOUS
 62
    5
 10
1275
 20
907.5
 11
1275
 21
959.99999999999943
  0
LINE
  8
_0-0_計極細
  6
CENTER2
 62
    2
 10
1248.9337497959759
 20
681.93908616188662
 11
200.93374979597598
 21
681.93908616188662
  0
LINE
  8
_0-5_寸法線
  6
CONTINUOUS
 62
    7
 10
1258.9337497959766
 20
601.93908616188571
 11
1303.9337497959766
 21
601.9390861618856
  0
LINE
  8
_0-5_寸法線
  6
CONTINUOUS
 62
    7
 10
1298.9337497959766
 20
601.9390861618856
 11
1301.5219402470018
 21
592.27982789899488
  0
LINE
  8
_0-5_寸法線
  6
CONTINUOUS
 62
    7
 10
1298.9337497959766
 20
601.9390861618856
 11
1296.3455593449517
 21
592.27982789899488
  0
LINE
  8
_0-5_寸法線
  6
CONTINUOUS
 62
    7
 10
1258.9337497959766
 20
604.93908616188583
 11
1303.9337497959766
 21
604.9390861618856
  0
CIRCLE
  8
_0-5_寸法線
  6
CONTINUOUS
 62
    1
 10
1298.9337497959766
 20
604.9390861618856
 40
1.5000000000000002
  0
LINE
  8
_0-5_寸法線
  6
CONTINUOUS
 62
    7
 10
1298.9337497959766
 20
576.9390861618856
 11
1298.9337497959766
 21
604.9390861618856
  0
TEXT
  8
_0-5_寸法線
 62
    7
 10
1298.9337497959766
 20
581.73720680373617
 40
15
 41
1
 50
90
  1
3
  0
LINE
  8
_0-5_寸法線
  6
CONTINUOUS
 62
    7
 10
1258.9337497959766
 20
606.93908616188583
 11
1303.9337497959766
 21
606.93908616188571
  0
LINE
  8
_0-5_寸法線
  6
CONTINUOUS
 62
    7
 10
1298.9337497959766
 20
604.9390861618856
 11
1298.9337497959766
 21
606.93908616188571
  0
TEXT
  8
_0-5_寸法線
 62
    7
 10
1317.3247848191691
 20
604.93908616188583
 40
15
 41
1
 50
90
  1
2
  0
LINE
  8
_0-5_寸法線
  6
CONTINUOUS
 62
    7
 10
1298.9337497959766
 20
606.93908616188571
 11
1296.3455593449517
 21
616.59834442477643
  0
LINE
  8
_0-5_寸法線
  6
CONTINUOUS
 62
    7
 10
1298.9337497959766
 20
606.93908616188571
 11
1301.5219402470018
 21
616.59834442477643
  0
LINE
  8
_0-5_寸法線
  6
CONTINUOUS
 62
    7
 10
1258.9337497959766
 20
756.93908616188583
 11
1303.9337497959766
 21
756.93908616188583
  0
LINE
  8
_0-5_寸法線
  6
CONTINUOUS
 62
    7
 10
1298.9337497959766
 20
756.93908616188583
 11
1301.5219402470018
 21
747.27982789899499
  0
LINE
  8
_0-5_寸法線
  6
CONTINUOUS
 62
    7
 10
1298.9337497959766
 20
756.93908616188583
 11
1296.3455593449517
 21
747.27982789899499
  0
LINE
  8
_0-5_寸法線
  6
CONTINUOUS
 62
    7
 10
1298.9337497959766
 20
606.93908616188571
 11
1298.9337497959766
 21
756.93908616188583
  0
TEXT
  8
_0-5_寸法線
 62
    7
 10
1298.9337497959766
 20
670.68908616188583
 40
15
 41
1
 50
90
  1
150
  0
LINE
  8
_0-5_寸法線
  6
CONTINUOUS
 62
    7
 10
1258.9337497959766
 20
758.93908616188571
 11
1303.9337497959766
 21
758.93908616188571
  0
CIRCLE
  8
_0-5_寸法線
  6
CONTINUOUS
 62
    1
 10
1298.9337497959766
 20
758.93908616188571
 40
1.5000000000000002
  0
LINE
  8
_0-5_寸法線
  6
CONTINUOUS
 62
    7
 10
1298.9337497959766
 20
756.93908616188583
 11
1298.9337497959766
 21
758.93908616188571
  0
TEXT
  8
_0-5_寸法線
 62
    7
 10
1317.8682621935798
 20
751.43908616188571
 40
15
 41
1
 50
90
  1
2
  0
LINE
  8
_0-5_寸法線
  6
CONTINUOUS
 62
    7
 10
1258.9337497959782
 20
761.93908616188821
 11
1303.9337497959766
 21
761.9390861618881
  0
LINE
  8
_0-5_寸法線
  6
CONTINUOUS
 62
    7
 10
1298.9337497959766
 20
761.9390861618881
 11
1296.3455593449517
 21
771.59834442477882
  0
LINE
  8
_0-5_寸法線
  6
CONTINUOUS
 62
    7
 10
1298.9337497959766
 20
761.9390861618881
 11
1301.5219402470018
 21
771.59834442477882
  0
LINE
  8
_0-5_寸法線
  6
CONTINUOUS
 62
    7
 10
1298.9337497959766
 20
758.93908616188571
 11
1298.9337497959766
 21
786.93908616188821
  0
TEXT
  8
_0-5_寸法線
 62
    7
 10
1298.9337497959766
 20
774.16696433959783
 40
15
 41
1
 50
90
  1
3
  0
LINE
  8
_0-d_寸法3
  6
CONTINUOUS
 62
    7
 10
337.09732643683901
 20
381.56810602460041
 11
327.4380681739483
 21
378.97991557357523
  0
LINE
  8
_0-d_寸法3
  6
CONTINUOUS
 62
    7
 10
337.09732643683901
 20
381.56810602460041
 11
327.43806817394835
 21
384.15629647562571
  0
LINE
  8
_0-d_寸法3
  6
CONTINUOUS
 62
    7
 10
342.09732643683873
 20
300.73477269126693
 11
342.09732643683901
 21
386.56810602460041
  0
CIRCLE
  8
_0-d_寸法3
  6
CONTINUOUS
 62
    1
 10
342.09732643683901
 20
381.56810602460041
 40
1.5000000000000002
  0
LINE
  8
_0-d_寸法3
  6
CONTINUOUS
 62
    7
 10
312.0973264368389
 20
381.56810602460041
 11
342.09732643683901
 21
381.56810602460041
  0
TEXT
  8
_0-d_寸法3
 62
    7
 10
315.95265849291582
 20
381.56810602460041
 40
15
 41
1
 50
0
  1
3
  0
LINE
  8
_0-d_寸法3
  6
CONTINUOUS
 62
    7
 10
345.43065977017181
 20
298.23477102292259
 11
345.43065977017199
 21
386.56810602460041
  0
LINE
  8
_0-d_寸法3
  6
CONTINUOUS
 62
    7
 10
342.09732643683901
 20
381.56810602460041
 11
345.43065977017199
 21
381.56810602460041
  0
TEXT
  8
_0-d_寸法3
 62
    7
 10
340.01399310350502
 20
381.56810602460041
 40
15
 41
1
 50
0
  1
2
  0
LINE
  8
_0-d_寸法3
  6
CONTINUOUS
 62
    7
 10
345.43065977017199
 20
381.56810602460041
 11
355.08991803306265
 21
384.1562964756256
  0
LINE
  8
_0-d_寸法3
  6
CONTINUOUS
 62
    7
 10
345.43065977017199
 20
381.56810602460041
 11
355.08991803306265
 21
378.97991557357523
  0
LINE
  8
_0-d_寸法3
  6
CONTINUOUS
 62
    7
 10
595.43065977017204
 20
298.23477102292259
 11
595.43065977017204
 21
386.56810602460041
  0
LINE
  8
_0-d_寸法3
  6
CONTINUOUS
 62
    7
 10
595.43065977017204
 20
381.56810602460041
 11
585.77140150728133
 21
378.97991557357523
  0
LINE
  8
_0-d_寸法3
  6
CONTINUOUS
 62
    7
 10
595.43065977017204
 20
381.56810602460041
 11
585.77140150728133
 21
384.15629647562571
  0
LINE
  8
_0-d_寸法3
  6
CONTINUOUS
 62
    7
 10
345.43065977017199
 20
381.56810602460041
 11
595.43065977017204
 21
381.56810602460041
  0
TEXT
  8
_0-d_寸法3
 62
    7
 10
459.18065977017199
 20
381.56810602460041
 40
15
 41
1
 50
0
  1
150
  0
LINE
  8
_0-d_寸法3
  6
CONTINUOUS
 62
    7
 10
598.76399310350507
 20
300.73477269126693
 11
598.76399310350507
 21
386.56810602460041
  0
CIRCLE
  8
_0-d_寸法3
  6
CONTINUOUS
 62
    1
 10
598.76399310350507
 20
381.56810602460041
 40
1.5000000000000002
  0
LINE
  8
_0-d_寸法3
  6
CONTINUOUS
 62
    7
 10
595.43065977017204
 20
381.56810602460041
 11
598.76399310350507
 21
381.56810602460041
  0
TEXT
  8
_0-d_寸法3
 62
    7
 10
593.34732643683856
 20
381.56810602460041
 40
15
 41
1
 50
0
  1
2
  0
LINE
  8
_0-d_寸法3
  6
CONTINUOUS
 62
    7
 10
603.76399310350507
 20
381.56810602460041
 11
613.42325136639579
 21
384.15629647562554
  0
LINE
  8
_0-d_寸法3
  6
CONTINUOUS
 62
    7
 10
603.76399310350507
 20
381.56810602460041
 11
613.42325136639579
 21
378.97991557357523
  0
LINE
  8
_0-d_寸法3
  6
CONTINUOUS
 62
    7
 10
598.76399310350507
 20
381.56810602460041
 11
628.76399310350507
 21
381.56810602460041
  0
TEXT
  8
_0-d_寸法3
 62
    7
 10
618.11931057317861
 20
381.56810602460041
 40
15
 41
1
 50
0
  1
3
  0
ENDSEC
  0
EOF
