  0
SECTION
  2
HEADER
  9
$ACADVER
  1
AC1009
  9
$INSBASE
 10
0
 20
0
 30
0
  9
$EXTMIN
 10
0
 20
0
  9
$EXTMAX
 10
1485
 20
1050
  9
$LIMMIN
 10
0
 20
0
  9
$LIMMAX
 10
1485
 20
1050
  9
$LTSCALE
 40
5
  0
ENDSEC
  0
SECTION
  2
TABLES
  0
TABLE
  2
LTYPE
 70
     9
  0
LTYPE
  2
CONTINUOUS
 70
    64
  3
実線
 72
    65
 73
     0
 40
0.0
  0
LTYPE
  2
DASHED1
 70
    64
  3
--  --  --  --  --  --  --  --  
 72
    65
 73
     2
 40
2.5
 49
1.25
 49
-1.25
  0
LTYPE
  2
DASHED2
 70
    64
  3
----    ----    ----    ----    
 72
    65
 73
     2
 40
5.0
 49
2.5
 49
-2.5
  0
LTYPE
  2
DASHED3
 70
    64
  3
------  ------  ------  ------  
 72
    65
 73
     2
 40
5.0
 49
3.75
 49
-1.25
  0
LTYPE
  2
CENTER1
 70
    64
  3
----- - ----- - ----- - ----- - 
 72
    65
 73
     4
 40
10.0
 49
6.25
 49
-1.25
 49
1.25
 49
-1.25
  0
LTYPE
  2
CENTER2
 70
    64
  3
----------  --  ----------  --  
 72
    65
 73
     4
 40
20.0
 49
12.5
 49
-2.5
 49
2.5
 49
-2.5
  0
LTYPE
  2
PHANTOM1
 70
    64
  3
--- - - --- - - --- - - --- - - 
 72
    65
 73
     6
 40
10.0
 49
3.25
 49
-1.25
 49
1.25
 49
-1.25
 49
1.25
 49
-1.25
  0
LTYPE
  2
PHANTOM2
 70
    64
  3
--------  -  -  --------  -  -  
 72
    65
 73
     6
 40
20.0
 49
10.0
 49
-2.5
 49
1.25
 49
-2.5
 49
1.25
 49
-2.5
  0
LTYPE
  2
DOT
 70
    64
  3
-   -   -   -   -   -   -   -   
 72
    65
 73
     2
 40
2.5
 49
0.625
 49
-1.875
  0
LTYPE
  2
DUMMY
 70
    64
  3
ダミー
 72
    65
 73
     0
 40
0.0
  0
LTYPE
  2
RAND1
 70
    64
  3
ランダム線1
 72
    65
 73
     4
 40
10.0
 49
1.0
 49
-2.0
 49
3.0
 49
-4.0
  0
LTYPE
  2
RAND2
 70
    64
  3
ランダム線2
 72
    65
 73
     4
 40
14.0
 49
2.0
 49
-3.0
 49
4.0
 49
-5.0
  0
LTYPE
  2
RAND3
 70
    64
  3
ランダム線3
 72
    65
 73
     4
 40
18.0
 49
3.0
 49
-4.0
 49
5.0
 49
-6.0
  0
LTYPE
  2
RAND4
 70
    64
  3
ランダム線4
 72
    65
 73
     4
 40
22.0
 49
4.0
 49
-5.0
 49
6.0
 49
-7.0
  0
LTYPE
  2
RAND5
 70
    64
  3
ランダム線5
 72
    65
 73
     4
 40
26.0
 49
5.0
 49
-6.0
 49
7.0
 49
-8.0
  0
LTYPE
  2
LONG1
 70
    64
  3
----------  --  ----------  --  
 72
    65
 73
     4
 40
40.0
 49
32.5
 49
-2.5
 49
2.5
 49
-2.5
  0
LTYPE
  2
LONG2
 70
    64
  3
--------  -  -  --------  -  -  
 72
    65
 73
     6
 40
40.0
 49
30.0
 49
-2.5
 49
1.25
 49
-2.5
 49
1.25
 49
-2.5
  0
LTYPE
  2
LONG3
 70
    64
  3
+++++++++++++++..+++++++++++++++
 72
    65
 73
     2
 40
40.0
 49
37.5
 49
-2.5
  0
LTYPE
  2
LONG4
 70
    64
  3
+++++++++++++++..+++++++++++++++
 72
    65
 73
     2
 40
80.0
 49
75.0
 49
-5.0
  0
LTYPE
  2
LONG5
 70
    64
  3
----------  --  ----------  --  
 72
    65
 73
     4
 40
60.0
 49
37.5
 49
-7.5
 49
7.5
 49
-7.5
  0
LTYPE
  2
dashed
 70
   64
  3
-------   -------------   ------
 72
   65
 73
    2
 40
7.5
 49
6
 49
-1.5
  0
LTYPE
  2
dashed_spaced
 70
   64
  3
----        --------        ----
 72
   65
 73
    2
 40
12
 49
6
 49
-6
  0
LTYPE
  2
long_dashed_dotted
 70
   64
  3
------------- --- --------------
 72
   65
 73
    4
 40
15.25
 49
12
 49
-1.5
 49
0.25
 49
-1.5
  0
LTYPE
  2
long_dashed_double-dotted
 70
   64
  3
----------- --- --- ------------
 72
   65
 73
    6
 40
17
 49
12
 49
-1.5
 49
0.25
 49
-1.5
 49
0.25
 49
-1.5
  0
LTYPE
  2
long_dashed_triplicate-dotted
 70
   64
  3
--------- --- --- --- ----------
 72
   65
 73
    8
 40
18.75
 49
12
 49
-1.5
 49
0.25
 49
-1.5
 49
0.25
 49
-1.5
 49
0.25
 49
-1.5
  0
LTYPE
  2
dotted
 70
   64
  3
   -       -       -       -    
 72
   65
 73
    2
 40
1.75
 49
0.25
 49
-1.5
  0
LTYPE
  2
chain
 70
   64
  3
-------------- -- --------------
 72
   65
 73
    4
 40
18.5
 49
12
 49
-1.5
 49
3.5
 49
-1.5
  0
LTYPE
  2
chain_double_dash
 70
   64
  3
------------ -- -- -------------
 72
   65
 73
    6
 40
23.5
 49
12
 49
-1.5
 49
3.5
 49
-1.5
 49
3.5
 49
-1.5
  0
LTYPE
  2
dashed_dotted
 70
   64
  3
-----------     -     ----------
 72
   65
 73
    4
 40
9.25
 49
6
 49
-1.5
 49
0.25
 49
-1.5
  0
LTYPE
  2
double-dashed_dotted
 70
   64
  3
------   -----------   -   -----
 72
   65
 73
    6
 40
16.75
 49
6
 49
-1.5
 49
6
 49
-1.5
 49
0.25
 49
-1.5
  0
LTYPE
  2
dashed_double-dotted
 70
   64
  3
---------    -    -    ---------
 72
   65
 73
    6
 40
11
 49
6
 49
-1.5
 49
0.25
 49
-1.5
 49
0.25
 49
-1.5
  0
LTYPE
  2
double-dashed_double-dotted
 70
   64
  3
-----   ---------   -   -   ----
 72
   65
 73
    8
 40
18.5
 49
6
 49
-1.5
 49
6
 49
-1.5
 49
0.25
 49
-1.5
 49
0.25
 49
-1.5
  0
LTYPE
  2
dashed_triplicate-dotted
 70
   64
  3
-------    -    -    -    ------
 72
   65
 73
    8
 40
12.75
 49
6
 49
-1.5
 49
0.25
 49
-1.5
 49
0.25
 49
-1.5
 49
0.25
 49
-1.5
  0
LTYPE
  2
double-dashed_triplicate-dotted
 70
   64
  3
-----  ---------  -  -  -  -----
 72
   65
 73
   10
 40
20.25
 49
6
 49
-1.5
 49
6
 49
-1.5
 49
0.25
 49
-1.5
 49
0.25
 49
-1.5
 49
0.25
 49
-1.5
  0
LTYPE
  2
undefined
 70
   64
  3
--------------------------------
 72
   65
 73
    0
 40
0
  0
ENDTAB
  0
TABLE
  2
STYLE
  5
3
100
AcDbSymbolTable
 70
     1
  0
STYLE
  5
10
100
AcDbSymbolTableRecord
100
AcDbTextStyleTableRecord
  2
STANDARD
 70
     0
 40
0.0
 41
1.0
 50
0.0
 71
     0
 42
0.2
  3
txt
  4
bigfont.shx
  0
STYLE
  5
26
100
AcDbSymbolTableRecord
100
AcDbTextStyleTableRecord
  2
TATEGAKI
 70
    68
 40
0.0
 41
1.0
 50
0.0
 71
     0
 42
1.0
  3
txt
  4
bigfont.shx
  0
ENDTAB
  0
TABLE
  2
LAYER
 70
   10
  0
LAYER
  2
_0-0_計極細
 70
   64
 62
    7
  6
CONTINUOUS
  0
LAYER
  2
_0-1_計細線
 70
   64
 62
    7
  6
CONTINUOUS
  0
LAYER
  2
_0-5_寸法線
 70
   64
 62
    7
  6
CONTINUOUS
  0
LAYER
  2
_0-7_枠細線
 70
   64
 62
    7
  6
CONTINUOUS
  0
LAYER
  2
_0-8_枠中線
 70
   64
 62
    7
  6
CONTINUOUS
  0
LAYER
  2
_0-9_枠極太
 70
   64
 62
    7
  6
CONTINUOUS
  0
LAYER
  2
_0-a_極細3
 70
   64
 62
    7
  6
CONTINUOUS
  0
LAYER
  2
_0-b_細線3
 70
   64
 62
    7
  6
CONTINUOUS
  0
LAYER
  2
_0-d_寸法3
 70
   64
 62
    7
  6
CONTINUOUS
  0
LAYER
  2
ADD_LINE
 70
   64
 62
    7
  6
CONTINUOUS
  0
ENDTAB
  0
ENDSEC
  0
SECTION
  2
BLOCKS
  0
ENDSEC
  0
SECTION
  2
ENTITIES
  0
LINE
  8
_0-7_枠細線
  6
CONTINUOUS
 62
    5
 10
1425
 20
942.5
 11
890
 21
942.5
  0
TEXT
  8
_0-7_枠細線
 62
    5
 10
895
 20
945
 40
12.5
 41
1
 50
0
  1
記号
  0
TEXT
  8
_0-7_枠細線
 62
    5
 10
996.875
 20
945
 40
12.5
 41
1
 50
0
  1
訂　 正　 記　 事
  0
TEXT
  8
_0-7_枠細線
 62
    5
 10
1181.25
 20
945
 40
12.5
 41
1
 50
0
  1
訂 正 年 月 日
  0
TEXT
  8
_0-7_枠細線
 62
    5
 10
1306.25
 20
945
 40
12.5
 41
1
 50
0
  1
備　　　　　考
  0
LINE
  8
_0-7_枠細線
  6
CONTINUOUS
 62
    5
 10
1185
 20
180
 11
1185
 21
100
  0
TEXT
  8
_0-7_枠細線
 62
    5
 10
937.5
 20
97.5
 40
17.5
 41
1
 50
0
  1
備考
  7
TATEGAKI
  0
TEXT
  8
_0-7_枠細線
 62
    5
 10
937.5
 20
137.5
 40
17.5
 41
1
 50
0
  1
品番
  7
TATEGAKI
  0
TEXT
  8
_0-7_枠細線
 62
    5
 10
937.5
 20
177.5
 40
17.5
 41
1
 50
0
  1
品名
  7
TATEGAKI
  0
LINE
  8
_0-7_枠細線
  6
CONTINUOUS
 62
    5
 10
1185
 20
140
 11
925
 21
140
  0
LINE
  8
_0-7_枠細線
  6
CONTINUOUS
 62
    5
 10
950
 20
180
 11
950
 21
60
  0
LINE
  8
_0-8_枠中線
  6
CONTINUOUS
 62
    5
 10
1425
 20
180
 11
925
 21
180
  0
LINE
  8
_0-8_枠中線
  6
CONTINUOUS
 62
    5
 10
925
 20
180
 11
925
 21
60
  0
LINE
  8
_0-7_枠細線
  6
CONTINUOUS
 62
    5
 10
1245
 20
180
 11
1245
 21
60
  0
TEXT
  8
_0-7_枠細線
 62
    5
 10
1192.5
 20
160
 40
15
 41
1
 50
0
  1
縮　尺
  0
TEXT
  8
_0-7_枠細線
 62
    5
 10
1194
 20
117.5
 40
20
 41
0.7000000000000001
 50
0
  1
１：５
  0
LINE
  8
_0-7_枠細線
  6
CONTINUOUS
 62
    5
 10
1185
 20
155
 11
1245
 21
155
  0
LINE
  8
_0-7_枠細線
  6
CONTINUOUS
 62
    5
 10
1245
 20
100
 11
925
 21
100
  0
LINE
  8
_0-7_枠細線
  6
CONTINUOUS
 62
    5
 10
1425
 20
90
 11
1245
 21
90
  0
LINE
  8
_0-7_枠細線
  6
CONTINUOUS
 62
    5
 10
1245
 20
120
 11
1425
 21
120
  0
LINE
  8
_0-7_枠細線
  6
CONTINUOUS
 62
    5
 10
1425
 20
140
 11
1245
 21
140
  0
TEXT
  8
_0-7_枠細線
 62
    5
 10
1255
 20
147.5
 40
25
 41
0.8
 50
0
  1
株式会社シマブン
  0
TEXT
  8
_0-7_枠細線
 62
    5
 10
1252.5
 20
60
 40
15
 41
1
 50
0
  1
年月日
  0
TEXT
  8
_0-7_枠細線
 62
    5
 10
1252.5
 20
75
 40
15
 41
1
 50
0
  1
作　成
  0
TEXT
  8
_0-7_枠細線
 62
    5
 10
1256.25
 20
122.5
 40
15
 41
1
 50
0
  1
承 認
  0
LINE
  8
_0-7_枠細線
  6
CONTINUOUS
 62
    5
 10
1305
 20
140
 11
1305
 21
60
  0
TEXT
  8
_0-7_枠細線
 62
    5
 10
1316.25
 20
122.5
 40
15
 41
1
 50
0
  1
検 図
  0
LINE
  8
_0-7_枠細線
  6
CONTINUOUS
 62
    5
 10
1365
 20
140
 11
1365
 21
90
  0
TEXT
  8
_0-7_枠細線
 62
    5
 10
1375
 20
95
 40
20
 41
1
 50
0
  1
藤戸
  0
TEXT
  8
_0-7_枠細線
 62
    5
 10
1376.25
 20
122.5
 40
15
 41
1
 50
0
  1
設 計
  0
TEXT
  8
_0-7_枠細線
 62
    5
 10
1255
 20
95
 40
20
 41
1
 50
0
  1
隠塚
  0
TEXT
  8
_0-7_枠細線
 62
    5
 10
1315
 20
95
 40
20
 41
1
 50
0
  1
渋田
  0
TEXT
  8
_0-7_枠細線
 62
    5
 10
965.50000000000011
 20
150
 40
20
 41
0.5
 50
0
  1
Ｔバー ステンレスグレーチング Ｈ２０タイプ
  0
TEXT
  8
_0-7_枠細線
 62
    5
 10
1310
 20
67.5
 40
15
 41
0.6666666666666666
 50
0
  1
２０１２年０２月２９日
  0
LINE
  8
_0-7_枠細線
  6
CONTINUOUS
 62
    5
 10
1425
 20
925
 11
890
 21
925
  0
TEXT
  8
_0-7_枠細線
 62
    5
 10
938.85037037037023
 20
927.5
 40
12.500000000000002
 41
1
 50
0
  1
品番変更
  0
LINE
  8
_0-b_細線3
  6
CONTINUOUS
 62
    7
 10
953.15211640940788
 20
296.56810602460041
 11
939.81878307607474
 21
296.56810602460041
  0
LINE
  8
_0-b_細線3
  6
CONTINUOUS
 62
    7
 10
976.48544974274137
 20
296.56810602460041
 11
963.15211640940788
 21
296.56810602460041
  0
LINE
  8
_0-b_細線3
  6
CONTINUOUS
 62
    7
 10
999.81878307607428
 20
296.56810602460041
 11
986.48544974274091
 21
296.56810602460041
  0
LINE
  8
_0-b_細線3
  6
CONTINUOUS
 62
    7
 10
1023.1521164094079
 20
296.56810602460041
 11
1009.8187830760747
 21
296.56810602460041
  0
LINE
  8
_0-d_寸法3
  6
CONTINUOUS
 62
    7
 10
939.81878307607474
 20
306.56810602460041
 11
939.81878307607474
 21
351.56810602460041
  0
LINE
  8
_0-d_寸法3
  6
CONTINUOUS
 62
    7
 10
939.81878307607474
 20
346.56810602460041
 11
930.15952481318413
 21
343.97991557357523
  0
LINE
  8
_0-d_寸法3
  6
CONTINUOUS
 62
    7
 10
939.81878307607474
 20
346.56810602460041
 11
930.15952481318413
 21
349.15629647562571
  0
LINE
  8
_0-d_寸法3
  6
CONTINUOUS
 62
    7
 10
953.15211640940834
 20
306.56810602460041
 11
953.15211640940834
 21
351.56810602460041
  0
CIRCLE
  8
_0-d_寸法3
  6
CONTINUOUS
 62
    1
 10
953.15211640940834
 20
346.56810602460041
 40
1.5000000000000002
  0
LINE
  8
_0-d_寸法3
  6
CONTINUOUS
 62
    7
 10
914.81878307607474
 20
346.56810602460041
 11
953.15211640940834
 21
346.56810602460041
  0
TEXT
  8
_0-d_寸法3
 62
    7
 10
922.31334902649394
 20
346.56810602460041
 40
15
 41
1
 50
0
  1
8
  0
LINE
  8
_0-d_寸法3
  6
CONTINUOUS
 62
    7
 10
963.15211640940834
 20
306.56810602460041
 11
963.15211640940834
 21
351.56810602460041
  0
LINE
  8
_0-d_寸法3
  6
CONTINUOUS
 62
    7
 10
963.15211640940834
 20
346.56810602460041
 11
972.81137467229894
 21
349.15629647562554
  0
LINE
  8
_0-d_寸法3
  6
CONTINUOUS
 62
    7
 10
963.15211640940834
 20
346.56810602460041
 11
972.81137467229894
 21
343.97991557357523
  0
LINE
  8
_0-d_寸法3
  6
CONTINUOUS
 62
    7
 10
953.15211640940834
 20
346.56810602460041
 11
988.15211640940834
 21
346.56810602460041
  0
TEXT
  8
_0-d_寸法3
 62
    7
 10
972.87285519933346
 20
346.56810602460041
 40
15
 41
1
 50
0
  1
6
  0
LINE
  8
_0-b_細線3
  6
CONTINUOUS
 62
    7
 10
1046.4854497427409
 20
296.56810602460041
 11
1033.1521164094079
 21
296.56810602460041
  0
LINE
  8
_0-b_細線3
  6
CONTINUOUS
 62
    7
 10
1069.8187830760739
 20
296.56810602460041
 11
1056.4854497427409
 21
296.56810602460041
  0
LINE
  8
_0-d_寸法3
  6
CONTINUOUS
 62
    7
 10
1016.4854497427414
 20
306.56810602460052
 11
1016.4854497427414
 21
351.56810602460041
  0
LINE
  8
_0-d_寸法3
  6
CONTINUOUS
 62
    7
 10
1016.4854497427414
 20
346.56810602460041
 11
1026.1447080056319
 21
349.1562964756256
  0
LINE
  8
_0-d_寸法3
  6
CONTINUOUS
 62
    7
 10
1016.4854497427414
 20
346.56810602460041
 11
1026.1447080056319
 21
343.97991557357523
  0
LINE
  8
_0-d_寸法3
  6
CONTINUOUS
 62
    7
 10
1039.8187830760749
 20
306.56810602460041
 11
1039.8187830760749
 21
351.56810602460041
  0
LINE
  8
_0-d_寸法3
  6
CONTINUOUS
 62
    7
 10
1039.8187830760749
 20
346.56810602460041
 11
1030.1595248131841
 21
343.97991557357523
  0
LINE
  8
_0-d_寸法3
  6
CONTINUOUS
 62
    7
 10
1039.8187830760749
 20
346.56810602460041
 11
1030.1595248131841
 21
349.15629647562571
  0
LINE
  8
_0-d_寸法3
  6
CONTINUOUS
 62
    7
 10
1016.4854497427414
 20
346.56810602460041
 11
1039.8187830760749
 21
346.56810602460041
  0
TEXT
  8
_0-d_寸法3
 62
    7
 10
1020.6521164094079
 20
346.56810602460041
 40
15
 41
1
 50
0
  1
14
  0
LINE
  8
_0-d_寸法3
  6
CONTINUOUS
 62
    7
 10
1039.8187830760749
 20
346.56810602460041
 11
1049.4780413389658
 21
349.15629647562554
  0
LINE
  8
_0-d_寸法3
  6
CONTINUOUS
 62
    7
 10
1039.8187830760749
 20
346.56810602460041
 11
1049.4780413389658
 21
343.97991557357523
  0
LINE
  8
_0-d_寸法3
  6
CONTINUOUS
 62
    7
 10
1063.1521164094079
 20
306.56810602460041
 11
1063.1521164094079
 21
351.56810602460041
  0
LINE
  8
_0-d_寸法3
  6
CONTINUOUS
 62
    7
 10
1063.1521164094079
 20
346.56810602460041
 11
1053.4928581465172
 21
343.97991557357523
  0
LINE
  8
_0-d_寸法3
  6
CONTINUOUS
 62
    7
 10
1063.1521164094079
 20
346.56810602460041
 11
1053.4928581465172
 21
349.15629647562571
  0
LINE
  8
_0-d_寸法3
  6
CONTINUOUS
 62
    7
 10
1039.8187830760749
 20
346.56810602460041
 11
1063.1521164094079
 21
346.56810602460041
  0
TEXT
  8
_0-d_寸法3
 62
    7
 10
1043.9854497427414
 20
346.56810602460041
 40
15
 41
1
 50
0
  1
14
  0
LINE
  8
_0-d_寸法3
  6
CONTINUOUS
 62
    7
 10
922.26314135259918
 20
296.56810602460047
 11
893.92980801926569
 21
296.56810602460052
  0
LINE
  8
_0-d_寸法3
  6
CONTINUOUS
 62
    7
 10
898.92980801926569
 20
296.56810602460052
 11
901.51799847029088
 21
286.90884776170992
  0
LINE
  8
_0-d_寸法3
  6
CONTINUOUS
 62
    7
 10
898.92980801926569
 20
296.56810602460052
 11
896.34161756824039
 21
286.90884776170992
  0
LINE
  8
_0-d_寸法3
  6
CONTINUOUS
 62
    7
 10
922.26314135259918
 20
263.23477269126721
 11
893.92980801926569
 21
263.23477269126727
  0
LINE
  8
_0-d_寸法3
  6
CONTINUOUS
 62
    7
 10
898.92980801926569
 20
263.23477269126727
 11
896.34161756824039
 21
272.89403095415793
  0
LINE
  8
_0-d_寸法3
  6
CONTINUOUS
 62
    7
 10
898.92980801926569
 20
263.23477269126727
 11
901.51799847029088
 21
272.89403095415793
  0
LINE
  8
_0-d_寸法3
  6
CONTINUOUS
 62
    7
 10
898.92980801926569
 20
296.56810602460052
 11
898.92980801926569
 21
263.23477269126727
  0
TEXT
  8
_0-d_寸法3
 62
    7
 10
898.92980801926569
 20
272.4014393579339
 40
15
 41
1
 50
90
  1
20
  0
LINE
  8
_0-b_細線3
  6
CONTINUOUS
 62
    7
 10
945.48544974274137
 20
263.23477269126715
 11
947.48544974274125
 21
263.23477269126715
  0
LINE
  8
_0-b_細線3
  6
CONTINUOUS
 62
    7
 10
968.81878307607485
 20
263.23477269126715
 11
970.81878307607485
 21
263.23477269126715
  0
LINE
  8
_0-b_細線3
  6
CONTINUOUS
 62
    7
 10
992.15211640940777
 20
263.23477269126715
 11
994.15211640940788
 21
263.23477269126715
  0
LINE
  8
_0-b_細線3
  6
CONTINUOUS
 62
    7
 10
1015.4854497427414
 20
263.23477269126715
 11
1017.4854497427409
 21
263.23477269126715
  0
LINE
  8
_0-b_細線3
  6
CONTINUOUS
 62
    7
 10
1038.8187830760744
 20
263.23477269126715
 11
1040.8187830760739
 21
263.23477269126715
  0
LINE
  8
_0-b_細線3
  6
CONTINUOUS
 62
    7
 10
1062.1521164094074
 20
263.23477269126715
 11
1064.152116409407
 21
263.23477269126715
  0
ARC
  8
_0-a_極細3
  6
CONTINUOUS
 62
    7
 10
951.58512460882491
 20
288.88554488551165
 40
21.070607518177617
 50
150.03871396148139
 51
205.2381040238788
  0
ARC
  8
_0-a_極細3
  6
CONTINUOUS
 62
    7
 10
913.46655438094729
 20
270.91733383035478
 40
21.070607518177617
 50
330.03871396148219
 51
25.238104023878272
  0
LINE
  8
_0-b_細線3
  6
CONTINUOUS
 62
    7
 10
931.96501361196169
 20
296.56810602460041
 11
1075.3920453877322
 21
296.56810602460041
  0
ARC
  8
_0-a_極細3
  6
CONTINUOUS
 62
    7
 10
1094.9758023633772
 20
288.88554488551165
 40
21.070607518177617
 50
150.03871396148139
 51
205.2381040238788
  0
ARC
  8
_0-a_極細3
  6
CONTINUOUS
 62
    7
 10
1056.8572321354995
 20
270.91733383035478
 40
21.070607518177617
 50
330.03871396148219
 51
25.238104023878019
  0
LINE
  8
_0-a_極細3
  6
CENTER1
 62
    7
 10
914.128534257296
 20
279.90143935793344
 11
1087.6337554753186
 21
279.90143935793344
  0
LINE
  8
_0-b_細線3
  6
CONTINUOUS
 62
    7
 10
933.08666537781107
 20
263.23477269126636
 11
1076.4773431323633
 21
263.23477269126624
  0
ARC
  8
_0-b_細線3
  6
CONTINUOUS
 62
    7
 10
958.15211640940834
 20
317.70421713571136
 40
46.136111111111042
 50
256.63227178393157
 51
283.36772821606712
  0
ARC
  8
_0-b_細線3
  6
CONTINUOUS
 62
    7
 10
958.15211640940834
 20
242.0986615801562
 40
46.136111111111042
 50
76.632271783932524
 51
103.36772821606807
  0
ARC
  8
_0-b_細線3
  6
CONTINUOUS
 62
    7
 10
981.48544974274137
 20
317.70421713571136
 40
46.136111111111042
 50
256.63227178393157
 51
283.36772821606712
  0
ARC
  8
_0-b_細線3
  6
CONTINUOUS
 62
    7
 10
981.48544974274137
 20
242.0986615801562
 40
46.136111111111042
 50
76.632271783932524
 51
103.36772821606779
  0
ARC
  8
_0-b_細線3
  6
CONTINUOUS
 62
    7
 10
1004.8187830760747
 20
317.70421713571136
 40
46.136111111111042
 50
256.63227178393186
 51
283.36772821606712
  0
ARC
  8
_0-b_細線3
  6
CONTINUOUS
 62
    7
 10
1004.8187830760747
 20
242.0986615801562
 40
46.136111111111042
 50
76.632271783932524
 51
103.36772821606753
  0
LINE
  8
_0-b_細線3
  6
CONTINUOUS
 62
    7
 10
953.15211640940834
 20
294.56810602460041
 11
953.15211640940834
 21
296.56810602460041
  0
LINE
  8
_0-b_細線3
  6
CONTINUOUS
 62
    7
 10
947.48544974274125
 20
294.56810602460041
 11
953.15211640940834
 21
294.56810602460041
  0
LINE
  8
_0-b_細線3
  6
CONTINUOUS
 62
    7
 10
947.48544974274125
 20
263.23477269126715
 11
947.48544974274125
 21
294.56810602460041
  0
LINE
  8
_0-b_細線3
  6
CONTINUOUS
 62
    7
 10
945.48544974274137
 20
263.23477269126715
 11
947.48544974274125
 21
263.23477269126715
  0
LINE
  8
_0-b_細線3
  6
CONTINUOUS
 62
    7
 10
945.48544974274137
 20
294.56810602460041
 11
945.48544974274137
 21
263.23477269126715
  0
LINE
  8
_0-b_細線3
  6
CONTINUOUS
 62
    7
 10
939.81878307607474
 20
294.56810602460041
 11
945.48544974274137
 21
294.56810602460041
  0
LINE
  8
_0-b_細線3
  6
CONTINUOUS
 62
    7
 10
939.81878307607474
 20
296.56810602460041
 11
939.81878307607474
 21
294.56810602460041
  0
LINE
  8
_0-b_細線3
  6
CONTINUOUS
 62
    7
 10
953.15211640940834
 20
296.56810602460041
 11
939.81878307607474
 21
296.56810602460041
  0
LINE
  8
_0-b_細線3
  6
CONTINUOUS
 62
    7
 10
976.48544974274159
 20
294.56810602460041
 11
976.48544974274159
 21
296.56810602460041
  0
LINE
  8
_0-b_細線3
  6
CONTINUOUS
 62
    7
 10
970.81878307607485
 20
294.56810602460041
 11
976.48544974274159
 21
294.56810602460041
  0
LINE
  8
_0-b_細線3
  6
CONTINUOUS
 62
    7
 10
970.81878307607485
 20
263.23477269126715
 11
970.81878307607485
 21
294.56810602460041
  0
LINE
  8
_0-b_細線3
  6
CONTINUOUS
 62
    7
 10
968.81878307607485
 20
263.23477269126715
 11
970.81878307607485
 21
263.23477269126715
  0
LINE
  8
_0-b_細線3
  6
CONTINUOUS
 62
    7
 10
968.81878307607485
 20
294.56810602460041
 11
968.81878307607485
 21
263.23477269126715
  0
LINE
  8
_0-b_細線3
  6
CONTINUOUS
 62
    7
 10
963.15211640940834
 20
294.56810602460041
 11
968.81878307607485
 21
294.56810602460041
  0
LINE
  8
_0-b_細線3
  6
CONTINUOUS
 62
    7
 10
963.15211640940834
 20
296.56810602460041
 11
963.15211640940834
 21
294.56810602460041
  0
LINE
  8
_0-b_細線3
  6
CONTINUOUS
 62
    7
 10
976.48544974274159
 20
296.56810602460041
 11
963.15211640940834
 21
296.56810602460041
  0
LINE
  8
_0-b_細線3
  6
CONTINUOUS
 62
    7
 10
999.81878307607462
 20
294.56810602460041
 11
999.81878307607462
 21
296.56810602460041
  0
LINE
  8
_0-b_細線3
  6
CONTINUOUS
 62
    7
 10
994.15211640940822
 20
294.56810602460041
 11
999.81878307607462
 21
294.56810602460041
  0
LINE
  8
_0-b_細線3
  6
CONTINUOUS
 62
    7
 10
994.15211640940822
 20
263.23477269126715
 11
994.15211640940822
 21
294.56810602460041
  0
LINE
  8
_0-b_細線3
  6
CONTINUOUS
 62
    7
 10
992.15211640940822
 20
263.23477269126715
 11
994.15211640940822
 21
263.23477269126715
  0
LINE
  8
_0-b_細線3
  6
CONTINUOUS
 62
    7
 10
992.15211640940822
 20
294.56810602460041
 11
992.15211640940822
 21
263.23477269126715
  0
LINE
  8
_0-b_細線3
  6
CONTINUOUS
 62
    7
 10
986.48544974274137
 20
294.56810602460041
 11
992.15211640940822
 21
294.56810602460041
  0
LINE
  8
_0-b_細線3
  6
CONTINUOUS
 62
    7
 10
986.48544974274137
 20
296.56810602460041
 11
986.48544974274137
 21
294.56810602460041
  0
LINE
  8
_0-b_細線3
  6
CONTINUOUS
 62
    7
 10
999.81878307607462
 20
296.56810602460041
 11
986.48544974274137
 21
296.56810602460041
  0
LINE
  8
_0-b_細線3
  6
CONTINUOUS
 62
    7
 10
1023.1521164094084
 20
294.56810602460041
 11
1023.1521164094084
 21
296.56810602460041
  0
LINE
  8
_0-b_細線3
  6
CONTINUOUS
 62
    7
 10
1017.4854497427414
 20
294.56810602460041
 11
1023.1521164094084
 21
294.56810602460041
  0
LINE
  8
_0-b_細線3
  6
CONTINUOUS
 62
    7
 10
1017.4854497427414
 20
263.23477269126715
 11
1017.4854497427414
 21
294.56810602460041
  0
LINE
  8
_0-b_細線3
  6
CONTINUOUS
 62
    7
 10
1015.4854497427415
 20
263.23477269126715
 11
1017.4854497427414
 21
263.23477269126715
  0
LINE
  8
_0-b_細線3
  6
CONTINUOUS
 62
    7
 10
1015.4854497427415
 20
294.56810602460041
 11
1015.4854497427415
 21
263.23477269126715
  0
LINE
  8
_0-b_細線3
  6
CONTINUOUS
 62
    7
 10
1009.8187830760747
 20
294.56810602460041
 11
1015.4854497427415
 21
294.56810602460041
  0
LINE
  8
_0-b_細線3
  6
CONTINUOUS
 62
    7
 10
1009.8187830760747
 20
296.56810602460041
 11
1009.8187830760747
 21
294.56810602460041
  0
LINE
  8
_0-b_細線3
  6
CONTINUOUS
 62
    7
 10
1023.1521164094084
 20
296.56810602460041
 11
1009.8187830760747
 21
296.56810602460041
  0
ARC
  8
_0-b_細線3
  6
CONTINUOUS
 62
    7
 10
1028.1521164094083
 20
317.70421713571136
 40
46.136111111111042
 50
256.63227178393214
 51
283.36772821606712
  0
ARC
  8
_0-b_細線3
  6
CONTINUOUS
 62
    7
 10
1028.1521164094083
 20
242.0986615801562
 40
46.136111111111042
 50
76.632271783932524
 51
103.36772821606753
  0
LINE
  8
_0-b_細線3
  6
CONTINUOUS
 62
    7
 10
1046.4854497427418
 20
294.56810602460041
 11
1046.4854497427418
 21
296.56810602460041
  0
LINE
  8
_0-b_細線3
  6
CONTINUOUS
 62
    7
 10
1040.8187830760749
 20
294.56810602460041
 11
1046.4854497427418
 21
294.56810602460041
  0
LINE
  8
_0-b_細線3
  6
CONTINUOUS
 62
    7
 10
1040.8187830760749
 20
263.23477269126715
 11
1040.8187830760749
 21
294.56810602460041
  0
LINE
  8
_0-b_細線3
  6
CONTINUOUS
 62
    7
 10
1038.8187830760753
 20
294.56810602460041
 11
1038.8187830760753
 21
263.23477269126715
  0
LINE
  8
_0-b_細線3
  6
CONTINUOUS
 62
    7
 10
1033.1521164094083
 20
294.56810602460041
 11
1038.8187830760753
 21
294.56810602460041
  0
LINE
  8
_0-b_細線3
  6
CONTINUOUS
 62
    7
 10
1033.1521164094083
 20
296.56810602460041
 11
1033.1521164094083
 21
294.56810602460041
  0
ARC
  8
_0-b_細線3
  6
CONTINUOUS
 62
    7
 10
1051.4854497427418
 20
317.70421713571136
 40
46.136111111111042
 50
256.63227178393214
 51
283.36772821606712
  0
ARC
  8
_0-b_細線3
  6
CONTINUOUS
 62
    7
 10
1051.4854497427418
 20
242.0986615801562
 40
46.136111111111042
 50
76.632271783932524
 51
103.36772821606753
  0
LINE
  8
_0-b_細線3
  6
CONTINUOUS
 62
    7
 10
1069.8187830760753
 20
294.56810602460041
 11
1069.8187830760753
 21
296.56810602460041
  0
LINE
  8
_0-b_細線3
  6
CONTINUOUS
 62
    7
 10
1064.1521164094083
 20
294.56810602460041
 11
1069.8187830760753
 21
294.56810602460041
  0
LINE
  8
_0-b_細線3
  6
CONTINUOUS
 62
    7
 10
1064.1521164094083
 20
263.23477269126715
 11
1064.1521164094083
 21
294.56810602460041
  0
LINE
  8
_0-b_細線3
  6
CONTINUOUS
 62
    7
 10
1062.1521164094088
 20
294.56810602460041
 11
1062.1521164094088
 21
263.23477269126715
  0
LINE
  8
_0-b_細線3
  6
CONTINUOUS
 62
    7
 10
1056.4854497427418
 20
294.56810602460041
 11
1062.1521164094088
 21
294.56810602460041
  0
LINE
  8
_0-b_細線3
  6
CONTINUOUS
 62
    7
 10
1056.4854497427418
 20
296.56810602460041
 11
1056.4854497427418
 21
294.56810602460041
  0
ARC
  8
_0-b_細線3
  6
CONTINUOUS
 62
    7
 10
934.81878307607474
 20
242.0986615801562
 40
46.136111111111042
 50
76.632271783932524
 51
95.331778543219158
  0
ARC
  8
_0-b_細線3
  6
CONTINUOUS
 62
    7
 10
934.81878307607474
 20
317.70421713571136
 40
46.136111111111042
 50
269.63773734898541
 51
283.36772821606655
  0
ARC
  8
_0-b_細線3
  6
CONTINUOUS
 62
    7
 10
1074.8187830760758
 20
317.70421713571136
 40
46.136111111111042
 50
256.63227178393157
 51
273.84719120855112
  0
ARC
  8
_0-b_細線3
  6
CONTINUOUS
 62
    7
 10
1074.8187830760758
 20
242.0986615801562
 40
46.136111111111042
 50
91.121818745999931
 51
103.36772821606807
  0
TEXT
  8
_0-7_枠細線
 62
    5
 10
956.55807915457694
 20
218.48278215653394
 40
25
 41
0.8
 50
0
  1
側面詳細図
  0
TEXT
  8
_0-7_枠細線
 62
    5
 10
1027.2366688631309
 20
193.70761534481403
 40
20
 41
0.6
 50
0
  1
Ｓ＝１：３
  0
TEXT
  8
_0-7_枠細線
 62
    5
 10
1180
 20
927.5
 40
12.5
 41
0.7199999999999999
 50
0
  1
２０１５．０４．０１
  0
LINE
  8
_0-a_極細3
  6
CENTER1
 62
    7
 10
470.43065977017199
 20
247.0489432058173
 11
470.43065977017199
 21
310.49894320582348
  0
LINE
  8
_0-d_寸法3
  6
CONTINUOUS
 62
    7
 10
462.23913932728209
 20
268.97053705477765
 11
426.88679760159658
 21
293.72451322446841
  0
LINE
  8
_0-d_寸法3
  6
CONTINUOUS
 62
    7
 10
430.98255782304159
 20
290.85663104271316
 11
428.3943673720164
 21
300.51588930560388
  0
LINE
  8
_0-d_寸法3
  6
CONTINUOUS
 62
    7
 10
430.98255782304159
 20
290.85663104271316
 11
433.57074827406677
 21
300.51588930560388
  0
LINE
  8
_0-d_寸法3
  6
CONTINUOUS
 62
    7
 10
462.23913932728209
 20
302.30387038811091
 11
426.88679760159658
 21
327.05784655780172
  0
LINE
  8
_0-d_寸法3
  6
CONTINUOUS
 62
    7
 10
430.98255782304159
 20
324.18996437604642
 11
433.57074827406677
 21
314.5307061131557
  0
LINE
  8
_0-d_寸法3
  6
CONTINUOUS
 62
    7
 10
430.98255782304159
 20
324.18996437604642
 11
428.39436737201629
 21
314.53070611315576
  0
LINE
  8
_0-d_寸法3
  6
CONTINUOUS
 62
    7
 10
430.98255782304159
 20
290.85663104271316
 11
430.98255782304159
 21
324.18996437604642
  0
TEXT
  8
_0-d_寸法3
 62
    7
 10
430.98255782304159
 20
300.02329770937968
 40
15
 41
1
 50
90
  1
20
  0
TEXT
  8
_0-7_枠細線
 62
    5
 10
420.50861213093816
 20
113.23440768958903
 40
25
 41
0.8
 50
0
  1
断面詳細図
  0
TEXT
  8
_0-7_枠細線
 62
    5
 10
535.45758188010632
 20
113.23440768958903
 40
20
 41
0.6
 50
0
  1
Ｓ＝１：３
  0
CIRCLE
  8
_0-a_極細3
  6
CONTINUOUS
 62
    7
 10
282.04756590032247
 20
281.52707199681572
 40
0.5530864197530718
  0
LINE
  8
_0-a_極細3
  6
CONTINUOUS
 62
    7
 10
287.09732643683827
 20
296.56810602460041
 11
287.09732643683827
 21
284.90143935793344
  0
LINE
  8
_0-a_極細3
  6
CONTINUOUS
 62
    7
 10
287.09732643683827
 20
296.56810602460041
 11
197.91957929172369
 21
296.56810602460041
  0
LINE
  8
_0-a_極細3
  6
CONTINUOUS
 62
    7
 10
295.43065977017199
 20
284.90143935793344
 11
197.91957929172369
 21
284.90143935793344
  0
LINE
  8
_0-a_極細3
  6
CONTINUOUS
 62
    7
 10
295.43065977017199
 20
296.56810602460041
 11
287.09732643683827
 21
296.56810602460041
  0
LINE
  8
_0-a_極細3
  6
CONTINUOUS
 62
    7
 10
295.43065977017199
 20
295.73477269126693
 11
295.43065977017199
 21
296.56810602460041
  0
LINE
  8
_0-a_極細3
  6
CONTINUOUS
 62
    7
 10
295.232569513812
 20
284.90143935793344
 11
295.43065977017108
 21
285.09952961429303
  0
LINE
  8
_0-a_極細3
  6
CONTINUOUS
 62
    7
 10
290.98992882669307
 20
284.90143935793344
 11
295.43065977017199
 21
289.34217030141212
  0
LINE
  8
_0-a_極細3
  6
CONTINUOUS
 62
    7
 10
287.09732643683827
 20
285.25147765519819
 11
295.43065977017199
 21
293.58481098853144
  0
LINE
  8
_0-a_極細3
  6
CONTINUOUS
 62
    7
 10
287.09732643683827
 20
289.49411834231728
 11
294.17131411912072
 21
296.56810602460041
  0
LINE
  8
_0-a_極細3
  6
CONTINUOUS
 62
    7
 10
287.09732643683827
 20
293.73675902943683
 11
289.92867343200191
 21
296.56810602460041
  0
LINE
  8
_0-a_極細3
  6
CONTINUOUS
 62
    7
 10
295.43065977017199
 20
294.28713915234175
 11
293.14969289791338
 21
296.56810602460041
  0
LINE
  8
_0-a_極細3
  6
CONTINUOUS
 62
    7
 10
295.43065977017199
 20
290.04449846522243
 11
288.90705221079378
 21
296.56810602460041
  0
LINE
  8
_0-a_極細3
  6
CONTINUOUS
 62
    7
 10
287.09732643683827
 20
294.1351911114366
 11
295.43065977017199
 21
285.80185777810334
  0
LINE
  8
_0-a_極細3
  6
CONTINUOUS
 62
    7
 10
287.09732643683827
 20
289.89255042431728
 11
292.08843750322166
 21
284.90143935793344
  0
LINE
  8
_0-a_極細3
  6
CONTINUOUS
 62
    7
 10
287.09732643683827
 20
285.64990973719796
 11
287.84579681610251
 21
284.90143935793344
  0
LINE
  8
_0-a_極細3
  6
CONTINUOUS
 62
    7
 10
278.26200675920757
 20
284.90143935180618
 11
287.09732643683827
 21
293.73675902943683
  0
LINE
  8
_0-a_極細3
  6
CONTINUOUS
 62
    7
 10
257.04880330890023
 20
284.9014393370951
 11
268.71546999640549
 21
296.56810602460018
  0
LINE
  8
_0-a_極細3
  6
CONTINUOUS
 62
    7
 10
235.83559985859225
 20
284.90143932238357
 11
247.50226656080869
 21
296.56810602460041
  0
LINE
  8
_0-a_極細3
  6
CONTINUOUS
 62
    7
 10
214.62239640828443
 20
284.90143930767249
 11
226.28906312521229
 21
296.56810602460041
  0
LINE
  8
_0-a_極細3
  6
CONTINUOUS
 62
    7
 10
197.91957929172369
 20
289.4118256267077
 11
205.07585968961592
 21
296.56810602460018
  0
LINE
  8
_0-a_極細3
  6
DASHED2
 62
    7
 10
267.6554050340539
 20
284.90143934445064
 11
279.32207171420373
 21
296.56810602460041
  0
LINE
  8
_0-a_極細3
  6
DASHED2
 62
    7
 10
246.442201583746
 20
284.90143932973933
 11
258.10886827860725
 21
296.56810602460041
  0
LINE
  8
_0-a_極細3
  6
DASHED2
 62
    7
 10
225.22899813343855
 20
284.90143931502803
 11
236.89566484301054
 21
296.56810602460041
  0
LINE
  8
_0-a_極細3
  6
DASHED2
 62
    7
 10
204.01579468313065
 20
284.90143930031695
 11
215.68246140741408
 21
296.56810602460041
  0
LINE
  8
_0-a_極細3
  6
CONTINUOUS
 62
    7
 10
228.76399310350507
 20
251.56810602460041
 11
228.76399310350507
 21
183.23477269126712
  0
LINE
  8
_0-a_極細3
  6
CONTINUOUS
 62
    7
 10
312.0973264368381
 20
183.23477269126712
 11
228.76399310350507
 21
183.23477269126712
  0
LINE
  8
_0-a_極細3
  6
CONTINUOUS
 62
    7
 10
228.76399310350507
 20
251.56810602460041
 11
197.91957929172389
 21
251.56810602460041
  0
LINE
  8
_0-a_極細3
  6
CONTINUOUS
 62
    7
 10
312.0973264368381
 20
183.23477269126712
 11
312.0973264368381
 21
156.99317239648806
  0
LINE
  8
_0-a_極細3
  6
CONTINUOUS
 62
    7
 10
274.6753518718487
 20
156.99317251292499
 11
300.91695205019136
 21
183.23477269126712
  0
LINE
  8
_0-a_極細3
  6
CONTINUOUS
 62
    7
 10
203.96467397320748
 20
156.99317273293809
 11
230.20627393153646
 21
183.23477269126712
  0
LINE
  8
_0-a_極細3
  6
CONTINUOUS
 62
    7
 10
197.91957929172389
 20
221.65875617010943
 11
227.82892914621513
 21
251.56810602460041
  0
LINE
  8
_0-a_極細3
  6
CONTINUOUS
 62
    7
 10
267.60428408198447
 20
156.99317253492632
 11
293.8458842383256
 21
183.23477269126712
  0
LINE
  8
_0-a_極細3
  6
CONTINUOUS
 62
    7
 10
197.91957929172389
 20
158.01914586332009
 11
228.76399310350507
 21
188.86355967510141
  0
LINE
  8
_0-a_極細3
  6
CONTINUOUS
 62
    7
 10
197.91957929172389
 20
228.72982398197496
 11
220.75786133434931
 21
251.56810602460041
  0
LINE
  8
_0-a_極細3
  6
CONTINUOUS
 62
    7
 10
260.53321629212076
 20
156.99317255692768
 11
286.77481642646006
 21
183.23477269126712
  0
LINE
  8
_0-a_極細3
  6
CONTINUOUS
 62
    7
 10
197.91957929172389
 20
165.09021367518562
 11
228.76399310350507
 21
195.93462748696695
  0
LINE
  8
_0-a_極細3
  6
CONTINUOUS
 62
    7
 10
197.91957929172389
 20
235.80089179384029
 11
213.68679352248407
 21
251.56810602460041
  0
CIRCLE
  8
_0-a_極細3
  6
CONTINUOUS
 62
    7
 10
215.81546713489109
 20
266.77151644126047
 40
0.5530864197530718
  0
CIRCLE
  8
_0-a_極細3
  6
CONTINUOUS
 62
    7
 10
205.48460293736071
 20
256.81596088570495
 40
0.5530864197530718
  0
CIRCLE
  8
_0-a_極細3
  6
CONTINUOUS
 62
    7
 10
216.09201034476783
 20
257.88262755237156
 40
0.5530864197530718
  0
CIRCLE
  8
_0-a_極細3
  6
CONTINUOUS
 62
    7
 10
228.71423256699018
 20
259.83818310792708
 40
0.5530864197530718
  0
CIRCLE
  8
_0-a_極細3
  6
CONTINUOUS
 62
    7
 10
257.15867701143401
 20
271.57151644126043
 40
0.5530864197530718
  0
CIRCLE
  8
_0-a_極細3
  6
CONTINUOUS
 62
    7
 10
287.73645478921139
 20
265.34929421903826
 40
0.5530864197530718
  0
CIRCLE
  8
_0-a_極細3
  6
CONTINUOUS
 62
    7
 10
262.84756590032288
 20
264.81596088570495
 40
0.5530864197530718
  0
CIRCLE
  8
_0-a_極細3
  6
CONTINUOUS
 62
    7
 10
235.65867701143446
 20
252.5826275523716
 40
0.5530864197530718
  0
CIRCLE
  8
_0-a_極細3
  6
CONTINUOUS
 62
    7
 10
256.10312145587841
 20
251.33818310792708
 40
0.5530864197530718
  0
CIRCLE
  8
_0-a_極細3
  6
CONTINUOUS
 62
    7
 10
281.16978812254473
 20
247.60484977459399
 40
0.5530864197530718
  0
CIRCLE
  8
_0-a_極細3
  6
CONTINUOUS
 62
    7
 10
268.54756590032264
 20
241.91596088570509
 40
0.5530864197530718
  0
CIRCLE
  8
_0-a_極細3
  6
CONTINUOUS
 62
    7
 10
253.79201034476765
 20
228.40484977459394
 40
0.5530864197530718
  0
CIRCLE
  8
_0-a_極細3
  6
CONTINUOUS
 62
    7
 10
281.16978812254473
 20
235.69373866348292
 40
0.5530864197530718
  0
CIRCLE
  8
_0-a_極細3
  6
CONTINUOUS
 62
    7
 10
240.05867701143416
 20
208.58262755237206
 40
0.5530864197530718
  0
CIRCLE
  8
_0-a_極細3
  6
CONTINUOUS
 62
    7
 10
234.36978812254523
 20
190.62707199681654
 40
0.5530864197530718
  0
CIRCLE
  8
_0-a_極細3
  6
CONTINUOUS
 62
    7
 10
243.08089923365642
 20
197.38262755237201
 40
0.5530864197530718
  0
CIRCLE
  8
_0-a_極細3
  6
CONTINUOUS
 62
    7
 10
249.30312145587862
 20
188.84929421903877
 40
0.5530864197530718
  0
CIRCLE
  8
_0-a_極細3
  6
CONTINUOUS
 62
    7
 10
288.60312145587812
 20
206.73818310792765
 40
0.5530864197530718
  0
CIRCLE
  8
_0-a_極細3
  6
CONTINUOUS
 62
    7
 10
277.40312145587836
 20
201.22707199681642
 40
0.5530864197530718
  0
CIRCLE
  8
_0-a_極細3
  6
CONTINUOUS
 62
    7
 10
283.62534367810048
 20
198.73818310792763
 40
0.5530864197530718
  0
CIRCLE
  8
_0-a_極細3
  6
CONTINUOUS
 62
    7
 10
280.06978812254488
 20
189.49373866348338
 40
0.5530864197530718
  0
CIRCLE
  8
_0-a_極細3
  6
CONTINUOUS
 62
    7
 10
299.98089923365615
 20
190.56040533014993
 40
0.5530864197530718
  0
CIRCLE
  8
_0-a_極細3
  6
CONTINUOUS
 62
    7
 10
312.95867701143328
 20
193.76040533015001
 40
0.5530864197530718
  0
CIRCLE
  8
_0-a_極細3
  6
CONTINUOUS
 62
    7
 10
326.64756590032221
 20
178.82707199681681
 40
0.5530864197530718
  0
CIRCLE
  8
_0-a_極細3
  6
CONTINUOUS
 62
    7
 10
319.71423256698876
 20
163.89373866348342
 40
0.5530864197530718
  0
CIRCLE
  8
_0-a_極細3
  6
CONTINUOUS
 62
    7
 10
303.0475659003227
 20
207.50855347829796
 40
0.5530864197530718
  0
CIRCLE
  8
_0-a_極細3
  6
CONTINUOUS
 62
    7
 10
317.80312145587811
 20
241.64188681163114
 40
0.5530864197530718
  0
CIRCLE
  8
_0-a_極細3
  6
CONTINUOUS
 62
    7
 10
332.91423256698857
 20
231.68633125607562
 40
0.5530864197530718
  0
CIRCLE
  8
_0-a_極細3
  6
CONTINUOUS
 62
    7
 10
333.44756590032233
 20
213.7307757005201
 40
0.5530864197530718
  0
CIRCLE
  8
_0-a_極細3
  6
CONTINUOUS
 62
    7
 10
298.20312145587775
 20
243.46410903385322
 40
0.5530864197530718
  0
CIRCLE
  8
_0-a_極細3
  6
CONTINUOUS
 62
    7
 10
277.91423256698926
 20
265.4480596511371
 40
1.825531472681392
  0
CIRCLE
  8
_0-a_極細3
  6
CONTINUOUS
 62
    7
 10
226.1521128655545
 20
272.37767392583487
 40
1.825531472681392
  0
CIRCLE
  8
_0-a_極細3
  6
CONTINUOUS
 62
    7
 10
252.69201034476737
 20
242.64805965113715
 40
1.825531472681392
  0
CIRCLE
  8
_0-a_極細3
  6
CONTINUOUS
 62
    7
 10
233.09201034476743
 20
204.6480596511376
 40
1.825531472681392
  0
CIRCLE
  8
_0-a_極細3
  6
CONTINUOUS
 62
    7
 10
286.29201034476648
 20
191.84805965113787
 40
1.825531472681392
  0
CIRCLE
  8
_0-a_極細3
  6
CONTINUOUS
 62
    7
 10
322.26978812254447
 20
188.24805965113796
 40
1.825531472681392
  0
CIRCLE
  8
_0-a_極細3
  6
CONTINUOUS
 62
    7
 10
327.06978812254368
 20
169.58139298447151
 40
1.825531472681392
  0
CIRCLE
  8
_0-a_極細3
  6
CONTINUOUS
 62
    7
 10
205.95503332447507
 20
273.27028187335918
 40
1.825531472681392
  0
LINE
  8
_0-a_極細3
  6
CONTINUOUS
 62
    7
 10
344.5973264368381
 20
258.23477269126715
 11
345.43065977017199
 21
258.23477269126715
  0
LINE
  8
_0-a_極細3
  6
CONTINUOUS
 62
    7
 10
345.43065977017199
 20
258.23477269126715
 11
345.43065977017199
 21
156.99317239648806
  0
CIRCLE
  8
_0-a_極細3
  6
CONTINUOUS
 62
    7
 10
338.54322562254259
 20
242.24805965113774
 40
1.825531472681392
  0
CIRCLE
  8
_0-a_極細3
  6
CONTINUOUS
 62
    7
 10
337.55126960402544
 20
187.53818310792781
 40
0.5530864197530718
  0
CIRCLE
  8
_0-a_極細3
  6
CONTINUOUS
 62
    7
 10
338.88460293735938
 20
164.882112074758
 40
0.5530864197530718
  0
CIRCLE
  8
_0-a_極細3
  6
CONTINUOUS
 62
    7
 10
326.51423256698445
 20
223.13694854002691
 40
1.825531472681392
  0
LINE
  8
_0-a_極細3
  6
CONTINUOUS
 62
    7
 10
251.7905915496867
 20
208.11647385377071
 11
246.66028939980151
 21
222.21186316555918
  0
LINE
  8
_0-a_極細3
  6
CONTINUOUS
 62
    7
 10
301.78463422348284
 20
242.27548386480547
 11
306.9149363733676
 21
228.18009455301694
  0
LINE
  8
_0-a_極細3
  6
CONTINUOUS
 62
    7
 10
246.66028939980151
 20
222.21186316555918
 11
301.78463422348284
 21
242.27548386480547
  0
LINE
  8
_0-a_極細3
  6
CONTINUOUS
 62
    7
 10
251.7905915496867
 20
208.11647385377071
 11
306.9149363733676
 21
228.18009455301694
  0
LINE
  8
_0-a_極細3
  6
CENTER1
 62
    7
 10
244.27000708275131
 20
213.360538469635
 11
308.30102756531687
 21
236.66592395467049
  0
LINE
  8
_0-a_極細3
  6
CONTINUOUS
 62
    7
 10
270.43065977017199
 20
183.23477269126712
 11
270.43065977017199
 21
227.32033403958326
  0
LINE
  8
_0-a_極細3
  6
CONTINUOUS
 62
    7
 10
270.43065977017199
 20
227.32033403958326
 11
255.43065977017199
 21
227.32033403958326
  0
LINE
  8
_0-a_極細3
  6
CONTINUOUS
 62
    7
 10
255.43065977017199
 20
227.32033403958326
 11
255.43065977017199
 21
183.23477269126712
  0
CIRCLE
  8
_0-a_極細3
  6
CONTINUOUS
 62
    7
 10
284.8105288632857
 20
213.15670162644597
 40
1.825531472681392
  0
CIRCLE
  8
_0-a_極細3
  6
CONTINUOUS
 62
    7
 10
306.51917083859416
 20
219.37892384866839
 40
1.825531472681392
  0
LINE
  8
_0-a_極細3
  6
CENTER1
 62
    7
 10
262.93065977017199
 20
174.95803240681425
 11
262.93065977017199
 21
231.59605420419282
  0
LINE
  8
_0-d_寸法3
  6
CONTINUOUS
 62
    7
 10
285.43065977017199
 20
296.56810602460047
 11
239.48062869158221
 21
296.56810602460041
  0
LINE
  8
_0-d_寸法3
  6
CONTINUOUS
 62
    7
 10
244.48062869158221
 20
296.56810602460041
 11
247.06881914260742
 21
286.90884776170969
  0
LINE
  8
_0-d_寸法3
  6
CONTINUOUS
 62
    7
 10
244.48062869158221
 20
296.56810602460041
 11
241.892438240557
 21
286.90884776170975
  0
LINE
  8
_0-d_寸法3
  6
CONTINUOUS
 62
    7
 10
283.43065977017176
 20
258.23477269126721
 11
239.48062869158269
 21
258.23477269126715
  0
LINE
  8
_0-d_寸法3
  6
CONTINUOUS
 62
    7
 10
244.48062869158269
 20
258.23477269126715
 11
241.89243824055751
 21
267.89403095415781
  0
LINE
  8
_0-d_寸法3
  6
CONTINUOUS
 62
    7
 10
244.48062869158269
 20
258.23477269126715
 11
247.06881914260791
 21
267.89403095415787
  0
LINE
  8
_0-d_寸法3
  6
CONTINUOUS
 62
    7
 10
244.48062869158221
 20
296.56810602460041
 11
244.48062869158269
 21
258.23477269126715
  0
TEXT
  8
_0-d_寸法3
 62
    7
 10
244.48062869158269
 20
269.90143935793367
 40
15
 41
1
 50
90
  1
23
  0
LINE
  8
_0-d_寸法3
  6
CONTINUOUS
 62
    7
 10
285.43065977017199
 20
258.23477269126698
 11
239.48062869158269
 21
258.23477269126693
  0
LINE
  8
_0-d_寸法3
  6
CONTINUOUS
 62
    7
 10
244.48062869158269
 20
258.23477269126693
 11
247.06881914260791
 21
248.57551442837627
  0
LINE
  8
_0-d_寸法3
  6
CONTINUOUS
 62
    7
 10
244.48062869158269
 20
258.23477269126693
 11
241.89243824055751
 21
248.57551442837629
  0
LINE
  8
_0-d_寸法3
  6
CONTINUOUS
 62
    7
 10
283.43065977017176
 20
219.9014393579337
 11
239.48062869158269
 21
219.9014393579337
  0
LINE
  8
_0-d_寸法3
  6
CONTINUOUS
 62
    7
 10
244.48062869158269
 20
219.9014393579337
 11
241.89243824055751
 21
229.56069762082436
  0
LINE
  8
_0-d_寸法3
  6
CONTINUOUS
 62
    7
 10
244.48062869158269
 20
219.9014393579337
 11
247.06881914260791
 21
229.56069762082436
  0
LINE
  8
_0-d_寸法3
  6
CONTINUOUS
 62
    7
 10
244.48062869158269
 20
258.23477269126693
 11
244.48062869158269
 21
219.9014393579337
  0
TEXT
  8
_0-d_寸法3
 62
    7
 10
244.48062869158269
 20
231.56810602460041
 40
15
 41
1
 50
90
  1
23
  0
LINE
  8
_0-d_寸法3
  6
CONTINUOUS
 62
    7
 10
295.43065977017181
 20
209.9014393579339
 11
295.43065977017142
 21
192.7567474570285
  0
LINE
  8
_0-d_寸法3
  6
CONTINUOUS
 62
    7
 10
295.43065977017147
 20
197.7567474570285
 11
305.08991803306219
 21
200.34493790805371
  0
LINE
  8
_0-d_寸法3
  6
CONTINUOUS
 62
    7
 10
295.43065977017147
 20
197.7567474570285
 11
305.08991803306219
 21
195.16855700600331
  0
LINE
  8
_0-d_寸法3
  6
CONTINUOUS
 62
    7
 10
345.43065977017187
 20
248.23477269126715
 11
345.43065977017102
 21
192.7567474570285
  0
LINE
  8
_0-d_寸法3
  6
CONTINUOUS
 62
    7
 10
345.43065977017108
 20
197.7567474570285
 11
335.77140150728036
 21
195.16855700600331
  0
LINE
  8
_0-d_寸法3
  6
CONTINUOUS
 62
    7
 10
345.43065977017108
 20
197.7567474570285
 11
335.77140150728042
 21
200.34493790805371
  0
LINE
  8
_0-d_寸法3
  6
CONTINUOUS
 62
    7
 10
295.43065977017147
 20
197.7567474570285
 11
345.43065977017108
 21
197.7567474570285
  0
TEXT
  8
_0-d_寸法3
 62
    7
 10
312.93065977017147
 20
197.7567474570285
 40
15
 41
1
 50
0
  1
30
  0
ARC
  8
_0-b_細線3
  6
CONTINUOUS
 62
    7
 10
300.43065977017199
 20
263.23477269126715
 40
5
 50
179.99999999999983
 51
269.99999999999977
  0
LINE
  8
_0-b_細線3
  6
CONTINUOUS
 62
    7
 10
295.43065977017199
 20
263.23477269126715
 11
295.43065977017199
 21
295.73477269126693
  0
LINE
  8
_0-b_細線3
  6
CONTINUOUS
 62
    7
 10
300.43065977017199
 20
258.23477269126715
 11
344.5973264368381
 21
258.23477269126715
  0
LINE
  8
_0-b_細線3
  6
CONTINUOUS
 62
    7
 10
345.43065977017199
 20
259.06810602460041
 11
344.5973264368381
 21
258.23477269126715
  0
LINE
  8
_0-b_細線3
  6
CONTINUOUS
 62
    7
 10
345.43065977017199
 20
262.4014393579339
 11
345.43065977017199
 21
259.06810602460041
  0
LINE
  8
_0-b_細線3
  6
CONTINUOUS
 62
    7
 10
344.5973264368381
 20
263.23477269126715
 11
345.43065977017199
 21
262.4014393579339
  0
LINE
  8
_0-b_細線3
  6
CONTINUOUS
 62
    7
 10
300.43065977017199
 20
263.23477269126715
 11
344.5973264368381
 21
263.23477269126715
  0
LINE
  8
_0-b_細線3
  6
CONTINUOUS
 62
    7
 10
296.26399310350507
 20
296.56810602460041
 11
295.43065977017199
 21
295.73477269126693
  0
LINE
  8
_0-b_細線3
  6
CONTINUOUS
 62
    7
 10
299.5973264368381
 20
296.56810602460041
 11
296.26399310350507
 21
296.56810602460041
  0
LINE
  8
_0-b_細線3
  6
CONTINUOUS
 62
    7
 10
300.43065977017199
 20
295.73477269126693
 11
299.5973264368381
 21
296.56810602460041
  0
LINE
  8
_0-b_細線3
  6
CONTINUOUS
 62
    7
 10
300.43065977017199
 20
263.23477269126715
 11
300.43065977017199
 21
295.73477269126693
  0
LINE
  8
_0-b_細線3
  6
CONTINUOUS
 62
    7
 10
308.76399310350507
 20
263.2347726912667
 11
308.76399310350507
 21
296.56810602459973
  0
LINE
  8
_0-b_細線3
  6
CONTINUOUS
 62
    7
 10
308.76399310350507
 20
296.56810602459973
 11
303.76399310350507
 21
296.56810602459973
  0
LINE
  8
_0-b_細線3
  6
CONTINUOUS
 62
    7
 10
303.76399310350507
 20
296.56810602459973
 11
303.76399310350507
 21
263.2347726912667
  0
LINE
  8
_0-b_細線3
  6
CONTINUOUS
 62
    7
 10
303.76399310350507
 20
263.2347726912667
 11
308.76399310350507
 21
263.2347726912667
  0
ARC
  8
_0-b_細線3
  6
CONTINUOUS
 62
    7
 10
345.43065977017159
 20
279.9014393579339
 40
8.75
 50
294.03943363457506
 51
65.960566365424228
  0
ARC
  8
_0-b_細線3
  6
CONTINUOUS
 62
    7
 10
345.43065977017159
 20
279.9014393579339
 40
8.75
 50
114.03943363457542
 51
245.96056636541877
  0
ARC
  8
_0-b_細線3
  6
CONTINUOUS
 62
    7
 10
345.43065977016425
 20
274.06810602454311
 40
2.4999999999928004
 50
179.99999999999983
 51
359.99999999999966
  0
LINE
  8
_0-b_細線3
  6
CONTINUOUS
 62
    7
 10
342.93065977017159
 20
285.73477269126738
 11
342.93065977017159
 21
274.06810602460064
  0
ARC
  8
_0-b_細線3
  6
CONTINUOUS
 62
    7
 10
345.43065977016425
 20
285.73477269133923
 40
2.5000000000072005
 50
0
 51
179.99999999999983
  0
LINE
  8
_0-b_細線3
  6
CONTINUOUS
 62
    7
 10
347.93065977017159
 20
274.06810602460064
 11
347.93065977017159
 21
285.73477269126738
  0
ARC
  8
_0-b_細線3
  6
CONTINUOUS
 62
    7
 10
345.43065977017699
 20
274.06810602458177
 40
4.1666666666723522
 50
179.99999999999983
 51
359.99999999999966
  0
LINE
  8
_0-b_細線3
  6
CONTINUOUS
 62
    7
 10
341.26399310350553
 20
285.73477269126738
 11
341.26399310350553
 21
274.06810602460064
  0
ARC
  8
_0-b_細線3
  6
CONTINUOUS
 62
    7
 10
345.43065977013885
 20
285.73477269136515
 40
4.1666666667000154
 50
0
 51
179.99999999999983
  0
LINE
  8
_0-b_細線3
  6
CONTINUOUS
 62
    7
 10
349.5973264368385
 20
274.06810602460064
 11
349.5973264368385
 21
285.73477269126738
  0
CIRCLE
  8
_0-a_極細3
  6
CONTINUOUS
 62
    7
 10
717.42534367809685
 20
281.83355347829706
 40
0.5530864197530718
  0
CIRCLE
  8
_0-a_極細3
  6
CONTINUOUS
 62
    7
 10
665.42534367809776
 20
282.76688681163046
 40
0.5530864197530718
  0
LINE
  8
_0-a_極細3
  6
CONTINUOUS
 62
    7
 10
653.76399310350507
 20
296.56810602460041
 11
653.76399310350507
 21
284.90143935793344
  0
LINE
  8
_0-a_極細3
  6
CONTINUOUS
 62
    7
 10
653.76399310350507
 20
296.56810602460041
 11
742.94174024862014
 21
296.56810602460041
  0
LINE
  8
_0-a_極細3
  6
CONTINUOUS
 62
    7
 10
645.43065977017204
 20
284.90143935793344
 11
742.94174024862014
 21
284.90143935793344
  0
LINE
  8
_0-a_極細3
  6
CONTINUOUS
 62
    7
 10
645.43065977017204
 20
296.56810602460041
 11
653.76399310350507
 21
296.56810602460041
  0
LINE
  8
_0-a_極細3
  6
CONTINUOUS
 62
    7
 10
645.43065977017204
 20
295.73477269126693
 11
645.43065977017204
 21
296.56810602460041
  0
LINE
  8
_0-a_極細3
  6
CONTINUOUS
 62
    7
 10
653.76399310350507
 20
288.57052563865841
 11
650.09490682278056
 21
284.90143935793344
  0
LINE
  8
_0-a_極細3
  6
CONTINUOUS
 62
    7
 10
653.76399310350507
 20
292.8131663257775
 11
645.85226613566147
 21
284.90143935793344
  0
LINE
  8
_0-a_極細3
  6
CONTINUOUS
 62
    7
 10
645.43065977017204
 20
288.72247367956356
 11
653.27629211520843
 21
296.56810602460041
  0
LINE
  8
_0-a_極細3
  6
CONTINUOUS
 62
    7
 10
645.43065977017204
 20
292.96511436668288
 11
649.03365142808934
 21
296.56810602460018
  0
LINE
  8
_0-a_極細3
  6
CONTINUOUS
 62
    7
 10
653.76399310350507
 20
295.05878381509478
 11
652.25467089399945
 21
296.56810602460041
  0
LINE
  8
_0-a_極細3
  6
CONTINUOUS
 62
    7
 10
653.76399310350507
 20
290.81614312797547
 11
648.01203020688035
 21
296.56810602460041
  0
LINE
  8
_0-a_極細3
  6
CONTINUOUS
 62
    7
 10
653.76399310350507
 20
286.57350244085615
 11
645.43065977017204
 21
294.90683577418963
  0
LINE
  8
_0-a_極細3
  6
CONTINUOUS
 62
    7
 10
651.19341549930823
 20
284.90143935793344
 11
645.43065977017204
 21
290.66419508707031
  0
LINE
  8
_0-a_極細3
  6
CONTINUOUS
 62
    7
 10
646.95077481218914
 20
284.90143935793344
 11
645.43065977017204
 21
286.42155439995099
  0
LINE
  8
_0-a_極細3
  6
CONTINUOUS
 62
    7
 10
722.21979850380785
 20
284.90143935793344
 11
733.88646454368563
 21
296.56810539781122
  0
LINE
  8
_0-a_極細3
  6
CONTINUOUS
 62
    7
 10
701.00659506821148
 20
284.90143935793367
 11
712.67326127403851
 21
296.5681055637599
  0
LINE
  8
_0-a_極細3
  6
CONTINUOUS
 62
    7
 10
679.79339163261511
 20
284.90143935793344
 11
691.46005800439025
 21
296.56810572970812
  0
LINE
  8
_0-a_極細3
  6
CONTINUOUS
 62
    7
 10
658.58018819701886
 20
284.90143935793344
 11
670.2468547347421
 21
296.5681058956568
  0
LINE
  8
_0-a_極細3
  6
DASHED2
 62
    7
 10
732.82640022160695
 20
284.90143935793367
 11
742.94174024862014
 21
295.01677938494709
  0
LINE
  8
_0-a_極細3
  6
DASHED2
 62
    7
 10
711.61319678600978
 20
284.90143935793344
 11
723.27986290886156
 21
296.56810548078533
  0
LINE
  8
_0-a_極細3
  6
DASHED2
 62
    7
 10
690.3999933504133
 20
284.90143935793344
 11
702.06665963921432
 21
296.56810564673401
  0
LINE
  8
_0-a_極細3
  6
DASHED2
 62
    7
 10
669.18678991481693
 20
284.90143935793344
 11
680.85345636956617
 21
296.56810581268246
  0
LINE
  8
_0-a_極細3
  6
DASHED2
 62
    7
 10
653.76399310350507
 20
290.69184598221796
 11
659.64025309991814
 21
296.56810597863091
  0
CIRCLE
  8
_0-a_極細3
  6
CONTINUOUS
 62
    7
 10
725.42534367809697
 20
282.20361520669235
 40
1.825531472681392
  0
LINE
  8
_0-a_極細3
  6
CONTINUOUS
 62
    7
 10
712.0973264368381
 20
251.56810602460041
 11
712.0973264368381
 21
183.23477269126712
  0
LINE
  8
_0-a_極細3
  6
CONTINUOUS
 62
    7
 10
628.76399310350507
 20
183.23477269126712
 11
712.0973264368381
 21
183.23477269126712
  0
LINE
  8
_0-a_極細3
  6
CONTINUOUS
 62
    7
 10
712.0973264368381
 20
251.56810602460041
 11
742.94174024862014
 21
251.56810602460041
  0
LINE
  8
_0-a_極細3
  6
CONTINUOUS
 62
    7
 10
628.76399310350507
 20
183.23477269126712
 11
628.76399310350507
 21
156.99317239648806
  0
LINE
  8
_0-a_極細3
  6
CONTINUOUS
 62
    7
 10
720.3873288514319
 20
156.99317239648806
 11
742.94174029016051
 21
179.54758383521698
  0
LINE
  8
_0-a_極細3
  6
CONTINUOUS
 62
    7
 10
649.67665073277703
 20
156.99317239648806
 11
675.91825102755547
 21
183.23477269126712
  0
LINE
  8
_0-a_極細3
  6
CONTINUOUS
 62
    7
 10
712.0973264368381
 20
219.41384810054981
 11
742.94174024937502
 21
250.2582619130867
  0
LINE
  8
_0-a_極細3
  6
CONTINUOUS
 62
    7
 10
713.31626103956626
 20
156.99317239648806
 11
742.94174028608222
 21
186.61865164300409
  0
LINE
  8
_0-a_極細3
  6
CONTINUOUS
 62
    7
 10
642.60558292091127
 20
156.99317239648806
 11
668.84718321569062
 21
183.23477269126712
  0
LINE
  8
_0-a_極細3
  6
CONTINUOUS
 62
    7
 10
712.0973264368381
 20
226.48491591241535
 11
737.18051636947303
 21
251.56810584505001
  0
LINE
  8
_0-a_極細3
  6
CONTINUOUS
 62
    7
 10
706.24519322770038
 20
156.99317239648806
 11
742.94174028200314
 21
193.68971945079102
  0
LINE
  8
_0-a_極細3
  6
CONTINUOUS
 62
    7
 10
635.53451510904551
 20
156.99317239648806
 11
661.77611540382486
 21
183.23477269126712
  0
LINE
  8
_0-a_極細3
  6
CONTINUOUS
 62
    7
 10
712.0973264368381
 20
233.55598372428088
 11
730.10944860822428
 21
251.56810589566615
  0
CIRCLE
  8
_0-a_極細3
  6
CONTINUOUS
 62
    7
 10
615.16978812254229
 20
242.08910903385322
 40
0.5530864197530718
  0
CIRCLE
  8
_0-a_極細3
  6
CONTINUOUS
 62
    7
 10
625.12534367809758
 20
246.8891090338532
 40
0.5530864197530718
  0
CIRCLE
  8
_0-a_極細3
  6
CONTINUOUS
 62
    7
 10
621.03645478920907
 20
221.91133125607578
 40
0.5530864197530718
  0
CIRCLE
  8
_0-a_極細3
  6
CONTINUOUS
 62
    7
 10
638.56978812254283
 20
204.8891090338536
 40
0.5530864197530718
  0
CIRCLE
  8
_0-a_極細3
  6
CONTINUOUS
 62
    7
 10
620.73645478920889
 20
181.5891090338539
 40
0.5530864197530718
  0
CIRCLE
  8
_0-a_極細3
  6
CONTINUOUS
 62
    7
 10
611.40312145587586
 20
163.72244236718734
 40
0.5530864197530718
  0
CIRCLE
  8
_0-a_極細3
  6
CONTINUOUS
 62
    7
 10
622.8697881225421
 20
193.58910903385365
 40
0.5530864197530718
  0
CIRCLE
  8
_0-a_極細3
  6
CONTINUOUS
 62
    7
 10
636.73645478920889
 20
188.78910903385375
 40
0.5530864197530718
  0
CIRCLE
  8
_0-a_極細3
  6
CONTINUOUS
 62
    7
 10
663.66978812254229
 20
189.05577570052037
 40
0.5530864197530718
  0
CIRCLE
  8
_0-a_極細3
  6
CONTINUOUS
 62
    7
 10
651.66978812254229
 20
198.12244236718698
 40
0.5530864197530718
  0
CIRCLE
  8
_0-a_極細3
  6
CONTINUOUS
 62
    7
 10
662.86978812254222
 20
203.72244236718686
 40
0.5530864197530718
  0
CIRCLE
  8
_0-a_極細3
  6
CONTINUOUS
 62
    7
 10
650.892010344764
 20
258.01133125607521
 40
0.5530864197530718
  0
CIRCLE
  8
_0-a_極細3
  6
CONTINUOUS
 62
    7
 10
671.42534367809776
 20
257.30022014496421
 40
0.5530864197530718
  0
CIRCLE
  8
_0-a_極細3
  6
CONTINUOUS
 62
    7
 10
659.82534367809751
 20
243.30022014496421
 40
0.5530864197530718
  0
CIRCLE
  8
_0-a_極細3
  6
CONTINUOUS
 62
    7
 10
699.02534367809722
 20
190.10022014496485
 40
0.5530864197530718
  0
CIRCLE
  8
_0-a_極細3
  6
CONTINUOUS
 62
    7
 10
706.22534367809703
 20
204.10022014496491
 40
0.5530864197530718
  0
CIRCLE
  8
_0-a_極細3
  6
CONTINUOUS
 62
    7
 10
704.62534367809667
 20
224.90022014496461
 40
0.5530864197530718
  0
CIRCLE
  8
_0-a_極細3
  6
CONTINUOUS
 62
    7
 10
686.62534367809758
 20
246.1002201449644
 40
0.5530864197530718
  0
CIRCLE
  8
_0-a_極細3
  6
CONTINUOUS
 62
    7
 10
703.42534367809685
 20
265.70022014496408
 40
0.5530864197530718
  0
CIRCLE
  8
_0-a_極細3
  6
CONTINUOUS
 62
    7
 10
700.62534367809678
 20
238.90022014496438
 40
0.5530864197530718
  0
CIRCLE
  8
_0-a_極細3
  6
CONTINUOUS
 62
    7
 10
730.22534367809715
 20
260.10022014496417
 40
0.5530864197530718
  0
CIRCLE
  8
_0-a_極細3
  6
CONTINUOUS
 62
    7
 10
709.78089923365269
 20
258.40361520669262
 40
1.825531472681392
  0
CIRCLE
  8
_0-a_極細3
  6
CONTINUOUS
 62
    7
 10
654.35867701143127
 20
264.9813929844704
 40
1.825531472681392
  0
CIRCLE
  8
_0-a_極細3
  6
CONTINUOUS
 62
    7
 10
686.35867701143025
 20
232.98139298447066
 40
1.825531472681392
  0
CIRCLE
  8
_0-a_極細3
  6
CONTINUOUS
 62
    7
 10
615.96423256698699
 20
188.43139298447113
 40
1.825531472681392
  0
CIRCLE
  8
_0-a_極細3
  6
CONTINUOUS
 62
    7
 10
626.18645478920871
 20
218.29805965113769
 40
1.825531472681392
  0
CIRCLE
  8
_0-a_極細3
  6
CONTINUOUS
 62
    7
 10
661.38645478920853
 20
195.89805965113783
 40
1.825531472681392
  0
CIRCLE
  8
_0-a_極細3
  6
CONTINUOUS
 62
    7
 10
707.65164742449224
 20
185.71100725916835
 40
1.825531472681392
  0
CIRCLE
  8
_0-a_極細3
  6
CONTINUOUS
 62
    7
 10
656.98645478920889
 20
239.09805965113745
 40
1.825531472681392
  0
CIRCLE
  8
_0-a_極細3
  6
CONTINUOUS
 62
    7
 10
609.52040540649296
 20
233.67485424410097
 40
0.5530864197530718
  0
CIRCLE
  8
_0-a_極細3
  6
CONTINUOUS
 62
    7
 10
609.72040540649368
 20
209.71929868854571
 40
0.5530864197530718
  0
CIRCLE
  8
_0-a_極細3
  6
CONTINUOUS
 62
    7
 10
686.75867701143079
 20
270.4480596511371
 40
1.825531472681392
  0
LINE
  8
_0-a_極細3
  6
CONTINUOUS
 62
    7
 10
596.26399310350416
 20
258.23477269126715
 11
595.43065977017113
 21
258.23477269126715
  0
LINE
  8
_0-a_極細3
  6
CONTINUOUS
 62
    7
 10
595.43065977017113
 20
258.23477269126715
 11
595.43065977017113
 21
156.99317239648806
  0
CIRCLE
  8
_0-a_極細3
  6
CONTINUOUS
 62
    7
 10
601.41505561225449
 20
218.17799792274243
 40
0.5530864197530718
  0
CIRCLE
  8
_0-a_極細3
  6
CONTINUOUS
 62
    7
 10
602.72163997439429
 20
178.92244236718716
 40
0.5530864197530718
  0
CIRCLE
  8
_0-a_極細3
  6
CONTINUOUS
 62
    7
 10
602.0827510855047
 20
244.87583742891573
 40
1.825531472681392
  0
CIRCLE
  8
_0-a_極細3
  6
CONTINUOUS
 62
    7
 10
605.03089923365269
 20
172.25361520669324
 40
1.825531472681392
  0
LINE
  8
_0-a_極細3
  6
CONTINUOUS
 62
    7
 10
689.07072799065691
 20
208.11647385377071
 11
694.20103014054223
 21
222.21186316555918
  0
LINE
  8
_0-a_極細3
  6
CONTINUOUS
 62
    7
 10
639.07668531686113
 20
242.27548386480547
 11
633.94638316697592
 21
228.18009455301694
  0
LINE
  8
_0-a_極細3
  6
CONTINUOUS
 62
    7
 10
694.20103014054223
 20
222.21186316555918
 11
639.07668531686113
 21
242.27548386480547
  0
LINE
  8
_0-a_極細3
  6
CONTINUOUS
 62
    7
 10
689.07072799065691
 20
208.11647385377071
 11
633.94638316697592
 21
228.18009455301694
  0
LINE
  8
_0-a_極細3
  6
CENTER1
 62
    7
 10
696.59131245759227
 20
213.360538469635
 11
632.56029197502676
 21
236.66592395467049
  0
LINE
  8
_0-a_極細3
  6
CONTINUOUS
 62
    7
 10
670.43065977017204
 20
183.23477269126712
 11
670.43065977017204
 21
227.32033403958326
  0
LINE
  8
_0-a_極細3
  6
CONTINUOUS
 62
    7
 10
670.43065977017204
 20
227.32033403958326
 11
685.43065977017204
 21
227.32033403958326
  0
LINE
  8
_0-a_極細3
  6
CONTINUOUS
 62
    7
 10
685.43065977017204
 20
227.32033403958326
 11
685.43065977017204
 21
183.23477269126712
  0
LINE
  8
_0-a_極細3
  6
CENTER1
 62
    7
 10
677.93065977017204
 20
174.95803240681425
 11
677.93065977017204
 21
231.59605420419282
  0
CIRCLE
  8
_0-a_極細3
  6
CONTINUOUS
 62
    7
 10
672.04756590032002
 20
240.3965164412607
 40
0.5530864197530718
  0
CIRCLE
  8
_0-a_極細3
  6
CONTINUOUS
 62
    7
 10
694.26375245724694
 20
227.05330656471779
 40
0.5530864197530718
  0
LINE
  8
_0-d_寸法3
  6
CONTINUOUS
 62
    7
 10
645.43065977017204
 20
209.9014393579339
 11
645.43065977017204
 21
192.7567474570285
  0
LINE
  8
_0-d_寸法3
  6
CONTINUOUS
 62
    7
 10
645.43065977017204
 20
197.7567474570285
 11
635.77140150728133
 21
195.16855700600331
  0
LINE
  8
_0-d_寸法3
  6
CONTINUOUS
 62
    7
 10
645.43065977017204
 20
197.7567474570285
 11
635.77140150728133
 21
200.34493790805371
  0
LINE
  8
_0-d_寸法3
  6
CONTINUOUS
 62
    7
 10
595.43065977017204
 20
248.23477269126715
 11
595.43065977017204
 21
192.7567474570285
  0
LINE
  8
_0-d_寸法3
  6
CONTINUOUS
 62
    7
 10
595.43065977017204
 20
197.7567474570285
 11
605.08991803306276
 21
200.34493790805371
  0
LINE
  8
_0-d_寸法3
  6
CONTINUOUS
 62
    7
 10
595.43065977017204
 20
197.7567474570285
 11
605.08991803306276
 21
195.16855700600331
  0
LINE
  8
_0-d_寸法3
  6
CONTINUOUS
 62
    7
 10
645.43065977017204
 20
197.7567474570285
 11
595.43065977017204
 21
197.7567474570285
  0
TEXT
  8
_0-d_寸法3
 62
    7
 10
612.93065977017204
 20
197.75674745702844
 40
15
 41
1
 50
0.0000000000005428
  1
30
  0
ARC
  8
_0-b_細線3
  6
CONTINUOUS
 62
    7
 10
640.43065977017204
 20
263.23477269126715
 40
5
 50
269.99999999999977
 51
359.99999999999966
  0
LINE
  8
_0-b_細線3
  6
CONTINUOUS
 62
    7
 10
645.43065977017204
 20
263.23477269126715
 11
645.43065977017204
 21
295.73477269126693
  0
LINE
  8
_0-b_細線3
  6
CONTINUOUS
 62
    7
 10
640.43065977017204
 20
258.23477269126715
 11
596.26399310350416
 21
258.23477269126715
  0
LINE
  8
_0-b_細線3
  6
CONTINUOUS
 62
    7
 10
595.43065977017113
 20
259.06810602460041
 11
596.26399310350416
 21
258.23477269126715
  0
LINE
  8
_0-b_細線3
  6
CONTINUOUS
 62
    7
 10
595.43065977017113
 20
262.4014393579339
 11
595.43065977017113
 21
259.06810602460041
  0
LINE
  8
_0-b_細線3
  6
CONTINUOUS
 62
    7
 10
596.26399310350416
 20
263.23477269126715
 11
595.43065977017113
 21
262.4014393579339
  0
LINE
  8
_0-b_細線3
  6
CONTINUOUS
 62
    7
 10
640.43065977017204
 20
263.23477269126715
 11
596.26399310350416
 21
263.23477269126715
  0
LINE
  8
_0-b_細線3
  6
CONTINUOUS
 62
    7
 10
644.59732643683901
 20
296.56810602460041
 11
645.43065977017204
 21
295.73477269126693
  0
LINE
  8
_0-b_細線3
  6
CONTINUOUS
 62
    7
 10
641.26399310350507
 20
296.56810602460041
 11
644.59732643683901
 21
296.56810602460041
  0
LINE
  8
_0-b_細線3
  6
CONTINUOUS
 62
    7
 10
640.43065977017204
 20
295.73477269126693
 11
641.26399310350507
 21
296.56810602460041
  0
LINE
  8
_0-b_細線3
  6
CONTINUOUS
 62
    7
 10
640.43065977017204
 20
263.23477269126715
 11
640.43065977017204
 21
295.73477269126693
  0
LINE
  8
_0-b_細線3
  6
CONTINUOUS
 62
    7
 10
632.09732643683901
 20
263.23477269126738
 11
632.09732643683901
 21
296.56810602460041
  0
LINE
  8
_0-b_細線3
  6
CONTINUOUS
 62
    7
 10
632.09732643683901
 20
296.56810602460041
 11
637.09732643683901
 21
296.56810602460041
  0
LINE
  8
_0-b_細線3
  6
CONTINUOUS
 62
    7
 10
637.09732643683901
 20
296.56810602460041
 11
637.09732643683901
 21
263.23477269126738
  0
LINE
  8
_0-b_細線3
  6
CONTINUOUS
 62
    7
 10
637.09732643683901
 20
263.23477269126738
 11
632.09732643683901
 21
263.23477269126738
  0
ARC
  8
_0-b_細線3
  6
CONTINUOUS
 62
    7
 10
595.43065977017204
 20
279.9014393579339
 40
8.75
 50
294.03943363457506
 51
65.960566365424228
  0
ARC
  8
_0-b_細線3
  6
CONTINUOUS
 62
    7
 10
595.43065977017204
 20
279.9014393579339
 40
8.75
 50
114.03943363457542
 51
245.96056636541877
  0
ARC
  8
_0-b_細線3
  6
CONTINUOUS
 62
    7
 10
595.43065977016477
 20
274.06810602454311
 40
2.4999999999928004
 50
179.99999999999983
 51
359.99999999999966
  0
LINE
  8
_0-b_細線3
  6
CONTINUOUS
 62
    7
 10
592.93065977017204
 20
285.73477269126738
 11
592.93065977017204
 21
274.06810602460064
  0
ARC
  8
_0-b_細線3
  6
CONTINUOUS
 62
    7
 10
595.43065977016477
 20
285.73477269133923
 40
2.5000000000072005
 50
0
 51
179.99999999999983
  0
LINE
  8
_0-b_細線3
  6
CONTINUOUS
 62
    7
 10
597.93065977017204
 20
274.06810602460064
 11
597.93065977017204
 21
285.73477269126738
  0
ARC
  8
_0-b_細線3
  6
CONTINUOUS
 62
    7
 10
595.4306597701775
 20
274.06810602458177
 40
4.1666666666723522
 50
179.99999999999983
 51
359.99999999999966
  0
LINE
  8
_0-b_細線3
  6
CONTINUOUS
 62
    7
 10
591.26399310350598
 20
285.73477269126738
 11
591.26399310350598
 21
274.06810602460064
  0
ARC
  8
_0-b_細線3
  6
CONTINUOUS
 62
    7
 10
595.4306597701393
 20
285.73477269136515
 40
4.1666666667000154
 50
0
 51
179.99999999999983
  0
LINE
  8
_0-b_細線3
  6
CONTINUOUS
 62
    7
 10
599.59732643683901
 20
274.06810602460064
 11
599.59732643683901
 21
285.73477269126738
  0
LINE
  8
_0-b_細線3
  6
CONTINUOUS
 62
    7
 10
632.09732643683901
 20
296.56810602460041
 11
308.76399310350507
 21
296.56810602459973
  0
LINE
  8
_0-d_寸法3
  6
CONTINUOUS
 62
    7
 10
345.43065977017199
 20
253.23477269126715
 11
345.43065977017199
 21
192.7567474570285
  0
LINE
  8
_0-d_寸法3
  6
CONTINUOUS
 62
    7
 10
345.43065977017199
 20
197.7567474570285
 11
355.08991803306265
 21
200.34493790805371
  0
LINE
  8
_0-d_寸法3
  6
CONTINUOUS
 62
    7
 10
345.43065977017199
 20
197.7567474570285
 11
355.08991803306265
 21
195.16855700600331
  0
LINE
  8
_0-d_寸法3
  6
CONTINUOUS
 62
    7
 10
595.43065977017113
 20
253.23477269126715
 11
595.43065977017113
 21
192.7567474570285
  0
LINE
  8
_0-d_寸法3
  6
CONTINUOUS
 62
    7
 10
595.43065977017113
 20
197.7567474570285
 11
585.77140150728042
 21
195.16855700600331
  0
LINE
  8
_0-d_寸法3
  6
CONTINUOUS
 62
    7
 10
595.43065977017113
 20
197.7567474570285
 11
585.77140150728042
 21
200.34493790805371
  0
LINE
  8
_0-d_寸法3
  6
CONTINUOUS
 62
    7
 10
345.43065977017199
 20
197.7567474570285
 11
595.43065977017113
 21
197.7567474570285
  0
TEXT
  8
_0-d_寸法3
 62
    7
 10
459.18065977017199
 20
197.7567474570285
 40
15
 41
1
 50
0
  1
150
  0
LINE
  8
_0-b_細線3
  6
CONTINUOUS
 62
    7
 10
632.09732643683901
 20
263.23477269126738
 11
308.76399310350507
 21
263.2347726912667
  0
LINE
  8
_0-a_極細3
  6
CENTER1
 62
    7
 10
648.09741483799417
 20
279.9014393579339
 11
293.77666732563142
 21
279.9014393579339
  0
LINE
  8
_0-d_寸法3
  6
CONTINUOUS
 62
    7
 10
295.43065977017199
 20
301.56810602460041
 11
295.4306597701725
 21
421.56810602460041
  0
LINE
  8
_0-d_寸法3
  6
CONTINUOUS
 62
    7
 10
295.4306597701725
 20
416.56810602460041
 11
305.08991803306316
 21
419.1562964756256
  0
LINE
  8
_0-d_寸法3
  6
CONTINUOUS
 62
    7
 10
295.4306597701725
 20
416.56810602460041
 11
305.08991803306316
 21
413.97991557357528
  0
LINE
  8
_0-d_寸法3
  6
CONTINUOUS
 62
    7
 10
645.43065977017204
 20
301.56810602460041
 11
645.43065977017204
 21
421.56810602460041
  0
LINE
  8
_0-d_寸法3
  6
CONTINUOUS
 62
    7
 10
645.43065977017204
 20
416.56810602460041
 11
635.77140150728133
 21
413.97991557357528
  0
LINE
  8
_0-d_寸法3
  6
CONTINUOUS
 62
    7
 10
645.43065977017204
 20
416.56810602460041
 11
635.77140150728133
 21
419.15629647562571
  0
LINE
  8
_0-d_寸法3
  6
CONTINUOUS
 62
    7
 10
295.4306597701725
 20
416.56810602460041
 11
645.43065977017204
 21
416.56810602460041
  0
TEXT
  8
_0-d_寸法3
 62
    7
 10
459.18065977017199
 20
416.56810602460041
 40
15
 41
1
 50
0
  1
210
  0
LINE
  8
_0-d_寸法3
  6
CONTINUOUS
 62
    7
 10
303.76399310350513
 20
306.56810602460064
 11
303.76399310350553
 21
351.56810602460041
  0
LINE
  8
_0-d_寸法3
  6
CONTINUOUS
 62
    7
 10
303.76399310350553
 20
346.56810602460041
 11
313.42325136639613
 21
349.1562964756256
  0
LINE
  8
_0-d_寸法3
  6
CONTINUOUS
 62
    7
 10
303.76399310350553
 20
346.56810602460041
 11
313.42325136639613
 21
343.97991557357523
  0
LINE
  8
_0-d_寸法3
  6
CONTINUOUS
 62
    7
 10
345.43065977017199
 20
306.56810602460064
 11
345.43065977017199
 21
351.56810602460041
  0
LINE
  8
_0-d_寸法3
  6
CONTINUOUS
 62
    7
 10
345.43065977017199
 20
346.56810602460041
 11
335.77140150728127
 21
343.97991557357523
  0
LINE
  8
_0-d_寸法3
  6
CONTINUOUS
 62
    7
 10
345.43065977017199
 20
346.56810602460041
 11
335.77140150728133
 21
349.15629647562571
  0
LINE
  8
_0-d_寸法3
  6
CONTINUOUS
 62
    7
 10
303.76399310350553
 20
346.56810602460041
 11
345.43065977017199
 21
346.56810602460041
  0
TEXT
  8
_0-d_寸法3
 62
    7
 10
317.0973264368389
 20
346.56810602460041
 40
15
 41
1
 50
0
  1
25
  0
LINE
  8
_0-d_寸法3
  6
CONTINUOUS
 62
    7
 10
345.43065977017199
 20
346.56810602460041
 11
355.08991803306276
 21
349.15629647562554
  0
LINE
  8
_0-d_寸法3
  6
CONTINUOUS
 62
    7
 10
345.43065977017199
 20
346.56810602460041
 11
355.08991803306265
 21
343.97991557357523
  0
LINE
  8
_0-d_寸法3
  6
CONTINUOUS
 62
    7
 10
595.43065977017204
 20
306.56810602460018
 11
595.43065977017204
 21
351.56810602460041
  0
LINE
  8
_0-d_寸法3
  6
CONTINUOUS
 62
    7
 10
595.43065977017204
 20
346.56810602460041
 11
585.77140150728133
 21
343.97991557357523
  0
LINE
  8
_0-d_寸法3
  6
CONTINUOUS
 62
    7
 10
595.43065977017204
 20
346.56810602460041
 11
585.77140150728133
 21
349.15629647562571
  0
LINE
  8
_0-d_寸法3
  6
CONTINUOUS
 62
    7
 10
345.43065977017199
 20
346.56810602460041
 11
595.43065977017204
 21
346.56810602460041
  0
TEXT
  8
_0-d_寸法3
 62
    7
 10
459.18065977017199
 20
346.56810602460041
 40
15
 41
1
 50
0
  1
150
  0
LINE
  8
_0-d_寸法3
  6
CONTINUOUS
 62
    7
 10
595.43065977017204
 20
346.56810602460041
 11
605.08991803306276
 21
349.15629647562554
  0
LINE
  8
_0-d_寸法3
  6
CONTINUOUS
 62
    7
 10
595.43065977017204
 20
346.56810602460041
 11
605.08991803306276
 21
343.97991557357523
  0
LINE
  8
_0-d_寸法3
  6
CONTINUOUS
 62
    7
 10
637.09732643683901
 20
306.56810602460041
 11
637.09732643683901
 21
351.56810602460041
  0
LINE
  8
_0-d_寸法3
  6
CONTINUOUS
 62
    7
 10
637.09732643683901
 20
346.56810602460041
 11
627.4380681739483
 21
343.97991557357523
  0
LINE
  8
_0-d_寸法3
  6
CONTINUOUS
 62
    7
 10
637.09732643683901
 20
346.56810602460041
 11
627.4380681739483
 21
349.15629647562571
  0
LINE
  8
_0-d_寸法3
  6
CONTINUOUS
 62
    7
 10
595.43065977017204
 20
346.56810602460041
 11
637.09732643683901
 21
346.56810602460041
  0
TEXT
  8
_0-d_寸法3
 62
    7
 10
608.76399310350553
 20
346.56810602460041
 40
15
 41
1
 50
0
  1
25
  0
LINE
  8
_0-7_枠細線
  6
CONTINUOUS
 62
    5
 10
1139.4018171150183
 20
373.42884000293418
 11
1139.4018171150183
 21
453.42884000293424
  0
LINE
  8
_0-7_枠細線
  6
CONTINUOUS
 62
    5
 10
1229.4018171150183
 20
373.42884000293418
 11
1229.4018171150183
 21
453.42884000293424
  0
TEXT
  8
_0-7_枠細線
 62
    5
 10
1251.9018171150183
 20
430.92884000293424
 40
15
 41
1
 50
0
  1
蓋重量
  0
LINE
  8
_0-7_枠細線
  6
CONTINUOUS
 62
    5
 10
1319.4018171150183
 20
373.42884000293418
 11
1319.4018171150183
 21
453.42884000293424
  0
TEXT
  8
_0-7_枠細線
 62
    5
 10
1341.9018171150183
 20
430.92884000293424
 40
15
 41
1
 50
0
  1
枠重量
  0
LINE
  8
_0-7_枠細線
  6
CONTINUOUS
 62
    5
 10
1139.4018171150183
 20
423.42884000293424
 11
1409.4018171150183
 21
423.42884000293424
  0
LINE
  8
_0-7_枠細線
  6
CONTINUOUS
 62
    5
 10
1139.4018171150183
 20
453.42884000293424
 11
1409.4018171150183
 21
453.42884000293424
  0
LINE
  8
_0-7_枠細線
  6
CONTINUOUS
 62
    5
 10
1139.4018171150183
 20
373.42884000293418
 11
1409.4018171150183
 21
373.42884000293418
  0
LINE
  8
_0-7_枠細線
  6
CONTINUOUS
 62
    5
 10
1409.4018171150183
 20
373.42884000293418
 11
1409.4018171150183
 21
453.42884000293424
  0
TEXT
  8
_0-7_枠細線
 62
    5
 10
1154.4018171150183
 20
430.92884000293424
 40
15
 41
1
 50
0
  1
適用荷重
  0
TEXT
  8
_0-7_枠細線
 62
    5
 10
1334.4018171150183
 20
392.17884000293424
 40
15
 41
0.8000000000000001
 50
0
  1
2.4kg/ｍ組
  0
TEXT
  8
_0-7_枠細線
 62
    5
 10
1250.4018171150187
 20
392.17884000293424
 40
15
 41
0.8000000000000001
 50
0
  1
4.8kg/枚
  0
TEXT
  8
_0-7_枠細線
 62
    5
 10
1161.9018171150183
 20
400.92884000293424
 40
15
 41
1
 50
0
  1
歩道用
  0
TEXT
  8
_0-7_枠細線
 62
    5
 10
1139.4018171150183
 20
380.92884000293418
 40
15
 41
1
 50
0
  1
（5.0kN/㎡）
  0
LINE
  8
_0-1_計細線
  6
CONTINUOUS
 62
    3
 10
230.93374976070123
 20
756.93908616188435
 11
200.93374976070123
 21
756.93908616188435
  0
LINE
  8
_0-1_計細線
  6
CONTINUOUS
 62
    3
 10
1248.9337497607007
 20
756.93908616188355
 11
1218.9337497607007
 21
756.93908616188355
  0
LINE
  8
_0-1_計細線
  6
CONTINUOUS
 62
    3
 10
199.54663263694329
 20
783.93908616188673
 11
1247.5466326369424
 21
783.93908616188583
  0
LINE
  8
_0-1_計細線
  6
CONTINUOUS
 62
    3
 10
200.93374976070123
 20
786.93908616188662
 11
1248.9337497607007
 21
786.93908616188583
  0
ARC
  8
_0-1_計細線
  6
CONTINUOUS
 62
    3
 10
188.65075451057214
 20
764.4390861618848
 40
14.391732776656191
 50
328.59175045525751
 51
31.408249544743832
  0
ARC
  8
_0-1_計細線
  6
CONTINUOUS
 62
    3
 10
213.21674501082839
 20
779.43908616188537
 40
14.391732776655743
 50
148.59175045525689
 51
211.40824954473919
  0
ARC
  8
_0-1_計細線
  6
CONTINUOUS
 62
    3
 10
1236.6507545105724
 20
764.4390861618848
 40
14.391732776656227
 50
328.59175045525899
 51
31.408249544743374
  0
ARC
  8
_0-1_計細線
  6
CONTINUOUS
 62
    3
 10
1261.2167450108286
 20
779.43908616188583
 40
14.391732776655658
 50
148.59175045525842
 51
211.40824954474121
  0
LINE
  8
_0-1_計細線
  6
CONTINUOUS
 62
    3
 10
230.93374976070123
 20
778.93908616188583
 11
238.9337497607012
 21
778.93908616188583
  0
LINE
  8
_0-1_計細線
  6
CONTINUOUS
 62
    3
 10
244.93374976070115
 20
778.93908616188583
 11
252.93374976070118
 21
778.93908616188583
  0
LINE
  8
_0-1_計細線
  6
CONTINUOUS
 62
    3
 10
258.93374976070118
 20
778.93908616188583
 11
266.93374976070118
 21
778.93908616188583
  0
LINE
  8
_0-1_計細線
  6
CONTINUOUS
 62
    3
 10
272.93374976070118
 20
778.93908616188583
 11
280.93374976070123
 21
778.93908616188583
  0
LINE
  8
_0-1_計細線
  6
CONTINUOUS
 62
    3
 10
286.93374976070118
 20
778.93908616188583
 11
294.93374976070118
 21
778.93908616188583
  0
LINE
  8
_0-1_計細線
  6
CONTINUOUS
 62
    3
 10
300.93374976070123
 20
778.93908616188583
 11
308.93374976070118
 21
778.93908616188583
  0
LINE
  8
_0-1_計細線
  6
CONTINUOUS
 62
    3
 10
314.93374976070118
 20
778.93908616188583
 11
322.93374976070118
 21
778.93908616188583
  0
LINE
  8
_0-1_計細線
  6
CONTINUOUS
 62
    3
 10
328.93374976070118
 20
778.93908616188583
 11
336.93374976070118
 21
778.93908616188583
  0
LINE
  8
_0-1_計細線
  6
CONTINUOUS
 62
    3
 10
342.93374976070118
 20
778.93908616188583
 11
350.93374976070118
 21
778.93908616188583
  0
LINE
  8
_0-1_計細線
  6
CONTINUOUS
 62
    3
 10
356.93374976070118
 20
778.93908616188583
 11
364.93374976070123
 21
778.93908616188583
  0
LINE
  8
_0-1_計細線
  6
CONTINUOUS
 62
    3
 10
370.93374976070118
 20
778.93908616188583
 11
378.93374976070118
 21
778.93908616188583
  0
LINE
  8
_0-1_計細線
  6
CONTINUOUS
 62
    3
 10
384.93374976070123
 20
778.93908616188583
 11
392.93374976070118
 21
778.93908616188583
  0
LINE
  8
_0-1_計細線
  6
CONTINUOUS
 62
    3
 10
398.93374976070118
 20
778.93908616188583
 11
406.93374976070118
 21
778.93908616188583
  0
LINE
  8
_0-1_計細線
  6
CONTINUOUS
 62
    3
 10
412.93374976070118
 20
778.93908616188583
 11
420.93374976070123
 21
778.93908616188583
  0
LINE
  8
_0-1_計細線
  6
CONTINUOUS
 62
    3
 10
426.93374976070118
 20
778.93908616188583
 11
434.93374976070123
 21
778.93908616188583
  0
LINE
  8
_0-1_計細線
  6
CONTINUOUS
 62
    3
 10
440.93374976070123
 20
778.93908616188583
 11
448.93374976070118
 21
778.93908616188583
  0
LINE
  8
_0-1_計細線
  6
CONTINUOUS
 62
    3
 10
454.93374976070123
 20
778.93908616188583
 11
462.93374976070118
 21
778.93908616188583
  0
LINE
  8
_0-1_計細線
  6
CONTINUOUS
 62
    3
 10
468.93374976070118
 20
778.93908616188583
 11
476.93374976070118
 21
778.93908616188583
  0
LINE
  8
_0-1_計細線
  6
CONTINUOUS
 62
    3
 10
482.93374976070118
 20
778.93908616188583
 11
490.93374976070123
 21
778.93908616188583
  0
LINE
  8
_0-1_計細線
  6
CONTINUOUS
 62
    3
 10
496.93374976070118
 20
778.93908616188583
 11
504.93374976070123
 21
778.93908616188583
  0
LINE
  8
_0-1_計細線
  6
CONTINUOUS
 62
    3
 10
510.93374976070123
 20
778.93908616188583
 11
518.93374976070118
 21
778.93908616188583
  0
LINE
  8
_0-1_計細線
  6
CONTINUOUS
 62
    3
 10
524.93374976070118
 20
778.93908616188583
 11
532.93374976070118
 21
778.93908616188583
  0
LINE
  8
_0-1_計細線
  6
CONTINUOUS
 62
    3
 10
538.93374976070118
 20
778.93908616188583
 11
546.93374976070118
 21
778.93908616188583
  0
LINE
  8
_0-1_計細線
  6
CONTINUOUS
 62
    3
 10
552.93374976070118
 20
778.93908616188583
 11
560.93374976070118
 21
778.93908616188583
  0
LINE
  8
_0-1_計細線
  6
CONTINUOUS
 62
    3
 10
566.93374976070118
 20
778.93908616188583
 11
574.93374976070118
 21
778.93908616188583
  0
LINE
  8
_0-1_計細線
  6
CONTINUOUS
 62
    3
 10
580.93374976070118
 20
778.93908616188583
 11
588.93374976070118
 21
778.93908616188583
  0
LINE
  8
_0-1_計細線
  6
CONTINUOUS
 62
    3
 10
594.93374976070118
 20
778.93908616188583
 11
602.93374976070118
 21
778.93908616188583
  0
LINE
  8
_0-1_計細線
  6
CONTINUOUS
 62
    3
 10
608.93374976070118
 20
778.93908616188583
 11
616.93374976070118
 21
778.93908616188583
  0
LINE
  8
_0-1_計細線
  6
CONTINUOUS
 62
    3
 10
622.93374976070118
 20
778.93908616188583
 11
630.93374976070118
 21
778.93908616188583
  0
LINE
  8
_0-1_計細線
  6
CONTINUOUS
 62
    3
 10
636.93374976070118
 20
778.93908616188583
 11
644.93374976070118
 21
778.93908616188583
  0
LINE
  8
_0-1_計細線
  6
CONTINUOUS
 62
    3
 10
650.93374976070118
 20
778.93908616188583
 11
658.93374976070118
 21
778.93908616188583
  0
LINE
  8
_0-1_計細線
  6
CONTINUOUS
 62
    3
 10
664.93374976070118
 20
778.93908616188583
 11
672.93374976070129
 21
778.93908616188583
  0
LINE
  8
_0-1_計細線
  6
CONTINUOUS
 62
    3
 10
678.93374976070118
 20
778.93908616188583
 11
686.93374976070118
 21
778.93908616188583
  0
LINE
  8
_0-1_計細線
  6
CONTINUOUS
 62
    3
 10
692.93374976070129
 20
778.93908616188583
 11
700.93374976070118
 21
778.93908616188583
  0
LINE
  8
_0-1_計細線
  6
CONTINUOUS
 62
    3
 10
706.93374976070118
 20
778.93908616188583
 11
714.93374976070118
 21
778.93908616188583
  0
LINE
  8
_0-1_計細線
  6
CONTINUOUS
 62
    3
 10
720.93374976070118
 20
778.93908616188583
 11
728.93374976070118
 21
778.93908616188583
  0
LINE
  8
_0-1_計細線
  6
CONTINUOUS
 62
    3
 10
734.93374976070118
 20
778.93908616188583
 11
742.93374976070129
 21
778.93908616188583
  0
LINE
  8
_0-1_計細線
  6
CONTINUOUS
 62
    3
 10
748.93374976070118
 20
778.93908616188583
 11
756.93374976070118
 21
778.93908616188583
  0
LINE
  8
_0-1_計細線
  6
CONTINUOUS
 62
    3
 10
762.93374976070129
 20
778.93908616188583
 11
770.93374976070118
 21
778.93908616188583
  0
LINE
  8
_0-1_計細線
  6
CONTINUOUS
 62
    3
 10
776.93374976070118
 20
778.93908616188583
 11
784.93374976070129
 21
778.93908616188583
  0
LINE
  8
_0-1_計細線
  6
CONTINUOUS
 62
    3
 10
790.93374976070118
 20
778.93908616188583
 11
798.93374976070118
 21
778.93908616188583
  0
LINE
  8
_0-1_計細線
  6
CONTINUOUS
 62
    3
 10
804.93374976070129
 20
778.93908616188583
 11
812.93374976070129
 21
778.93908616188583
  0
LINE
  8
_0-1_計細線
  6
CONTINUOUS
 62
    3
 10
818.93374976070118
 20
778.93908616188583
 11
826.93374976070118
 21
778.93908616188583
  0
LINE
  8
_0-1_計細線
  6
CONTINUOUS
 62
    3
 10
832.93374976070129
 20
778.93908616188583
 11
840.93374976070118
 21
778.93908616188583
  0
LINE
  8
_0-1_計細線
  6
CONTINUOUS
 62
    3
 10
846.93374976070118
 20
778.93908616188583
 11
854.93374976070129
 21
778.93908616188583
  0
LINE
  8
_0-1_計細線
  6
CONTINUOUS
 62
    3
 10
860.93374976070118
 20
778.93908616188583
 11
868.93374976070118
 21
778.93908616188583
  0
LINE
  8
_0-1_計細線
  6
CONTINUOUS
 62
    3
 10
874.93374976070129
 20
778.93908616188583
 11
882.93374976070129
 21
778.93908616188583
  0
LINE
  8
_0-1_計細線
  6
CONTINUOUS
 62
    3
 10
888.93374976070118
 20
778.93908616188583
 11
896.93374976070118
 21
778.93908616188583
  0
LINE
  8
_0-1_計細線
  6
CONTINUOUS
 62
    3
 10
902.93374976070129
 20
778.93908616188583
 11
910.93374976070118
 21
778.93908616188583
  0
LINE
  8
_0-1_計細線
  6
CONTINUOUS
 62
    3
 10
916.93374976070118
 20
778.93908616188583
 11
924.93374976070129
 21
778.93908616188583
  0
LINE
  8
_0-1_計細線
  6
CONTINUOUS
 62
    3
 10
930.93374976070118
 20
778.93908616188583
 11
938.93374976070118
 21
778.93908616188583
  0
LINE
  8
_0-1_計細線
  6
CONTINUOUS
 62
    3
 10
944.93374976070129
 20
778.93908616188583
 11
952.93374976070129
 21
778.93908616188583
  0
LINE
  8
_0-1_計細線
  6
CONTINUOUS
 62
    3
 10
958.93374976070118
 20
778.93908616188583
 11
966.93374976070118
 21
778.93908616188583
  0
LINE
  8
_0-1_計細線
  6
CONTINUOUS
 62
    3
 10
972.93374976070129
 20
778.93908616188583
 11
980.93374976070118
 21
778.93908616188583
  0
LINE
  8
_0-1_計細線
  6
CONTINUOUS
 62
    3
 10
986.93374976070118
 20
778.93908616188583
 11
994.93374976070129
 21
778.93908616188583
  0
LINE
  8
_0-1_計細線
  6
CONTINUOUS
 62
    3
 10
1000.9337497607012
 20
778.93908616188583
 11
1008.9337497607012
 21
778.93908616188583
  0
LINE
  8
_0-1_計細線
  6
CONTINUOUS
 62
    3
 10
1014.9337497607013
 20
778.93908616188583
 11
1022.9337497607013
 21
778.93908616188583
  0
LINE
  8
_0-1_計細線
  6
CONTINUOUS
 62
    3
 10
1028.9337497607012
 20
778.93908616188583
 11
1036.9337497607012
 21
778.93908616188583
  0
LINE
  8
_0-1_計細線
  6
CONTINUOUS
 62
    3
 10
1042.9337497607012
 20
778.93908616188583
 11
1050.9337497607012
 21
778.93908616188583
  0
LINE
  8
_0-1_計細線
  6
CONTINUOUS
 62
    3
 10
1056.9337497607012
 20
778.93908616188583
 11
1064.9337497607012
 21
778.93908616188583
  0
LINE
  8
_0-1_計細線
  6
CONTINUOUS
 62
    3
 10
1070.9337497607012
 20
778.93908616188583
 11
1078.9337497607012
 21
778.93908616188583
  0
LINE
  8
_0-1_計細線
  6
CONTINUOUS
 62
    3
 10
1084.9337497607012
 20
778.93908616188583
 11
1092.9337497607012
 21
778.93908616188583
  0
LINE
  8
_0-1_計細線
  6
CONTINUOUS
 62
    3
 10
1098.9337497607012
 20
778.93908616188583
 11
1106.9337497607012
 21
778.93908616188583
  0
LINE
  8
_0-1_計細線
  6
CONTINUOUS
 62
    3
 10
1112.9337497607012
 20
778.93908616188583
 11
1120.9337497607012
 21
778.93908616188583
  0
LINE
  8
_0-1_計細線
  6
CONTINUOUS
 62
    3
 10
1126.9337497607007
 20
778.93908616188583
 11
1134.9337497607007
 21
778.93908616188583
  0
LINE
  8
_0-1_計細線
  6
CONTINUOUS
 62
    3
 10
1140.9337497607007
 20
778.93908616188583
 11
1148.9337497607007
 21
778.93908616188583
  0
LINE
  8
_0-1_計細線
  6
CONTINUOUS
 62
    3
 10
1154.9337497607007
 20
778.93908616188583
 11
1162.9337497607007
 21
778.93908616188583
  0
LINE
  8
_0-1_計細線
  6
CONTINUOUS
 62
    3
 10
1168.9337497607007
 20
778.93908616188583
 11
1176.9337497607007
 21
778.93908616188583
  0
LINE
  8
_0-1_計細線
  6
CONTINUOUS
 62
    3
 10
1182.9337497607007
 20
778.93908616188583
 11
1190.9337497607007
 21
778.93908616188583
  0
LINE
  8
_0-1_計細線
  6
CONTINUOUS
 62
    3
 10
1196.9337497607007
 20
778.93908616188583
 11
1204.9337497607007
 21
778.93908616188583
  0
LINE
  8
_0-1_計細線
  6
CONTINUOUS
 62
    3
 10
1210.9337497607007
 20
778.93908616188583
 11
1218.9337497607007
 21
778.93908616188583
  0
LINE
  8
_0-1_計細線
  6
CONTINUOUS
 62
    3
 10
1218.9337497607007
 20
778.93908616188583
 11
1218.9337497607007
 21
781.93908616188583
  0
LINE
  8
_0-1_計細線
  6
CONTINUOUS
 62
    3
 10
230.93374976070123
 20
778.93908616188583
 11
1218.9337497607007
 21
778.93908616188583
  0
LINE
  8
_0-1_計細線
  6
CONTINUOUS
 62
    3
 10
230.93374976070123
 20
781.93908616188583
 11
230.93374976070123
 21
778.93908616188583
  0
LINE
  8
_0-1_計細線
  6
CONTINUOUS
 62
    3
 10
1218.9337497607007
 20
781.93908616188583
 11
230.93374976070123
 21
781.93908616188583
  0
LINE
  8
_0-0_計極細
  6
CONTINUOUS
 62
    2
 10
1210.9337497607007
 20
759.43908616188583
 11
1204.9337497607007
 21
759.43908616188583
  0
LINE
  8
_0-0_計極細
  6
CONTINUOUS
 62
    2
 10
1210.9337497607007
 20
754.43908616188435
 11
1204.9337497607007
 21
754.43908616188435
  0
LINE
  8
_0-0_計極細
  6
CONTINUOUS
 62
    2
 10
1196.9337497607007
 20
759.43908616188583
 11
1190.9337497607007
 21
759.43908616188583
  0
LINE
  8
_0-0_計極細
  6
CONTINUOUS
 62
    2
 10
1196.9337497607007
 20
754.43908616188435
 11
1190.9337497607007
 21
754.43908616188435
  0
LINE
  8
_0-0_計極細
  6
CONTINUOUS
 62
    2
 10
1182.9337497607007
 20
759.43908616188583
 11
1176.9337497607007
 21
759.43908616188583
  0
LINE
  8
_0-0_計極細
  6
CONTINUOUS
 62
    2
 10
1182.9337497607007
 20
754.43908616188435
 11
1176.9337497607007
 21
754.43908616188435
  0
LINE
  8
_0-0_計極細
  6
CONTINUOUS
 62
    2
 10
1168.9337497607007
 20
759.43908616188583
 11
1162.9337497607007
 21
759.43908616188583
  0
LINE
  8
_0-0_計極細
  6
CONTINUOUS
 62
    2
 10
1168.9337497607007
 20
754.43908616188435
 11
1162.9337497607007
 21
754.43908616188435
  0
LINE
  8
_0-0_計極細
  6
CONTINUOUS
 62
    2
 10
1154.9337497607007
 20
759.43908616188583
 11
1148.9337497607007
 21
759.43908616188583
  0
LINE
  8
_0-0_計極細
  6
CONTINUOUS
 62
    2
 10
1154.9337497607007
 20
754.43908616188435
 11
1148.9337497607007
 21
754.43908616188435
  0
LINE
  8
_0-0_計極細
  6
CONTINUOUS
 62
    2
 10
1140.9337497607007
 20
759.43908616188583
 11
1134.9337497607007
 21
759.43908616188583
  0
LINE
  8
_0-0_計極細
  6
CONTINUOUS
 62
    2
 10
1140.9337497607007
 20
754.43908616188435
 11
1134.9337497607007
 21
754.43908616188435
  0
LINE
  8
_0-0_計極細
  6
CONTINUOUS
 62
    2
 10
1126.9337497607007
 20
759.43908616188583
 11
1120.9337497607012
 21
759.43908616188583
  0
LINE
  8
_0-0_計極細
  6
CONTINUOUS
 62
    2
 10
1126.9337497607007
 20
754.43908616188435
 11
1120.9337497607012
 21
754.43908616188435
  0
LINE
  8
_0-0_計極細
  6
CONTINUOUS
 62
    2
 10
1112.9337497607012
 20
759.43908616188583
 11
1106.9337497607012
 21
759.43908616188583
  0
LINE
  8
_0-0_計極細
  6
CONTINUOUS
 62
    2
 10
1112.9337497607012
 20
754.43908616188435
 11
1106.9337497607012
 21
754.43908616188435
  0
LINE
  8
_0-0_計極細
  6
CONTINUOUS
 62
    2
 10
1098.9337497607012
 20
759.43908616188583
 11
1092.9337497607012
 21
759.43908616188583
  0
LINE
  8
_0-0_計極細
  6
CONTINUOUS
 62
    2
 10
1098.9337497607012
 20
754.43908616188435
 11
1092.9337497607012
 21
754.43908616188435
  0
LINE
  8
_0-0_計極細
  6
CONTINUOUS
 62
    2
 10
1084.9337497607012
 20
759.43908616188583
 11
1078.9337497607012
 21
759.43908616188583
  0
LINE
  8
_0-0_計極細
  6
CONTINUOUS
 62
    2
 10
1084.9337497607012
 20
754.43908616188435
 11
1078.9337497607012
 21
754.43908616188435
  0
LINE
  8
_0-0_計極細
  6
CONTINUOUS
 62
    2
 10
1070.9337497607012
 20
759.43908616188583
 11
1064.9337497607012
 21
759.43908616188583
  0
LINE
  8
_0-0_計極細
  6
CONTINUOUS
 62
    2
 10
1070.9337497607012
 20
754.43908616188435
 11
1064.9337497607012
 21
754.43908616188435
  0
LINE
  8
_0-0_計極細
  6
CONTINUOUS
 62
    2
 10
1056.9337497607012
 20
759.43908616188583
 11
1050.9337497607012
 21
759.43908616188583
  0
LINE
  8
_0-0_計極細
  6
CONTINUOUS
 62
    2
 10
1056.9337497607012
 20
754.43908616188435
 11
1050.9337497607012
 21
754.43908616188435
  0
LINE
  8
_0-0_計極細
  6
CONTINUOUS
 62
    2
 10
1042.9337497607012
 20
759.43908616188583
 11
1036.9337497607012
 21
759.43908616188583
  0
LINE
  8
_0-0_計極細
  6
CONTINUOUS
 62
    2
 10
1042.9337497607012
 20
754.43908616188435
 11
1036.9337497607012
 21
754.43908616188435
  0
LINE
  8
_0-0_計極細
  6
CONTINUOUS
 62
    2
 10
1028.9337497607012
 20
759.43908616188583
 11
1022.9337497607013
 21
759.43908616188583
  0
LINE
  8
_0-0_計極細
  6
CONTINUOUS
 62
    2
 10
1028.9337497607012
 20
754.43908616188435
 11
1022.9337497607013
 21
754.43908616188435
  0
LINE
  8
_0-0_計極細
  6
CONTINUOUS
 62
    2
 10
1014.9337497607013
 20
759.43908616188583
 11
1008.9337497607012
 21
759.43908616188583
  0
LINE
  8
_0-0_計極細
  6
CONTINUOUS
 62
    2
 10
1014.9337497607013
 20
754.43908616188435
 11
1008.9337497607012
 21
754.43908616188435
  0
LINE
  8
_0-0_計極細
  6
CONTINUOUS
 62
    2
 10
1000.9337497607012
 20
759.43908616188583
 11
994.93374976070129
 21
759.43908616188583
  0
LINE
  8
_0-0_計極細
  6
CONTINUOUS
 62
    2
 10
1000.9337497607012
 20
754.43908616188435
 11
994.93374976070129
 21
754.43908616188435
  0
LINE
  8
_0-0_計極細
  6
CONTINUOUS
 62
    2
 10
986.93374976070118
 20
759.43908616188583
 11
980.93374976070118
 21
759.43908616188583
  0
LINE
  8
_0-0_計極細
  6
CONTINUOUS
 62
    2
 10
986.93374976070118
 20
754.43908616188435
 11
980.93374976070118
 21
754.43908616188435
  0
LINE
  8
_0-0_計極細
  6
CONTINUOUS
 62
    2
 10
972.93374976070129
 20
759.43908616188583
 11
966.93374976070118
 21
759.43908616188583
  0
LINE
  8
_0-0_計極細
  6
CONTINUOUS
 62
    2
 10
972.93374976070129
 20
754.43908616188435
 11
966.93374976070118
 21
754.43908616188435
  0
LINE
  8
_0-0_計極細
  6
CONTINUOUS
 62
    2
 10
958.93374976070118
 20
759.43908616188583
 11
952.93374976070129
 21
759.43908616188583
  0
LINE
  8
_0-0_計極細
  6
CONTINUOUS
 62
    2
 10
958.93374976070118
 20
754.43908616188435
 11
952.93374976070129
 21
754.43908616188435
  0
LINE
  8
_0-0_計極細
  6
CONTINUOUS
 62
    2
 10
944.93374976070129
 20
759.43908616188583
 11
938.93374976070118
 21
759.43908616188583
  0
LINE
  8
_0-0_計極細
  6
CONTINUOUS
 62
    2
 10
944.93374976070129
 20
754.43908616188435
 11
938.93374976070118
 21
754.43908616188435
  0
LINE
  8
_0-0_計極細
  6
CONTINUOUS
 62
    2
 10
930.93374976070118
 20
759.43908616188583
 11
924.93374976070129
 21
759.43908616188583
  0
LINE
  8
_0-0_計極細
  6
CONTINUOUS
 62
    2
 10
930.93374976070118
 20
754.43908616188435
 11
924.93374976070129
 21
754.43908616188435
  0
LINE
  8
_0-0_計極細
  6
CONTINUOUS
 62
    2
 10
916.93374976070118
 20
759.43908616188583
 11
910.93374976070118
 21
759.43908616188583
  0
LINE
  8
_0-0_計極細
  6
CONTINUOUS
 62
    2
 10
916.93374976070118
 20
754.43908616188435
 11
910.93374976070118
 21
754.43908616188435
  0
LINE
  8
_0-0_計極細
  6
CONTINUOUS
 62
    2
 10
902.93374976070129
 20
759.43908616188583
 11
896.93374976070118
 21
759.43908616188583
  0
LINE
  8
_0-0_計極細
  6
CONTINUOUS
 62
    2
 10
902.93374976070129
 20
754.43908616188435
 11
896.93374976070118
 21
754.43908616188435
  0
LINE
  8
_0-0_計極細
  6
CONTINUOUS
 62
    2
 10
888.93374976070118
 20
759.43908616188583
 11
882.93374976070129
 21
759.43908616188583
  0
LINE
  8
_0-0_計極細
  6
CONTINUOUS
 62
    2
 10
888.93374976070118
 20
754.43908616188435
 11
882.93374976070129
 21
754.43908616188435
  0
LINE
  8
_0-0_計極細
  6
CONTINUOUS
 62
    2
 10
874.93374976070129
 20
759.43908616188583
 11
868.93374976070118
 21
759.43908616188583
  0
LINE
  8
_0-0_計極細
  6
CONTINUOUS
 62
    2
 10
874.93374976070129
 20
754.43908616188435
 11
868.93374976070118
 21
754.43908616188435
  0
LINE
  8
_0-0_計極細
  6
CONTINUOUS
 62
    2
 10
860.93374976070118
 20
759.43908616188583
 11
854.93374976070129
 21
759.43908616188583
  0
LINE
  8
_0-0_計極細
  6
CONTINUOUS
 62
    2
 10
860.93374976070118
 20
754.43908616188435
 11
854.93374976070129
 21
754.43908616188435
  0
LINE
  8
_0-0_計極細
  6
CONTINUOUS
 62
    2
 10
846.93374976070118
 20
759.43908616188583
 11
840.93374976070118
 21
759.43908616188583
  0
LINE
  8
_0-0_計極細
  6
CONTINUOUS
 62
    2
 10
846.93374976070118
 20
754.43908616188435
 11
840.93374976070118
 21
754.43908616188435
  0
LINE
  8
_0-0_計極細
  6
CONTINUOUS
 62
    2
 10
832.93374976070129
 20
759.43908616188583
 11
826.93374976070118
 21
759.43908616188583
  0
LINE
  8
_0-0_計極細
  6
CONTINUOUS
 62
    2
 10
832.93374976070129
 20
754.43908616188435
 11
826.93374976070118
 21
754.43908616188435
  0
LINE
  8
_0-0_計極細
  6
CONTINUOUS
 62
    2
 10
818.93374976070118
 20
759.43908616188583
 11
812.93374976070129
 21
759.43908616188583
  0
LINE
  8
_0-0_計極細
  6
CONTINUOUS
 62
    2
 10
818.93374976070118
 20
754.43908616188435
 11
812.93374976070129
 21
754.43908616188435
  0
LINE
  8
_0-0_計極細
  6
CONTINUOUS
 62
    2
 10
804.93374976070129
 20
759.43908616188583
 11
798.93374976070118
 21
759.43908616188583
  0
LINE
  8
_0-0_計極細
  6
CONTINUOUS
 62
    2
 10
804.93374976070129
 20
754.43908616188435
 11
798.93374976070118
 21
754.43908616188435
  0
LINE
  8
_0-0_計極細
  6
CONTINUOUS
 62
    2
 10
790.93374976070118
 20
759.43908616188583
 11
784.93374976070129
 21
759.43908616188583
  0
LINE
  8
_0-0_計極細
  6
CONTINUOUS
 62
    2
 10
790.93374976070118
 20
754.43908616188435
 11
784.93374976070129
 21
754.43908616188435
  0
LINE
  8
_0-0_計極細
  6
CONTINUOUS
 62
    2
 10
776.93374976070118
 20
759.43908616188583
 11
770.93374976070118
 21
759.43908616188583
  0
LINE
  8
_0-0_計極細
  6
CONTINUOUS
 62
    2
 10
776.93374976070118
 20
754.43908616188435
 11
770.93374976070118
 21
754.43908616188435
  0
LINE
  8
_0-0_計極細
  6
CONTINUOUS
 62
    2
 10
762.93374976070129
 20
759.43908616188583
 11
756.93374976070118
 21
759.43908616188583
  0
LINE
  8
_0-0_計極細
  6
CONTINUOUS
 62
    2
 10
762.93374976070129
 20
754.43908616188435
 11
756.93374976070118
 21
754.43908616188435
  0
LINE
  8
_0-0_計極細
  6
CONTINUOUS
 62
    2
 10
748.93374976070118
 20
759.43908616188583
 11
742.93374976070129
 21
759.43908616188583
  0
LINE
  8
_0-0_計極細
  6
CONTINUOUS
 62
    2
 10
748.93374976070118
 20
754.43908616188435
 11
742.93374976070129
 21
754.43908616188435
  0
LINE
  8
_0-0_計極細
  6
CONTINUOUS
 62
    2
 10
734.93374976070118
 20
759.43908616188583
 11
728.93374976070118
 21
759.43908616188583
  0
LINE
  8
_0-0_計極細
  6
CONTINUOUS
 62
    2
 10
734.93374976070118
 20
754.43908616188435
 11
728.93374976070118
 21
754.43908616188435
  0
LINE
  8
_0-0_計極細
  6
CONTINUOUS
 62
    2
 10
720.93374976070118
 20
759.43908616188583
 11
714.93374976070118
 21
759.43908616188583
  0
LINE
  8
_0-0_計極細
  6
CONTINUOUS
 62
    2
 10
720.93374976070118
 20
754.43908616188435
 11
714.93374976070118
 21
754.43908616188435
  0
LINE
  8
_0-0_計極細
  6
CONTINUOUS
 62
    2
 10
706.93374976070118
 20
759.43908616188583
 11
700.93374976070118
 21
759.43908616188583
  0
LINE
  8
_0-0_計極細
  6
CONTINUOUS
 62
    2
 10
706.93374976070118
 20
754.43908616188435
 11
700.93374976070118
 21
754.43908616188435
  0
LINE
  8
_0-0_計極細
  6
CONTINUOUS
 62
    2
 10
692.93374976070129
 20
759.43908616188583
 11
686.93374976070118
 21
759.43908616188583
  0
LINE
  8
_0-0_計極細
  6
CONTINUOUS
 62
    2
 10
692.93374976070129
 20
754.43908616188435
 11
686.93374976070118
 21
754.43908616188435
  0
LINE
  8
_0-0_計極細
  6
CONTINUOUS
 62
    2
 10
678.93374976070118
 20
759.43908616188583
 11
672.93374976070129
 21
759.43908616188583
  0
LINE
  8
_0-0_計極細
  6
CONTINUOUS
 62
    2
 10
678.93374976070118
 20
754.43908616188435
 11
672.93374976070129
 21
754.43908616188435
  0
LINE
  8
_0-0_計極細
  6
CONTINUOUS
 62
    2
 10
664.93374976070118
 20
759.43908616188583
 11
658.93374976070118
 21
759.43908616188583
  0
LINE
  8
_0-0_計極細
  6
CONTINUOUS
 62
    2
 10
664.93374976070118
 20
754.43908616188435
 11
658.93374976070118
 21
754.43908616188435
  0
LINE
  8
_0-0_計極細
  6
CONTINUOUS
 62
    2
 10
650.93374976070118
 20
759.43908616188583
 11
644.93374976070118
 21
759.43908616188583
  0
LINE
  8
_0-0_計極細
  6
CONTINUOUS
 62
    2
 10
650.93374976070118
 20
754.43908616188435
 11
644.93374976070118
 21
754.43908616188435
  0
LINE
  8
_0-0_計極細
  6
CONTINUOUS
 62
    2
 10
636.93374976070118
 20
759.43908616188583
 11
630.93374976070118
 21
759.43908616188583
  0
LINE
  8
_0-0_計極細
  6
CONTINUOUS
 62
    2
 10
636.93374976070118
 20
754.43908616188435
 11
630.93374976070118
 21
754.43908616188435
  0
LINE
  8
_0-0_計極細
  6
CONTINUOUS
 62
    2
 10
622.93374976070118
 20
759.43908616188583
 11
616.93374976070118
 21
759.43908616188583
  0
LINE
  8
_0-0_計極細
  6
CONTINUOUS
 62
    2
 10
622.93374976070118
 20
754.43908616188435
 11
616.93374976070118
 21
754.43908616188435
  0
LINE
  8
_0-0_計極細
  6
CONTINUOUS
 62
    2
 10
608.93374976070118
 20
759.43908616188583
 11
602.93374976070118
 21
759.43908616188583
  0
LINE
  8
_0-0_計極細
  6
CONTINUOUS
 62
    2
 10
608.93374976070118
 20
754.43908616188435
 11
602.93374976070118
 21
754.43908616188435
  0
LINE
  8
_0-0_計極細
  6
CONTINUOUS
 62
    2
 10
594.93374976070118
 20
759.43908616188583
 11
588.93374976070118
 21
759.43908616188583
  0
LINE
  8
_0-0_計極細
  6
CONTINUOUS
 62
    2
 10
594.93374976070118
 20
754.43908616188435
 11
588.93374976070118
 21
754.43908616188435
  0
LINE
  8
_0-0_計極細
  6
CONTINUOUS
 62
    2
 10
580.93374976070118
 20
759.43908616188583
 11
574.93374976070118
 21
759.43908616188583
  0
LINE
  8
_0-0_計極細
  6
CONTINUOUS
 62
    2
 10
580.93374976070118
 20
754.43908616188435
 11
574.93374976070118
 21
754.43908616188435
  0
LINE
  8
_0-0_計極細
  6
CONTINUOUS
 62
    2
 10
566.93374976070118
 20
759.43908616188583
 11
560.93374976070118
 21
759.43908616188583
  0
LINE
  8
_0-0_計極細
  6
CONTINUOUS
 62
    2
 10
566.93374976070118
 20
754.43908616188435
 11
560.93374976070118
 21
754.43908616188435
  0
LINE
  8
_0-0_計極細
  6
CONTINUOUS
 62
    2
 10
552.93374976070118
 20
759.43908616188583
 11
546.93374976070118
 21
759.43908616188583
  0
LINE
  8
_0-0_計極細
  6
CONTINUOUS
 62
    2
 10
552.93374976070118
 20
754.43908616188435
 11
546.93374976070118
 21
754.43908616188435
  0
LINE
  8
_0-0_計極細
  6
CONTINUOUS
 62
    2
 10
538.93374976070118
 20
759.43908616188583
 11
532.93374976070118
 21
759.43908616188583
  0
LINE
  8
_0-0_計極細
  6
CONTINUOUS
 62
    2
 10
538.93374976070118
 20
754.43908616188435
 11
532.93374976070118
 21
754.43908616188435
  0
LINE
  8
_0-0_計極細
  6
CONTINUOUS
 62
    2
 10
524.93374976070118
 20
759.43908616188583
 11
518.93374976070118
 21
759.43908616188583
  0
LINE
  8
_0-0_計極細
  6
CONTINUOUS
 62
    2
 10
524.93374976070118
 20
754.43908616188435
 11
518.93374976070118
 21
754.43908616188435
  0
LINE
  8
_0-0_計極細
  6
CONTINUOUS
 62
    2
 10
510.93374976070123
 20
759.43908616188583
 11
504.93374976070123
 21
759.43908616188583
  0
LINE
  8
_0-0_計極細
  6
CONTINUOUS
 62
    2
 10
510.93374976070123
 20
754.43908616188435
 11
504.93374976070123
 21
754.43908616188435
  0
LINE
  8
_0-0_計極細
  6
CONTINUOUS
 62
    2
 10
496.93374976070118
 20
759.43908616188583
 11
490.93374976070123
 21
759.43908616188583
  0
LINE
  8
_0-0_計極細
  6
CONTINUOUS
 62
    2
 10
496.93374976070118
 20
754.43908616188435
 11
490.93374976070123
 21
754.43908616188435
  0
LINE
  8
_0-0_計極細
  6
CONTINUOUS
 62
    2
 10
482.93374976070118
 20
759.43908616188583
 11
476.93374976070118
 21
759.43908616188583
  0
LINE
  8
_0-0_計極細
  6
CONTINUOUS
 62
    2
 10
482.93374976070118
 20
754.43908616188435
 11
476.93374976070118
 21
754.43908616188435
  0
LINE
  8
_0-0_計極細
  6
CONTINUOUS
 62
    2
 10
468.93374976070118
 20
759.43908616188583
 11
462.93374976070118
 21
759.43908616188583
  0
LINE
  8
_0-0_計極細
  6
CONTINUOUS
 62
    2
 10
468.93374976070118
 20
754.43908616188435
 11
462.93374976070118
 21
754.43908616188435
  0
LINE
  8
_0-0_計極細
  6
CONTINUOUS
 62
    2
 10
454.93374976070123
 20
759.43908616188583
 11
448.93374976070118
 21
759.43908616188583
  0
LINE
  8
_0-0_計極細
  6
CONTINUOUS
 62
    2
 10
454.93374976070123
 20
754.43908616188435
 11
448.93374976070118
 21
754.43908616188435
  0
LINE
  8
_0-0_計極細
  6
CONTINUOUS
 62
    2
 10
440.93374976070123
 20
759.43908616188583
 11
434.93374976070123
 21
759.43908616188583
  0
LINE
  8
_0-0_計極細
  6
CONTINUOUS
 62
    2
 10
440.93374976070123
 20
754.43908616188435
 11
434.93374976070123
 21
754.43908616188435
  0
LINE
  8
_0-0_計極細
  6
CONTINUOUS
 62
    2
 10
426.93374976070118
 20
759.43908616188583
 11
420.93374976070123
 21
759.43908616188583
  0
LINE
  8
_0-0_計極細
  6
CONTINUOUS
 62
    2
 10
426.93374976070118
 20
754.43908616188435
 11
420.93374976070123
 21
754.43908616188435
  0
LINE
  8
_0-0_計極細
  6
CONTINUOUS
 62
    2
 10
412.93374976070118
 20
759.43908616188583
 11
406.93374976070118
 21
759.43908616188583
  0
LINE
  8
_0-0_計極細
  6
CONTINUOUS
 62
    2
 10
412.93374976070118
 20
754.43908616188435
 11
406.93374976070118
 21
754.43908616188435
  0
LINE
  8
_0-0_計極細
  6
CONTINUOUS
 62
    2
 10
398.93374976070118
 20
759.43908616188583
 11
392.93374976070118
 21
759.43908616188583
  0
LINE
  8
_0-0_計極細
  6
CONTINUOUS
 62
    2
 10
398.93374976070118
 20
754.43908616188435
 11
392.93374976070118
 21
754.43908616188435
  0
LINE
  8
_0-0_計極細
  6
CONTINUOUS
 62
    2
 10
384.93374976070123
 20
759.43908616188583
 11
378.93374976070118
 21
759.43908616188583
  0
LINE
  8
_0-0_計極細
  6
CONTINUOUS
 62
    2
 10
384.93374976070123
 20
754.43908616188435
 11
378.93374976070118
 21
754.43908616188435
  0
LINE
  8
_0-0_計極細
  6
CONTINUOUS
 62
    2
 10
370.93374976070118
 20
759.43908616188583
 11
364.93374976070123
 21
759.43908616188583
  0
LINE
  8
_0-0_計極細
  6
CONTINUOUS
 62
    2
 10
370.93374976070118
 20
754.43908616188435
 11
364.93374976070123
 21
754.43908616188435
  0
LINE
  8
_0-0_計極細
  6
CONTINUOUS
 62
    2
 10
356.93374976070118
 20
759.43908616188583
 11
350.93374976070118
 21
759.43908616188583
  0
LINE
  8
_0-0_計極細
  6
CONTINUOUS
 62
    2
 10
356.93374976070118
 20
754.43908616188435
 11
350.93374976070118
 21
754.43908616188435
  0
LINE
  8
_0-0_計極細
  6
CONTINUOUS
 62
    2
 10
342.93374976070118
 20
759.43908616188583
 11
336.93374976070118
 21
759.43908616188583
  0
LINE
  8
_0-0_計極細
  6
CONTINUOUS
 62
    2
 10
342.93374976070118
 20
754.43908616188435
 11
336.93374976070118
 21
754.43908616188435
  0
LINE
  8
_0-0_計極細
  6
CONTINUOUS
 62
    2
 10
328.93374976070118
 20
759.43908616188583
 11
322.93374976070118
 21
759.43908616188583
  0
LINE
  8
_0-0_計極細
  6
CONTINUOUS
 62
    2
 10
328.93374976070118
 20
754.43908616188435
 11
322.93374976070118
 21
754.43908616188435
  0
LINE
  8
_0-0_計極細
  6
CONTINUOUS
 62
    2
 10
314.93374976070118
 20
759.43908616188583
 11
308.93374976070118
 21
759.43908616188583
  0
LINE
  8
_0-0_計極細
  6
CONTINUOUS
 62
    2
 10
314.93374976070118
 20
754.43908616188435
 11
308.93374976070118
 21
754.43908616188435
  0
LINE
  8
_0-0_計極細
  6
CONTINUOUS
 62
    2
 10
300.93374976070123
 20
759.43908616188583
 11
294.93374976070118
 21
759.43908616188583
  0
LINE
  8
_0-0_計極細
  6
CONTINUOUS
 62
    2
 10
300.93374976070123
 20
754.43908616188435
 11
294.93374976070118
 21
754.43908616188435
  0
LINE
  8
_0-0_計極細
  6
CONTINUOUS
 62
    2
 10
286.93374976070118
 20
759.43908616188583
 11
280.93374976070123
 21
759.43908616188583
  0
LINE
  8
_0-0_計極細
  6
CONTINUOUS
 62
    2
 10
286.93374976070118
 20
754.43908616188435
 11
280.93374976070123
 21
754.43908616188435
  0
LINE
  8
_0-0_計極細
  6
CONTINUOUS
 62
    2
 10
272.93374976070118
 20
759.43908616188583
 11
266.93374976070118
 21
759.43908616188583
  0
LINE
  8
_0-0_計極細
  6
CONTINUOUS
 62
    2
 10
272.93374976070118
 20
754.43908616188435
 11
266.93374976070118
 21
754.43908616188435
  0
LINE
  8
_0-0_計極細
  6
CONTINUOUS
 62
    2
 10
258.93374976070118
 20
759.43908616188583
 11
252.93374976070118
 21
759.43908616188583
  0
LINE
  8
_0-0_計極細
  6
CONTINUOUS
 62
    2
 10
258.93374976070118
 20
754.43908616188435
 11
252.93374976070118
 21
754.43908616188435
  0
LINE
  8
_0-0_計極細
  6
CONTINUOUS
 62
    2
 10
244.93374976070115
 20
759.43908616188583
 11
238.9337497607012
 21
759.43908616188583
  0
LINE
  8
_0-0_計極細
  6
CONTINUOUS
 62
    2
 10
244.93374976070115
 20
754.43908616188435
 11
238.9337497607012
 21
754.43908616188435
  0
LINE
  8
_0-5_寸法線
  6
CONTINUOUS
 62
    7
 10
230.93374976070123
 20
796.93908616188583
 11
230.93374976070123
 21
841.93908616188583
  0
LINE
  8
_0-5_寸法線
  6
CONTINUOUS
 62
    7
 10
230.93374976070123
 20
836.93908616188583
 11
240.59300802359189
 21
839.5272766129109
  0
LINE
  8
_0-5_寸法線
  6
CONTINUOUS
 62
    7
 10
230.93374976070123
 20
836.93908616188583
 11
240.59300802359189
 21
834.35089571086053
  0
LINE
  8
_0-5_寸法線
  6
CONTINUOUS
 62
    7
 10
1218.9337497607012
 20
796.93908616188583
 11
1218.9337497607012
 21
841.93908616188583
  0
LINE
  8
_0-5_寸法線
  6
CONTINUOUS
 62
    7
 10
1218.9337497607012
 20
836.93908616188583
 11
1209.2744914978105
 21
834.35089571086053
  0
LINE
  8
_0-5_寸法線
  6
CONTINUOUS
 62
    7
 10
1218.9337497607012
 20
836.93908616188583
 11
1209.2744914978105
 21
839.5272766129109
  0
LINE
  8
_0-5_寸法線
  6
CONTINUOUS
 62
    7
 10
230.93374976070123
 20
836.93908616188583
 11
1218.9337497607012
 21
836.93908616188583
  0
TEXT
  8
_0-5_寸法線
 62
    7
 10
713.68374976070118
 20
836.93908616188583
 40
15
 41
1
 50
0
  1
988
  0
LINE
  8
_0-5_寸法線
  6
CONTINUOUS
 62
    7
 10
563.86406602346278
 20
578.31706851131855
 11
568.86406603458715
 21
569.65681447989687
  0
LINE
  8
_0-5_寸法線
  6
CONTINUOUS
 62
    7
 10
563.86406602346278
 20
578.31706851131855
 11
563.86406603630815
 21
568.31706851131855
  0
LINE
  8
_0-5_寸法線
  6
CONTINUOUS
 62
    7
 10
563.86406602346278
 20
578.31706851131855
 11
575.70543558092822
 21
534.12447591872603
  0
LINE
  8
_0-5_寸法線
  6
CONTINUOUS
 62
    7
 10
575.70543558092822
 20
534.12447591872603
 11
683.70543558092834
 21
534.12447591872603
  0
TEXT
  8
_0-5_寸法線
 62
    7
 10
575.70543558092822
 20
534.72447591872594
 40
15
 41
0.8000000000000001
 50
0
  1
ＳＵＳアングル受枠
  0
LINE
  8
_0-1_計細線
  6
CONTINUOUS
 62
    3
 10
230.93374976070123
 20
606.93908616188571
 11
200.93374976070123
 21
606.93908616188571
  0
LINE
  8
_0-1_計細線
  6
CONTINUOUS
 62
    3
 10
1248.9337497607007
 20
606.93908616188571
 11
1218.9337497607007
 21
606.93908616188571
  0
LINE
  8
_0-1_計細線
  6
CONTINUOUS
 62
    3
 10
202.32086688445952
 20
579.93908616188708
 11
1250.32086688446
 21
579.93908616188583
  0
LINE
  8
_0-1_計細線
  6
CONTINUOUS
 62
    3
 10
200.93374976070123
 20
576.93908616188708
 11
1248.9337497607007
 21
576.93908616188571
  0
ARC
  8
_0-1_計細線
  6
CONTINUOUS
 62
    3
 10
188.65075451057265
 20
584.43908616188571
 40
14.391732776655759
 50
328.59175045525654
 51
31.408249544743221
  0
ARC
  8
_0-1_計細線
  6
CONTINUOUS
 62
    3
 10
213.21674501082839
 20
599.43908616188571
 40
14.391732776655743
 50
148.59175045525842
 51
211.40824954474076
  0
ARC
  8
_0-1_計細線
  6
CONTINUOUS
 62
    3
 10
1236.6507545105728
 20
584.43908616188571
 40
14.391732776655772
 50
328.59175045525654
 51
31.408249544741235
  0
ARC
  8
_0-1_計細線
  6
CONTINUOUS
 62
    3
 10
1261.2167450108286
 20
599.43908616188571
 40
14.391732776655658
 50
148.59175045525842
 51
211.40824954474121
  0
LINE
  8
_0-1_計細線
  6
CONTINUOUS
 62
    3
 10
238.9337497607012
 20
584.93908616188583
 11
230.93374976070123
 21
584.93908616188583
  0
LINE
  8
_0-1_計細線
  6
CONTINUOUS
 62
    3
 10
252.93374976070118
 20
584.93908616188583
 11
244.93374976070115
 21
584.93908616188583
  0
LINE
  8
_0-1_計細線
  6
CONTINUOUS
 62
    3
 10
266.93374976070118
 20
584.93908616188583
 11
258.93374976070118
 21
584.93908616188583
  0
LINE
  8
_0-1_計細線
  6
CONTINUOUS
 62
    3
 10
280.93374976070123
 20
584.93908616188583
 11
272.93374976070118
 21
584.93908616188583
  0
LINE
  8
_0-1_計細線
  6
CONTINUOUS
 62
    3
 10
294.93374976070118
 20
584.93908616188583
 11
286.93374976070118
 21
584.93908616188583
  0
LINE
  8
_0-1_計細線
  6
CONTINUOUS
 62
    3
 10
308.93374976070118
 20
584.93908616188583
 11
300.93374976070123
 21
584.93908616188583
  0
LINE
  8
_0-1_計細線
  6
CONTINUOUS
 62
    3
 10
322.93374976070118
 20
584.93908616188583
 11
314.93374976070118
 21
584.93908616188583
  0
LINE
  8
_0-1_計細線
  6
CONTINUOUS
 62
    3
 10
336.93374976070118
 20
584.93908616188583
 11
328.93374976070118
 21
584.93908616188583
  0
LINE
  8
_0-1_計細線
  6
CONTINUOUS
 62
    3
 10
350.93374976070118
 20
584.93908616188583
 11
342.93374976070118
 21
584.93908616188583
  0
LINE
  8
_0-1_計細線
  6
CONTINUOUS
 62
    3
 10
364.93374976070123
 20
584.93908616188583
 11
356.93374976070118
 21
584.93908616188583
  0
LINE
  8
_0-1_計細線
  6
CONTINUOUS
 62
    3
 10
378.93374976070118
 20
584.93908616188583
 11
370.93374976070118
 21
584.93908616188583
  0
LINE
  8
_0-1_計細線
  6
CONTINUOUS
 62
    3
 10
392.93374976070118
 20
584.93908616188583
 11
384.93374976070123
 21
584.93908616188583
  0
LINE
  8
_0-1_計細線
  6
CONTINUOUS
 62
    3
 10
406.93374976070118
 20
584.93908616188583
 11
398.93374976070118
 21
584.93908616188583
  0
LINE
  8
_0-1_計細線
  6
CONTINUOUS
 62
    3
 10
420.93374976070123
 20
584.93908616188583
 11
412.93374976070118
 21
584.93908616188583
  0
LINE
  8
_0-1_計細線
  6
CONTINUOUS
 62
    3
 10
434.93374976070123
 20
584.93908616188583
 11
426.93374976070118
 21
584.93908616188583
  0
LINE
  8
_0-1_計細線
  6
CONTINUOUS
 62
    3
 10
448.93374976070118
 20
584.93908616188583
 11
440.93374976070123
 21
584.93908616188583
  0
LINE
  8
_0-1_計細線
  6
CONTINUOUS
 62
    3
 10
462.93374976070118
 20
584.93908616188583
 11
454.93374976070123
 21
584.93908616188583
  0
LINE
  8
_0-1_計細線
  6
CONTINUOUS
 62
    3
 10
476.93374976070118
 20
584.93908616188583
 11
468.93374976070118
 21
584.93908616188583
  0
LINE
  8
_0-1_計細線
  6
CONTINUOUS
 62
    3
 10
490.93374976070123
 20
584.93908616188583
 11
482.93374976070118
 21
584.93908616188583
  0
LINE
  8
_0-1_計細線
  6
CONTINUOUS
 62
    3
 10
504.93374976070123
 20
584.93908616188583
 11
496.93374976070118
 21
584.93908616188583
  0
LINE
  8
_0-1_計細線
  6
CONTINUOUS
 62
    3
 10
518.93374976070118
 20
584.93908616188583
 11
510.93374976070123
 21
584.93908616188583
  0
LINE
  8
_0-1_計細線
  6
CONTINUOUS
 62
    3
 10
532.93374976070118
 20
584.93908616188583
 11
524.93374976070118
 21
584.93908616188583
  0
LINE
  8
_0-1_計細線
  6
CONTINUOUS
 62
    3
 10
546.93374976070118
 20
584.93908616188583
 11
538.93374976070118
 21
584.93908616188583
  0
LINE
  8
_0-1_計細線
  6
CONTINUOUS
 62
    3
 10
560.93374976070118
 20
584.93908616188583
 11
552.93374976070118
 21
584.93908616188583
  0
LINE
  8
_0-1_計細線
  6
CONTINUOUS
 62
    3
 10
574.93374976070118
 20
584.93908616188583
 11
566.93374976070118
 21
584.93908616188583
  0
LINE
  8
_0-1_計細線
  6
CONTINUOUS
 62
    3
 10
588.93374976070118
 20
584.93908616188583
 11
580.93374976070118
 21
584.93908616188583
  0
LINE
  8
_0-1_計細線
  6
CONTINUOUS
 62
    3
 10
602.93374976070118
 20
584.93908616188583
 11
594.93374976070118
 21
584.93908616188583
  0
LINE
  8
_0-1_計細線
  6
CONTINUOUS
 62
    3
 10
616.93374976070118
 20
584.93908616188583
 11
608.93374976070118
 21
584.93908616188583
  0
LINE
  8
_0-1_計細線
  6
CONTINUOUS
 62
    3
 10
630.93374976070118
 20
584.93908616188583
 11
622.93374976070118
 21
584.93908616188583
  0
LINE
  8
_0-1_計細線
  6
CONTINUOUS
 62
    3
 10
644.93374976070118
 20
584.93908616188583
 11
636.93374976070118
 21
584.93908616188583
  0
LINE
  8
_0-1_計細線
  6
CONTINUOUS
 62
    3
 10
658.93374976070118
 20
584.93908616188583
 11
650.93374976070118
 21
584.93908616188583
  0
LINE
  8
_0-1_計細線
  6
CONTINUOUS
 62
    3
 10
672.93374976070129
 20
584.93908616188583
 11
664.93374976070118
 21
584.93908616188583
  0
LINE
  8
_0-1_計細線
  6
CONTINUOUS
 62
    3
 10
686.93374976070118
 20
584.93908616188583
 11
678.93374976070118
 21
584.93908616188583
  0
LINE
  8
_0-1_計細線
  6
CONTINUOUS
 62
    3
 10
700.93374976070118
 20
584.93908616188583
 11
692.93374976070129
 21
584.93908616188583
  0
LINE
  8
_0-1_計細線
  6
CONTINUOUS
 62
    3
 10
714.93374976070118
 20
584.93908616188583
 11
706.93374976070118
 21
584.93908616188583
  0
LINE
  8
_0-1_計細線
  6
CONTINUOUS
 62
    3
 10
728.93374976070118
 20
584.93908616188583
 11
720.93374976070118
 21
584.93908616188583
  0
LINE
  8
_0-1_計細線
  6
CONTINUOUS
 62
    3
 10
742.93374976070129
 20
584.93908616188583
 11
734.93374976070118
 21
584.93908616188583
  0
LINE
  8
_0-1_計細線
  6
CONTINUOUS
 62
    3
 10
756.93374976070118
 20
584.93908616188583
 11
748.93374976070118
 21
584.93908616188583
  0
LINE
  8
_0-1_計細線
  6
CONTINUOUS
 62
    3
 10
770.93374976070118
 20
584.93908616188583
 11
762.93374976070129
 21
584.93908616188583
  0
LINE
  8
_0-1_計細線
  6
CONTINUOUS
 62
    3
 10
784.93374976070129
 20
584.93908616188583
 11
776.93374976070118
 21
584.93908616188583
  0
LINE
  8
_0-1_計細線
  6
CONTINUOUS
 62
    3
 10
798.93374976070118
 20
584.93908616188583
 11
790.93374976070118
 21
584.93908616188583
  0
LINE
  8
_0-1_計細線
  6
CONTINUOUS
 62
    3
 10
812.93374976070129
 20
584.93908616188583
 11
804.93374976070129
 21
584.93908616188583
  0
LINE
  8
_0-1_計細線
  6
CONTINUOUS
 62
    3
 10
826.93374976070118
 20
584.93908616188583
 11
818.93374976070118
 21
584.93908616188583
  0
LINE
  8
_0-1_計細線
  6
CONTINUOUS
 62
    3
 10
840.93374976070118
 20
584.93908616188583
 11
832.93374976070129
 21
584.93908616188583
  0
LINE
  8
_0-1_計細線
  6
CONTINUOUS
 62
    3
 10
854.93374976070129
 20
584.93908616188583
 11
846.93374976070118
 21
584.93908616188583
  0
LINE
  8
_0-1_計細線
  6
CONTINUOUS
 62
    3
 10
868.93374976070118
 20
584.93908616188583
 11
860.93374976070118
 21
584.93908616188583
  0
LINE
  8
_0-1_計細線
  6
CONTINUOUS
 62
    3
 10
882.93374976070129
 20
584.93908616188583
 11
874.93374976070129
 21
584.93908616188583
  0
LINE
  8
_0-1_計細線
  6
CONTINUOUS
 62
    3
 10
896.93374976070118
 20
584.93908616188583
 11
888.93374976070118
 21
584.93908616188583
  0
LINE
  8
_0-1_計細線
  6
CONTINUOUS
 62
    3
 10
910.93374976070118
 20
584.93908616188583
 11
902.93374976070129
 21
584.93908616188583
  0
LINE
  8
_0-1_計細線
  6
CONTINUOUS
 62
    3
 10
924.93374976070129
 20
584.93908616188583
 11
916.93374976070118
 21
584.93908616188583
  0
LINE
  8
_0-1_計細線
  6
CONTINUOUS
 62
    3
 10
938.93374976070118
 20
584.93908616188583
 11
930.93374976070118
 21
584.93908616188583
  0
LINE
  8
_0-1_計細線
  6
CONTINUOUS
 62
    3
 10
952.93374976070129
 20
584.93908616188583
 11
944.93374976070129
 21
584.93908616188583
  0
LINE
  8
_0-1_計細線
  6
CONTINUOUS
 62
    3
 10
966.93374976070118
 20
584.93908616188583
 11
958.93374976070118
 21
584.93908616188583
  0
LINE
  8
_0-1_計細線
  6
CONTINUOUS
 62
    3
 10
980.93374976070118
 20
584.93908616188583
 11
972.93374976070129
 21
584.93908616188583
  0
LINE
  8
_0-1_計細線
  6
CONTINUOUS
 62
    3
 10
994.93374976070129
 20
584.93908616188583
 11
986.93374976070118
 21
584.93908616188583
  0
LINE
  8
_0-1_計細線
  6
CONTINUOUS
 62
    3
 10
1008.9337497607012
 20
584.93908616188583
 11
1000.9337497607012
 21
584.93908616188583
  0
LINE
  8
_0-1_計細線
  6
CONTINUOUS
 62
    3
 10
1022.9337497607013
 20
584.93908616188583
 11
1014.9337497607013
 21
584.93908616188583
  0
LINE
  8
_0-1_計細線
  6
CONTINUOUS
 62
    3
 10
1036.9337497607012
 20
584.93908616188583
 11
1028.9337497607012
 21
584.93908616188583
  0
LINE
  8
_0-1_計細線
  6
CONTINUOUS
 62
    3
 10
1050.9337497607012
 20
584.93908616188583
 11
1042.9337497607012
 21
584.93908616188583
  0
LINE
  8
_0-1_計細線
  6
CONTINUOUS
 62
    3
 10
1064.9337497607012
 20
584.93908616188583
 11
1056.9337497607012
 21
584.93908616188583
  0
LINE
  8
_0-1_計細線
  6
CONTINUOUS
 62
    3
 10
1078.9337497607012
 20
584.93908616188583
 11
1070.9337497607012
 21
584.93908616188583
  0
LINE
  8
_0-1_計細線
  6
CONTINUOUS
 62
    3
 10
1092.9337497607012
 20
584.93908616188583
 11
1084.9337497607012
 21
584.93908616188583
  0
LINE
  8
_0-1_計細線
  6
CONTINUOUS
 62
    3
 10
1106.9337497607012
 20
584.93908616188583
 11
1098.9337497607012
 21
584.93908616188583
  0
LINE
  8
_0-1_計細線
  6
CONTINUOUS
 62
    3
 10
1120.9337497607012
 20
584.93908616188583
 11
1112.9337497607012
 21
584.93908616188583
  0
LINE
  8
_0-1_計細線
  6
CONTINUOUS
 62
    3
 10
1134.9337497607007
 20
584.93908616188583
 11
1126.9337497607007
 21
584.93908616188583
  0
LINE
  8
_0-1_計細線
  6
CONTINUOUS
 62
    3
 10
1148.9337497607007
 20
584.93908616188583
 11
1140.9337497607007
 21
584.93908616188583
  0
LINE
  8
_0-1_計細線
  6
CONTINUOUS
 62
    3
 10
1162.9337497607007
 20
584.93908616188583
 11
1154.9337497607007
 21
584.93908616188583
  0
LINE
  8
_0-1_計細線
  6
CONTINUOUS
 62
    3
 10
1176.9337497607007
 20
584.93908616188583
 11
1168.9337497607007
 21
584.93908616188583
  0
LINE
  8
_0-1_計細線
  6
CONTINUOUS
 62
    3
 10
1190.9337497607007
 20
584.93908616188583
 11
1182.9337497607007
 21
584.93908616188583
  0
LINE
  8
_0-1_計細線
  6
CONTINUOUS
 62
    3
 10
1204.9337497607007
 20
584.93908616188583
 11
1196.9337497607007
 21
584.93908616188583
  0
LINE
  8
_0-1_計細線
  6
CONTINUOUS
 62
    3
 10
1218.9337497607007
 20
584.93908616188583
 11
1210.9337497607007
 21
584.93908616188583
  0
LINE
  8
_0-1_計細線
  6
CONTINUOUS
 62
    3
 10
1218.9337497607007
 20
581.93908616188571
 11
1218.9337497607007
 21
584.93908616188583
  0
LINE
  8
_0-1_計細線
  6
CONTINUOUS
 62
    3
 10
230.93374976070123
 20
581.93908616188571
 11
1218.9337497607007
 21
581.93908616188571
  0
LINE
  8
_0-1_計細線
  6
CONTINUOUS
 62
    3
 10
230.93374976070123
 20
584.93908616188583
 11
230.93374976070123
 21
581.93908616188571
  0
LINE
  8
_0-1_計細線
  6
CONTINUOUS
 62
    3
 10
1218.9337497607007
 20
584.93908616188583
 11
230.93374976070123
 21
584.93908616188583
  0
LINE
  8
_0-0_計極細
  6
CONTINUOUS
 62
    2
 10
1210.9337497607007
 20
609.43908616188571
 11
1204.9337497607007
 21
609.43908616188571
  0
LINE
  8
_0-0_計極細
  6
CONTINUOUS
 62
    2
 10
1210.9337497607007
 20
604.43908616188571
 11
1204.9337497607007
 21
604.43908616188571
  0
LINE
  8
_0-0_計極細
  6
CONTINUOUS
 62
    2
 10
1196.9337497607007
 20
609.43908616188571
 11
1190.9337497607007
 21
609.43908616188571
  0
LINE
  8
_0-0_計極細
  6
CONTINUOUS
 62
    2
 10
1196.9337497607007
 20
604.43908616188571
 11
1190.9337497607007
 21
604.43908616188571
  0
LINE
  8
_0-0_計極細
  6
CONTINUOUS
 62
    2
 10
1182.9337497607007
 20
609.43908616188571
 11
1176.9337497607007
 21
609.43908616188571
  0
LINE
  8
_0-0_計極細
  6
CONTINUOUS
 62
    2
 10
1182.9337497607007
 20
604.43908616188571
 11
1176.9337497607007
 21
604.43908616188571
  0
LINE
  8
_0-0_計極細
  6
CONTINUOUS
 62
    2
 10
1168.9337497607007
 20
609.43908616188571
 11
1162.9337497607007
 21
609.43908616188571
  0
LINE
  8
_0-0_計極細
  6
CONTINUOUS
 62
    2
 10
1168.9337497607007
 20
604.43908616188571
 11
1162.9337497607007
 21
604.43908616188571
  0
LINE
  8
_0-0_計極細
  6
CONTINUOUS
 62
    2
 10
1154.9337497607007
 20
609.43908616188571
 11
1148.9337497607007
 21
609.43908616188571
  0
LINE
  8
_0-0_計極細
  6
CONTINUOUS
 62
    2
 10
1154.9337497607007
 20
604.43908616188571
 11
1148.9337497607007
 21
604.43908616188571
  0
LINE
  8
_0-0_計極細
  6
CONTINUOUS
 62
    2
 10
1140.9337497607007
 20
609.43908616188571
 11
1134.9337497607007
 21
609.43908616188571
  0
LINE
  8
_0-0_計極細
  6
CONTINUOUS
 62
    2
 10
1140.9337497607007
 20
604.43908616188571
 11
1134.9337497607007
 21
604.43908616188571
  0
LINE
  8
_0-0_計極細
  6
CONTINUOUS
 62
    2
 10
1126.9337497607007
 20
609.43908616188571
 11
1120.9337497607012
 21
609.43908616188571
  0
LINE
  8
_0-0_計極細
  6
CONTINUOUS
 62
    2
 10
1126.9337497607007
 20
604.43908616188571
 11
1120.9337497607012
 21
604.43908616188571
  0
LINE
  8
_0-0_計極細
  6
CONTINUOUS
 62
    2
 10
1112.9337497607012
 20
609.43908616188571
 11
1106.9337497607012
 21
609.43908616188571
  0
LINE
  8
_0-0_計極細
  6
CONTINUOUS
 62
    2
 10
1112.9337497607012
 20
604.43908616188571
 11
1106.9337497607012
 21
604.43908616188571
  0
LINE
  8
_0-0_計極細
  6
CONTINUOUS
 62
    2
 10
1098.9337497607012
 20
609.43908616188571
 11
1092.9337497607012
 21
609.43908616188571
  0
LINE
  8
_0-0_計極細
  6
CONTINUOUS
 62
    2
 10
1098.9337497607012
 20
604.43908616188571
 11
1092.9337497607012
 21
604.43908616188571
  0
LINE
  8
_0-0_計極細
  6
CONTINUOUS
 62
    2
 10
1084.9337497607012
 20
609.43908616188571
 11
1078.9337497607012
 21
609.43908616188571
  0
LINE
  8
_0-0_計極細
  6
CONTINUOUS
 62
    2
 10
1084.9337497607012
 20
604.43908616188571
 11
1078.9337497607012
 21
604.43908616188571
  0
LINE
  8
_0-0_計極細
  6
CONTINUOUS
 62
    2
 10
1070.9337497607012
 20
609.43908616188571
 11
1064.9337497607012
 21
609.43908616188571
  0
LINE
  8
_0-0_計極細
  6
CONTINUOUS
 62
    2
 10
1070.9337497607012
 20
604.43908616188571
 11
1064.9337497607012
 21
604.43908616188571
  0
LINE
  8
_0-0_計極細
  6
CONTINUOUS
 62
    2
 10
1056.9337497607012
 20
609.43908616188571
 11
1050.9337497607012
 21
609.43908616188571
  0
LINE
  8
_0-0_計極細
  6
CONTINUOUS
 62
    2
 10
1056.9337497607012
 20
604.43908616188571
 11
1050.9337497607012
 21
604.43908616188571
  0
LINE
  8
_0-0_計極細
  6
CONTINUOUS
 62
    2
 10
1042.9337497607012
 20
609.43908616188571
 11
1036.9337497607012
 21
609.43908616188571
  0
LINE
  8
_0-0_計極細
  6
CONTINUOUS
 62
    2
 10
1042.9337497607012
 20
604.43908616188571
 11
1036.9337497607012
 21
604.43908616188571
  0
LINE
  8
_0-0_計極細
  6
CONTINUOUS
 62
    2
 10
1028.9337497607012
 20
609.43908616188571
 11
1022.9337497607013
 21
609.43908616188571
  0
LINE
  8
_0-0_計極細
  6
CONTINUOUS
 62
    2
 10
1028.9337497607012
 20
604.43908616188571
 11
1022.9337497607013
 21
604.43908616188571
  0
LINE
  8
_0-0_計極細
  6
CONTINUOUS
 62
    2
 10
1014.9337497607013
 20
609.43908616188571
 11
1008.9337497607012
 21
609.43908616188571
  0
LINE
  8
_0-0_計極細
  6
CONTINUOUS
 62
    2
 10
1014.9337497607013
 20
604.43908616188571
 11
1008.9337497607012
 21
604.43908616188571
  0
LINE
  8
_0-0_計極細
  6
CONTINUOUS
 62
    2
 10
1000.9337497607012
 20
609.43908616188571
 11
994.93374976070129
 21
609.43908616188571
  0
LINE
  8
_0-0_計極細
  6
CONTINUOUS
 62
    2
 10
1000.9337497607012
 20
604.43908616188571
 11
994.93374976070129
 21
604.43908616188571
  0
LINE
  8
_0-0_計極細
  6
CONTINUOUS
 62
    2
 10
986.93374976070118
 20
609.43908616188571
 11
980.93374976070118
 21
609.43908616188571
  0
LINE
  8
_0-0_計極細
  6
CONTINUOUS
 62
    2
 10
986.93374976070118
 20
604.43908616188571
 11
980.93374976070118
 21
604.43908616188571
  0
LINE
  8
_0-0_計極細
  6
CONTINUOUS
 62
    2
 10
972.93374976070129
 20
609.43908616188571
 11
966.93374976070118
 21
609.43908616188571
  0
LINE
  8
_0-0_計極細
  6
CONTINUOUS
 62
    2
 10
972.93374976070129
 20
604.43908616188571
 11
966.93374976070118
 21
604.43908616188571
  0
LINE
  8
_0-0_計極細
  6
CONTINUOUS
 62
    2
 10
958.93374976070118
 20
609.43908616188571
 11
952.93374976070129
 21
609.43908616188571
  0
LINE
  8
_0-0_計極細
  6
CONTINUOUS
 62
    2
 10
958.93374976070118
 20
604.43908616188571
 11
952.93374976070129
 21
604.43908616188571
  0
LINE
  8
_0-0_計極細
  6
CONTINUOUS
 62
    2
 10
944.93374976070129
 20
609.43908616188571
 11
938.93374976070118
 21
609.43908616188571
  0
LINE
  8
_0-0_計極細
  6
CONTINUOUS
 62
    2
 10
944.93374976070129
 20
604.43908616188571
 11
938.93374976070118
 21
604.43908616188571
  0
LINE
  8
_0-0_計極細
  6
CONTINUOUS
 62
    2
 10
930.93374976070118
 20
609.43908616188571
 11
924.93374976070129
 21
609.43908616188571
  0
LINE
  8
_0-0_計極細
  6
CONTINUOUS
 62
    2
 10
930.93374976070118
 20
604.43908616188571
 11
924.93374976070129
 21
604.43908616188571
  0
LINE
  8
_0-0_計極細
  6
CONTINUOUS
 62
    2
 10
916.93374976070118
 20
609.43908616188571
 11
910.93374976070118
 21
609.43908616188571
  0
LINE
  8
_0-0_計極細
  6
CONTINUOUS
 62
    2
 10
916.93374976070118
 20
604.43908616188571
 11
910.93374976070118
 21
604.43908616188571
  0
LINE
  8
_0-0_計極細
  6
CONTINUOUS
 62
    2
 10
902.93374976070129
 20
609.43908616188571
 11
896.93374976070118
 21
609.43908616188571
  0
LINE
  8
_0-0_計極細
  6
CONTINUOUS
 62
    2
 10
902.93374976070129
 20
604.43908616188571
 11
896.93374976070118
 21
604.43908616188571
  0
LINE
  8
_0-0_計極細
  6
CONTINUOUS
 62
    2
 10
888.93374976070118
 20
609.43908616188571
 11
882.93374976070129
 21
609.43908616188571
  0
LINE
  8
_0-0_計極細
  6
CONTINUOUS
 62
    2
 10
888.93374976070118
 20
604.43908616188571
 11
882.93374976070129
 21
604.43908616188571
  0
LINE
  8
_0-0_計極細
  6
CONTINUOUS
 62
    2
 10
874.93374976070129
 20
609.43908616188571
 11
868.93374976070118
 21
609.43908616188571
  0
LINE
  8
_0-0_計極細
  6
CONTINUOUS
 62
    2
 10
874.93374976070129
 20
604.43908616188571
 11
868.93374976070118
 21
604.43908616188571
  0
LINE
  8
_0-0_計極細
  6
CONTINUOUS
 62
    2
 10
860.93374976070118
 20
609.43908616188571
 11
854.93374976070129
 21
609.43908616188571
  0
LINE
  8
_0-0_計極細
  6
CONTINUOUS
 62
    2
 10
860.93374976070118
 20
604.43908616188571
 11
854.93374976070129
 21
604.43908616188571
  0
LINE
  8
_0-0_計極細
  6
CONTINUOUS
 62
    2
 10
846.93374976070118
 20
609.43908616188571
 11
840.93374976070118
 21
609.43908616188571
  0
LINE
  8
_0-0_計極細
  6
CONTINUOUS
 62
    2
 10
846.93374976070118
 20
604.43908616188571
 11
840.93374976070118
 21
604.43908616188571
  0
LINE
  8
_0-0_計極細
  6
CONTINUOUS
 62
    2
 10
832.93374976070129
 20
609.43908616188571
 11
826.93374976070118
 21
609.43908616188571
  0
LINE
  8
_0-0_計極細
  6
CONTINUOUS
 62
    2
 10
832.93374976070129
 20
604.43908616188571
 11
826.93374976070118
 21
604.43908616188571
  0
LINE
  8
_0-0_計極細
  6
CONTINUOUS
 62
    2
 10
818.93374976070118
 20
609.43908616188571
 11
812.93374976070129
 21
609.43908616188571
  0
LINE
  8
_0-0_計極細
  6
CONTINUOUS
 62
    2
 10
818.93374976070118
 20
604.43908616188571
 11
812.93374976070129
 21
604.43908616188571
  0
LINE
  8
_0-0_計極細
  6
CONTINUOUS
 62
    2
 10
804.93374976070129
 20
609.43908616188571
 11
798.93374976070118
 21
609.43908616188571
  0
LINE
  8
_0-0_計極細
  6
CONTINUOUS
 62
    2
 10
804.93374976070129
 20
604.43908616188571
 11
798.93374976070118
 21
604.43908616188571
  0
LINE
  8
_0-0_計極細
  6
CONTINUOUS
 62
    2
 10
790.93374976070118
 20
609.43908616188571
 11
784.93374976070129
 21
609.43908616188571
  0
LINE
  8
_0-0_計極細
  6
CONTINUOUS
 62
    2
 10
790.93374976070118
 20
604.43908616188571
 11
784.93374976070129
 21
604.43908616188571
  0
LINE
  8
_0-0_計極細
  6
CONTINUOUS
 62
    2
 10
776.93374976070118
 20
609.43908616188571
 11
770.93374976070118
 21
609.43908616188571
  0
LINE
  8
_0-0_計極細
  6
CONTINUOUS
 62
    2
 10
776.93374976070118
 20
604.43908616188571
 11
770.93374976070118
 21
604.43908616188571
  0
LINE
  8
_0-0_計極細
  6
CONTINUOUS
 62
    2
 10
762.93374976070129
 20
609.43908616188571
 11
756.93374976070118
 21
609.43908616188571
  0
LINE
  8
_0-0_計極細
  6
CONTINUOUS
 62
    2
 10
762.93374976070129
 20
604.43908616188571
 11
756.93374976070118
 21
604.43908616188571
  0
LINE
  8
_0-0_計極細
  6
CONTINUOUS
 62
    2
 10
748.93374976070118
 20
609.43908616188571
 11
742.93374976070129
 21
609.43908616188571
  0
LINE
  8
_0-0_計極細
  6
CONTINUOUS
 62
    2
 10
748.93374976070118
 20
604.43908616188571
 11
742.93374976070129
 21
604.43908616188571
  0
LINE
  8
_0-0_計極細
  6
CONTINUOUS
 62
    2
 10
734.93374976070118
 20
609.43908616188571
 11
728.93374976070118
 21
609.43908616188571
  0
LINE
  8
_0-0_計極細
  6
CONTINUOUS
 62
    2
 10
734.93374976070118
 20
604.43908616188571
 11
728.93374976070118
 21
604.43908616188571
  0
LINE
  8
_0-0_計極細
  6
CONTINUOUS
 62
    2
 10
720.93374976070118
 20
609.43908616188571
 11
714.93374976070118
 21
609.43908616188571
  0
LINE
  8
_0-0_計極細
  6
CONTINUOUS
 62
    2
 10
720.93374976070118
 20
604.43908616188571
 11
714.93374976070118
 21
604.43908616188571
  0
LINE
  8
_0-0_計極細
  6
CONTINUOUS
 62
    2
 10
706.93374976070118
 20
609.43908616188571
 11
700.93374976070118
 21
609.43908616188571
  0
LINE
  8
_0-0_計極細
  6
CONTINUOUS
 62
    2
 10
706.93374976070118
 20
604.43908616188571
 11
700.93374976070118
 21
604.43908616188571
  0
LINE
  8
_0-0_計極細
  6
CONTINUOUS
 62
    2
 10
692.93374976070129
 20
609.43908616188571
 11
686.93374976070118
 21
609.43908616188571
  0
LINE
  8
_0-0_計極細
  6
CONTINUOUS
 62
    2
 10
692.93374976070129
 20
604.43908616188571
 11
686.93374976070118
 21
604.43908616188571
  0
LINE
  8
_0-0_計極細
  6
CONTINUOUS
 62
    2
 10
678.93374976070118
 20
609.43908616188571
 11
672.93374976070129
 21
609.43908616188571
  0
LINE
  8
_0-0_計極細
  6
CONTINUOUS
 62
    2
 10
678.93374976070118
 20
604.43908616188571
 11
672.93374976070129
 21
604.43908616188571
  0
LINE
  8
_0-0_計極細
  6
CONTINUOUS
 62
    2
 10
664.93374976070118
 20
609.43908616188571
 11
658.93374976070118
 21
609.43908616188571
  0
LINE
  8
_0-0_計極細
  6
CONTINUOUS
 62
    2
 10
664.93374976070118
 20
604.43908616188571
 11
658.93374976070118
 21
604.43908616188571
  0
LINE
  8
_0-0_計極細
  6
CONTINUOUS
 62
    2
 10
650.93374976070118
 20
609.43908616188571
 11
644.93374976070118
 21
609.43908616188571
  0
LINE
  8
_0-0_計極細
  6
CONTINUOUS
 62
    2
 10
650.93374976070118
 20
604.43908616188571
 11
644.93374976070118
 21
604.43908616188571
  0
LINE
  8
_0-0_計極細
  6
CONTINUOUS
 62
    2
 10
636.93374976070118
 20
609.43908616188571
 11
630.93374976070118
 21
609.43908616188571
  0
LINE
  8
_0-0_計極細
  6
CONTINUOUS
 62
    2
 10
636.93374976070118
 20
604.43908616188571
 11
630.93374976070118
 21
604.43908616188571
  0
LINE
  8
_0-0_計極細
  6
CONTINUOUS
 62
    2
 10
622.93374976070118
 20
609.43908616188571
 11
616.93374976070118
 21
609.43908616188571
  0
LINE
  8
_0-0_計極細
  6
CONTINUOUS
 62
    2
 10
622.93374976070118
 20
604.43908616188571
 11
616.93374976070118
 21
604.43908616188571
  0
LINE
  8
_0-0_計極細
  6
CONTINUOUS
 62
    2
 10
608.93374976070118
 20
609.43908616188571
 11
602.93374976070118
 21
609.43908616188571
  0
LINE
  8
_0-0_計極細
  6
CONTINUOUS
 62
    2
 10
608.93374976070118
 20
604.43908616188571
 11
602.93374976070118
 21
604.43908616188571
  0
LINE
  8
_0-0_計極細
  6
CONTINUOUS
 62
    2
 10
594.93374976070118
 20
609.43908616188571
 11
588.93374976070118
 21
609.43908616188571
  0
LINE
  8
_0-0_計極細
  6
CONTINUOUS
 62
    2
 10
594.93374976070118
 20
604.43908616188571
 11
588.93374976070118
 21
604.43908616188571
  0
LINE
  8
_0-0_計極細
  6
CONTINUOUS
 62
    2
 10
580.93374976070118
 20
609.43908616188571
 11
574.93374976070118
 21
609.43908616188571
  0
LINE
  8
_0-0_計極細
  6
CONTINUOUS
 62
    2
 10
580.93374976070118
 20
604.43908616188571
 11
574.93374976070118
 21
604.43908616188571
  0
LINE
  8
_0-0_計極細
  6
CONTINUOUS
 62
    2
 10
566.93374976070118
 20
609.43908616188571
 11
560.93374976070118
 21
609.43908616188571
  0
LINE
  8
_0-0_計極細
  6
CONTINUOUS
 62
    2
 10
566.93374976070118
 20
604.43908616188571
 11
560.93374976070118
 21
604.43908616188571
  0
LINE
  8
_0-0_計極細
  6
CONTINUOUS
 62
    2
 10
552.93374976070118
 20
609.43908616188571
 11
546.93374976070118
 21
609.43908616188571
  0
LINE
  8
_0-0_計極細
  6
CONTINUOUS
 62
    2
 10
552.93374976070118
 20
604.43908616188571
 11
546.93374976070118
 21
604.43908616188571
  0
LINE
  8
_0-0_計極細
  6
CONTINUOUS
 62
    2
 10
538.93374976070118
 20
609.43908616188571
 11
532.93374976070118
 21
609.43908616188571
  0
LINE
  8
_0-0_計極細
  6
CONTINUOUS
 62
    2
 10
538.93374976070118
 20
604.43908616188571
 11
532.93374976070118
 21
604.43908616188571
  0
LINE
  8
_0-0_計極細
  6
CONTINUOUS
 62
    2
 10
524.93374976070118
 20
609.43908616188571
 11
518.93374976070118
 21
609.43908616188571
  0
LINE
  8
_0-0_計極細
  6
CONTINUOUS
 62
    2
 10
524.93374976070118
 20
604.43908616188571
 11
518.93374976070118
 21
604.43908616188571
  0
LINE
  8
_0-0_計極細
  6
CONTINUOUS
 62
    2
 10
510.93374976070123
 20
609.43908616188571
 11
504.93374976070123
 21
609.43908616188571
  0
LINE
  8
_0-0_計極細
  6
CONTINUOUS
 62
    2
 10
510.93374976070123
 20
604.43908616188571
 11
504.93374976070123
 21
604.43908616188571
  0
LINE
  8
_0-0_計極細
  6
CONTINUOUS
 62
    2
 10
496.93374976070118
 20
609.43908616188571
 11
490.93374976070123
 21
609.43908616188571
  0
LINE
  8
_0-0_計極細
  6
CONTINUOUS
 62
    2
 10
496.93374976070118
 20
604.43908616188571
 11
490.93374976070123
 21
604.43908616188571
  0
LINE
  8
_0-0_計極細
  6
CONTINUOUS
 62
    2
 10
482.93374976070118
 20
609.43908616188571
 11
476.93374976070118
 21
609.43908616188571
  0
LINE
  8
_0-0_計極細
  6
CONTINUOUS
 62
    2
 10
482.93374976070118
 20
604.43908616188571
 11
476.93374976070118
 21
604.43908616188571
  0
LINE
  8
_0-0_計極細
  6
CONTINUOUS
 62
    2
 10
468.93374976070118
 20
609.43908616188571
 11
462.93374976070118
 21
609.43908616188571
  0
LINE
  8
_0-0_計極細
  6
CONTINUOUS
 62
    2
 10
468.93374976070118
 20
604.43908616188571
 11
462.93374976070118
 21
604.43908616188571
  0
LINE
  8
_0-0_計極細
  6
CONTINUOUS
 62
    2
 10
454.93374976070123
 20
609.43908616188571
 11
448.93374976070118
 21
609.43908616188571
  0
LINE
  8
_0-0_計極細
  6
CONTINUOUS
 62
    2
 10
454.93374976070123
 20
604.43908616188571
 11
448.93374976070118
 21
604.43908616188571
  0
LINE
  8
_0-0_計極細
  6
CONTINUOUS
 62
    2
 10
440.93374976070123
 20
609.43908616188571
 11
434.93374976070123
 21
609.43908616188571
  0
LINE
  8
_0-0_計極細
  6
CONTINUOUS
 62
    2
 10
440.93374976070123
 20
604.43908616188571
 11
434.93374976070123
 21
604.43908616188571
  0
LINE
  8
_0-0_計極細
  6
CONTINUOUS
 62
    2
 10
426.93374976070118
 20
609.43908616188571
 11
420.93374976070123
 21
609.43908616188571
  0
LINE
  8
_0-0_計極細
  6
CONTINUOUS
 62
    2
 10
426.93374976070118
 20
604.43908616188571
 11
420.93374976070123
 21
604.43908616188571
  0
LINE
  8
_0-0_計極細
  6
CONTINUOUS
 62
    2
 10
412.93374976070118
 20
609.43908616188571
 11
406.93374976070118
 21
609.43908616188571
  0
LINE
  8
_0-0_計極細
  6
CONTINUOUS
 62
    2
 10
412.93374976070118
 20
604.43908616188571
 11
406.93374976070118
 21
604.43908616188571
  0
LINE
  8
_0-0_計極細
  6
CONTINUOUS
 62
    2
 10
398.93374976070118
 20
609.43908616188571
 11
392.93374976070118
 21
609.43908616188571
  0
LINE
  8
_0-0_計極細
  6
CONTINUOUS
 62
    2
 10
398.93374976070118
 20
604.43908616188571
 11
392.93374976070118
 21
604.43908616188571
  0
LINE
  8
_0-0_計極細
  6
CONTINUOUS
 62
    2
 10
384.93374976070123
 20
609.43908616188571
 11
378.93374976070118
 21
609.43908616188571
  0
LINE
  8
_0-0_計極細
  6
CONTINUOUS
 62
    2
 10
384.93374976070123
 20
604.43908616188571
 11
378.93374976070118
 21
604.43908616188571
  0
LINE
  8
_0-0_計極細
  6
CONTINUOUS
 62
    2
 10
370.93374976070118
 20
609.43908616188571
 11
364.93374976070123
 21
609.43908616188571
  0
LINE
  8
_0-0_計極細
  6
CONTINUOUS
 62
    2
 10
370.93374976070118
 20
604.43908616188571
 11
364.93374976070123
 21
604.43908616188571
  0
LINE
  8
_0-0_計極細
  6
CONTINUOUS
 62
    2
 10
356.93374976070118
 20
609.43908616188571
 11
350.93374976070118
 21
609.43908616188571
  0
LINE
  8
_0-0_計極細
  6
CONTINUOUS
 62
    2
 10
356.93374976070118
 20
604.43908616188571
 11
350.93374976070118
 21
604.43908616188571
  0
LINE
  8
_0-0_計極細
  6
CONTINUOUS
 62
    2
 10
342.93374976070118
 20
609.43908616188571
 11
336.93374976070118
 21
609.43908616188571
  0
LINE
  8
_0-0_計極細
  6
CONTINUOUS
 62
    2
 10
342.93374976070118
 20
604.43908616188571
 11
336.93374976070118
 21
604.43908616188571
  0
LINE
  8
_0-0_計極細
  6
CONTINUOUS
 62
    2
 10
328.93374976070118
 20
609.43908616188571
 11
322.93374976070118
 21
609.43908616188571
  0
LINE
  8
_0-0_計極細
  6
CONTINUOUS
 62
    2
 10
328.93374976070118
 20
604.43908616188571
 11
322.93374976070118
 21
604.43908616188571
  0
LINE
  8
_0-0_計極細
  6
CONTINUOUS
 62
    2
 10
314.93374976070118
 20
609.43908616188571
 11
308.93374976070118
 21
609.43908616188571
  0
LINE
  8
_0-0_計極細
  6
CONTINUOUS
 62
    2
 10
314.93374976070118
 20
604.43908616188571
 11
308.93374976070118
 21
604.43908616188571
  0
LINE
  8
_0-0_計極細
  6
CONTINUOUS
 62
    2
 10
300.93374976070123
 20
609.43908616188571
 11
294.93374976070118
 21
609.43908616188571
  0
LINE
  8
_0-0_計極細
  6
CONTINUOUS
 62
    2
 10
300.93374976070123
 20
604.43908616188571
 11
294.93374976070118
 21
604.43908616188571
  0
LINE
  8
_0-0_計極細
  6
CONTINUOUS
 62
    2
 10
286.93374976070118
 20
609.43908616188571
 11
280.93374976070123
 21
609.43908616188571
  0
LINE
  8
_0-0_計極細
  6
CONTINUOUS
 62
    2
 10
286.93374976070118
 20
604.43908616188571
 11
280.93374976070123
 21
604.43908616188571
  0
LINE
  8
_0-0_計極細
  6
CONTINUOUS
 62
    2
 10
272.93374976070118
 20
609.43908616188571
 11
266.93374976070118
 21
609.43908616188571
  0
LINE
  8
_0-0_計極細
  6
CONTINUOUS
 62
    2
 10
272.93374976070118
 20
604.43908616188571
 11
266.93374976070118
 21
604.43908616188571
  0
LINE
  8
_0-0_計極細
  6
CONTINUOUS
 62
    2
 10
258.93374976070118
 20
609.43908616188571
 11
252.93374976070118
 21
609.43908616188571
  0
LINE
  8
_0-0_計極細
  6
CONTINUOUS
 62
    2
 10
258.93374976070118
 20
604.43908616188571
 11
252.93374976070118
 21
604.43908616188571
  0
LINE
  8
_0-0_計極細
  6
CONTINUOUS
 62
    2
 10
244.93374976070115
 20
609.43908616188571
 11
238.9337497607012
 21
609.43908616188571
  0
LINE
  8
_0-0_計極細
  6
CONTINUOUS
 62
    2
 10
244.93374976070115
 20
604.43908616188571
 11
238.9337497607012
 21
604.43908616188571
  0
LINE
  8
_0-1_計細線
  6
CONTINUOUS
 62
    3
 10
238.9337497607012
 20
778.93908616188583
 11
238.9337497607012
 21
584.93908616188583
  0
LINE
  8
_0-1_計細線
  6
CONTINUOUS
 62
    3
 10
230.93374976070123
 20
584.93908616188583
 11
230.93374976070123
 21
778.93908616188583
  0
LINE
  8
_0-1_計細線
  6
CONTINUOUS
 62
    3
 10
252.93374976070118
 20
778.93908616188583
 11
252.93374976070118
 21
584.93908616188583
  0
LINE
  8
_0-1_計細線
  6
CONTINUOUS
 62
    3
 10
244.93374976070115
 20
584.93908616188583
 11
244.93374976070115
 21
778.93908616188583
  0
LINE
  8
_0-1_計細線
  6
CONTINUOUS
 62
    3
 10
266.93374976070118
 20
778.93908616188583
 11
266.93374976070118
 21
584.93908616188583
  0
LINE
  8
_0-1_計細線
  6
CONTINUOUS
 62
    3
 10
258.93374976070118
 20
584.93908616188583
 11
258.93374976070118
 21
778.93908616188583
  0
LINE
  8
_0-1_計細線
  6
CONTINUOUS
 62
    3
 10
280.93374976070123
 20
778.93908616188583
 11
280.93374976070123
 21
584.93908616188583
  0
LINE
  8
_0-1_計細線
  6
CONTINUOUS
 62
    3
 10
272.93374976070118
 20
584.93908616188583
 11
272.93374976070118
 21
778.93908616188583
  0
LINE
  8
_0-1_計細線
  6
CONTINUOUS
 62
    3
 10
294.93374976070118
 20
778.93908616188583
 11
294.93374976070118
 21
584.93908616188583
  0
LINE
  8
_0-1_計細線
  6
CONTINUOUS
 62
    3
 10
286.93374976070118
 20
584.93908616188583
 11
286.93374976070118
 21
778.93908616188583
  0
LINE
  8
_0-1_計細線
  6
CONTINUOUS
 62
    3
 10
308.93374976070118
 20
778.93908616188583
 11
308.93374976070118
 21
584.93908616188583
  0
LINE
  8
_0-1_計細線
  6
CONTINUOUS
 62
    3
 10
300.93374976070123
 20
584.93908616188583
 11
300.93374976070123
 21
778.93908616188583
  0
LINE
  8
_0-1_計細線
  6
CONTINUOUS
 62
    3
 10
322.93374976070118
 20
778.93908616188583
 11
322.93374976070118
 21
584.93908616188583
  0
LINE
  8
_0-1_計細線
  6
CONTINUOUS
 62
    3
 10
314.93374976070118
 20
584.93908616188583
 11
314.93374976070118
 21
778.93908616188583
  0
LINE
  8
_0-1_計細線
  6
CONTINUOUS
 62
    3
 10
336.93374976070118
 20
778.93908616188583
 11
336.93374976070118
 21
584.93908616188583
  0
LINE
  8
_0-1_計細線
  6
CONTINUOUS
 62
    3
 10
328.93374976070118
 20
584.93908616188583
 11
328.93374976070118
 21
778.93908616188583
  0
LINE
  8
_0-1_計細線
  6
CONTINUOUS
 62
    3
 10
350.93374976070118
 20
778.93908616188583
 11
350.93374976070118
 21
584.93908616188583
  0
LINE
  8
_0-1_計細線
  6
CONTINUOUS
 62
    3
 10
342.93374976070118
 20
584.93908616188583
 11
342.93374976070118
 21
778.93908616188583
  0
LINE
  8
_0-1_計細線
  6
CONTINUOUS
 62
    3
 10
364.93374976070123
 20
778.93908616188583
 11
364.93374976070123
 21
584.93908616188583
  0
LINE
  8
_0-1_計細線
  6
CONTINUOUS
 62
    3
 10
356.93374976070118
 20
584.93908616188583
 11
356.93374976070118
 21
778.93908616188583
  0
LINE
  8
_0-1_計細線
  6
CONTINUOUS
 62
    3
 10
378.93374976070118
 20
778.93908616188583
 11
378.93374976070118
 21
584.93908616188583
  0
LINE
  8
_0-1_計細線
  6
CONTINUOUS
 62
    3
 10
370.93374976070118
 20
584.93908616188583
 11
370.93374976070118
 21
778.93908616188583
  0
LINE
  8
_0-1_計細線
  6
CONTINUOUS
 62
    3
 10
392.93374976070118
 20
778.93908616188583
 11
392.93374976070118
 21
584.93908616188583
  0
LINE
  8
_0-1_計細線
  6
CONTINUOUS
 62
    3
 10
384.93374976070123
 20
584.93908616188583
 11
384.93374976070123
 21
778.93908616188583
  0
LINE
  8
_0-1_計細線
  6
CONTINUOUS
 62
    3
 10
406.93374976070118
 20
778.93908616188583
 11
406.93374976070118
 21
584.93908616188583
  0
LINE
  8
_0-1_計細線
  6
CONTINUOUS
 62
    3
 10
398.93374976070118
 20
584.93908616188583
 11
398.93374976070118
 21
778.93908616188583
  0
LINE
  8
_0-1_計細線
  6
CONTINUOUS
 62
    3
 10
420.93374976070123
 20
778.93908616188583
 11
420.93374976070123
 21
584.93908616188583
  0
LINE
  8
_0-1_計細線
  6
CONTINUOUS
 62
    3
 10
412.93374976070118
 20
584.93908616188583
 11
412.93374976070118
 21
778.93908616188583
  0
LINE
  8
_0-1_計細線
  6
CONTINUOUS
 62
    3
 10
434.93374976070123
 20
778.93908616188583
 11
434.93374976070123
 21
584.93908616188583
  0
LINE
  8
_0-1_計細線
  6
CONTINUOUS
 62
    3
 10
426.93374976070118
 20
584.93908616188583
 11
426.93374976070118
 21
778.93908616188583
  0
LINE
  8
_0-1_計細線
  6
CONTINUOUS
 62
    3
 10
448.93374976070118
 20
778.93908616188583
 11
448.93374976070118
 21
584.93908616188583
  0
LINE
  8
_0-1_計細線
  6
CONTINUOUS
 62
    3
 10
440.93374976070123
 20
584.93908616188583
 11
440.93374976070123
 21
778.93908616188583
  0
LINE
  8
_0-1_計細線
  6
CONTINUOUS
 62
    3
 10
462.93374976070118
 20
778.93908616188583
 11
462.93374976070118
 21
584.93908616188583
  0
LINE
  8
_0-1_計細線
  6
CONTINUOUS
 62
    3
 10
454.93374976070123
 20
584.93908616188583
 11
454.93374976070123
 21
778.93908616188583
  0
LINE
  8
_0-1_計細線
  6
CONTINUOUS
 62
    3
 10
476.93374976070118
 20
778.93908616188583
 11
476.93374976070118
 21
584.93908616188583
  0
LINE
  8
_0-1_計細線
  6
CONTINUOUS
 62
    3
 10
468.93374976070118
 20
584.93908616188583
 11
468.93374976070118
 21
778.93908616188583
  0
LINE
  8
_0-1_計細線
  6
CONTINUOUS
 62
    3
 10
490.93374976070123
 20
778.93908616188583
 11
490.93374976070123
 21
584.93908616188583
  0
LINE
  8
_0-1_計細線
  6
CONTINUOUS
 62
    3
 10
482.93374976070118
 20
584.93908616188583
 11
482.93374976070118
 21
778.93908616188583
  0
LINE
  8
_0-1_計細線
  6
CONTINUOUS
 62
    3
 10
504.93374976070123
 20
778.93908616188583
 11
504.93374976070123
 21
584.93908616188583
  0
LINE
  8
_0-1_計細線
  6
CONTINUOUS
 62
    3
 10
496.93374976070118
 20
584.93908616188583
 11
496.93374976070118
 21
778.93908616188583
  0
LINE
  8
_0-1_計細線
  6
CONTINUOUS
 62
    3
 10
518.93374976070118
 20
778.93908616188583
 11
518.93374976070118
 21
584.93908616188583
  0
LINE
  8
_0-1_計細線
  6
CONTINUOUS
 62
    3
 10
510.93374976070123
 20
584.93908616188583
 11
510.93374976070123
 21
778.93908616188583
  0
LINE
  8
_0-1_計細線
  6
CONTINUOUS
 62
    3
 10
532.93374976070118
 20
778.93908616188583
 11
532.93374976070118
 21
584.93908616188583
  0
LINE
  8
_0-1_計細線
  6
CONTINUOUS
 62
    3
 10
524.93374976070118
 20
584.93908616188583
 11
524.93374976070118
 21
778.93908616188583
  0
LINE
  8
_0-1_計細線
  6
CONTINUOUS
 62
    3
 10
546.93374976070118
 20
778.93908616188583
 11
546.93374976070118
 21
584.93908616188583
  0
LINE
  8
_0-1_計細線
  6
CONTINUOUS
 62
    3
 10
538.93374976070118
 20
584.93908616188583
 11
538.93374976070118
 21
778.93908616188583
  0
LINE
  8
_0-1_計細線
  6
CONTINUOUS
 62
    3
 10
560.93374976070118
 20
778.93908616188583
 11
560.93374976070118
 21
584.93908616188583
  0
LINE
  8
_0-1_計細線
  6
CONTINUOUS
 62
    3
 10
552.93374976070118
 20
584.93908616188583
 11
552.93374976070118
 21
778.93908616188583
  0
LINE
  8
_0-1_計細線
  6
CONTINUOUS
 62
    3
 10
574.93374976070118
 20
778.93908616188583
 11
574.93374976070118
 21
584.93908616188583
  0
LINE
  8
_0-1_計細線
  6
CONTINUOUS
 62
    3
 10
566.93374976070118
 20
584.93908616188583
 11
566.93374976070118
 21
778.93908616188583
  0
LINE
  8
_0-1_計細線
  6
CONTINUOUS
 62
    3
 10
588.93374976070118
 20
778.93908616188583
 11
588.93374976070118
 21
584.93908616188583
  0
LINE
  8
_0-1_計細線
  6
CONTINUOUS
 62
    3
 10
580.93374976070118
 20
584.93908616188583
 11
580.93374976070118
 21
778.93908616188583
  0
LINE
  8
_0-1_計細線
  6
CONTINUOUS
 62
    3
 10
602.93374976070118
 20
778.93908616188583
 11
602.93374976070118
 21
584.93908616188583
  0
LINE
  8
_0-1_計細線
  6
CONTINUOUS
 62
    3
 10
594.93374976070118
 20
584.93908616188583
 11
594.93374976070118
 21
778.93908616188583
  0
LINE
  8
_0-1_計細線
  6
CONTINUOUS
 62
    3
 10
616.93374976070118
 20
778.93908616188583
 11
616.93374976070118
 21
584.93908616188583
  0
LINE
  8
_0-1_計細線
  6
CONTINUOUS
 62
    3
 10
608.93374976070118
 20
584.93908616188583
 11
608.93374976070118
 21
778.93908616188583
  0
LINE
  8
_0-1_計細線
  6
CONTINUOUS
 62
    3
 10
630.93374976070118
 20
778.93908616188583
 11
630.93374976070118
 21
584.93908616188583
  0
LINE
  8
_0-1_計細線
  6
CONTINUOUS
 62
    3
 10
622.93374976070118
 20
584.93908616188583
 11
622.93374976070118
 21
778.93908616188583
  0
LINE
  8
_0-1_計細線
  6
CONTINUOUS
 62
    3
 10
644.93374976070118
 20
778.93908616188583
 11
644.93374976070118
 21
584.93908616188583
  0
LINE
  8
_0-1_計細線
  6
CONTINUOUS
 62
    3
 10
636.93374976070118
 20
584.93908616188583
 11
636.93374976070118
 21
778.93908616188583
  0
LINE
  8
_0-1_計細線
  6
CONTINUOUS
 62
    3
 10
658.93374976070118
 20
778.93908616188583
 11
658.93374976070118
 21
584.93908616188583
  0
LINE
  8
_0-1_計細線
  6
CONTINUOUS
 62
    3
 10
650.93374976070118
 20
584.93908616188583
 11
650.93374976070118
 21
778.93908616188583
  0
LINE
  8
_0-1_計細線
  6
CONTINUOUS
 62
    3
 10
672.93374976070129
 20
778.93908616188583
 11
672.93374976070129
 21
584.93908616188583
  0
LINE
  8
_0-1_計細線
  6
CONTINUOUS
 62
    3
 10
664.93374976070118
 20
584.93908616188583
 11
664.93374976070118
 21
778.93908616188583
  0
LINE
  8
_0-1_計細線
  6
CONTINUOUS
 62
    3
 10
686.93374976070118
 20
778.93908616188583
 11
686.93374976070118
 21
584.93908616188583
  0
LINE
  8
_0-1_計細線
  6
CONTINUOUS
 62
    3
 10
678.93374976070118
 20
584.93908616188583
 11
678.93374976070118
 21
778.93908616188583
  0
LINE
  8
_0-1_計細線
  6
CONTINUOUS
 62
    3
 10
700.93374976070118
 20
778.93908616188583
 11
700.93374976070118
 21
584.93908616188583
  0
LINE
  8
_0-1_計細線
  6
CONTINUOUS
 62
    3
 10
692.93374976070129
 20
584.93908616188583
 11
692.93374976070129
 21
778.93908616188583
  0
LINE
  8
_0-1_計細線
  6
CONTINUOUS
 62
    3
 10
714.93374976070118
 20
778.93908616188583
 11
714.93374976070118
 21
584.93908616188583
  0
LINE
  8
_0-1_計細線
  6
CONTINUOUS
 62
    3
 10
706.93374976070118
 20
584.93908616188583
 11
706.93374976070118
 21
778.93908616188583
  0
LINE
  8
_0-1_計細線
  6
CONTINUOUS
 62
    3
 10
728.93374976070118
 20
778.93908616188583
 11
728.93374976070118
 21
584.93908616188583
  0
LINE
  8
_0-1_計細線
  6
CONTINUOUS
 62
    3
 10
720.93374976070118
 20
584.93908616188583
 11
720.93374976070118
 21
778.93908616188583
  0
LINE
  8
_0-1_計細線
  6
CONTINUOUS
 62
    3
 10
742.93374976070129
 20
778.93908616188583
 11
742.93374976070129
 21
584.93908616188583
  0
LINE
  8
_0-1_計細線
  6
CONTINUOUS
 62
    3
 10
734.93374976070118
 20
584.93908616188583
 11
734.93374976070118
 21
778.93908616188583
  0
LINE
  8
_0-1_計細線
  6
CONTINUOUS
 62
    3
 10
756.93374976070118
 20
778.93908616188583
 11
756.93374976070118
 21
584.93908616188583
  0
LINE
  8
_0-1_計細線
  6
CONTINUOUS
 62
    3
 10
748.93374976070118
 20
584.93908616188583
 11
748.93374976070118
 21
778.93908616188583
  0
LINE
  8
_0-1_計細線
  6
CONTINUOUS
 62
    3
 10
770.93374976070118
 20
778.93908616188583
 11
770.93374976070118
 21
584.93908616188583
  0
LINE
  8
_0-1_計細線
  6
CONTINUOUS
 62
    3
 10
762.93374976070129
 20
584.93908616188583
 11
762.93374976070129
 21
778.93908616188583
  0
LINE
  8
_0-1_計細線
  6
CONTINUOUS
 62
    3
 10
784.93374976070129
 20
778.93908616188583
 11
784.93374976070129
 21
584.93908616188583
  0
LINE
  8
_0-1_計細線
  6
CONTINUOUS
 62
    3
 10
776.93374976070118
 20
584.93908616188583
 11
776.93374976070118
 21
778.93908616188583
  0
LINE
  8
_0-1_計細線
  6
CONTINUOUS
 62
    3
 10
798.93374976070118
 20
778.93908616188583
 11
798.93374976070118
 21
584.93908616188583
  0
LINE
  8
_0-1_計細線
  6
CONTINUOUS
 62
    3
 10
790.93374976070118
 20
584.93908616188583
 11
790.93374976070118
 21
778.93908616188583
  0
LINE
  8
_0-1_計細線
  6
CONTINUOUS
 62
    3
 10
812.93374976070129
 20
778.93908616188583
 11
812.93374976070129
 21
584.93908616188583
  0
LINE
  8
_0-1_計細線
  6
CONTINUOUS
 62
    3
 10
804.93374976070129
 20
584.93908616188583
 11
804.93374976070129
 21
778.93908616188583
  0
LINE
  8
_0-1_計細線
  6
CONTINUOUS
 62
    3
 10
826.93374976070118
 20
778.93908616188583
 11
826.93374976070118
 21
584.93908616188583
  0
LINE
  8
_0-1_計細線
  6
CONTINUOUS
 62
    3
 10
818.93374976070118
 20
584.93908616188583
 11
818.93374976070118
 21
778.93908616188583
  0
LINE
  8
_0-1_計細線
  6
CONTINUOUS
 62
    3
 10
840.93374976070118
 20
778.93908616188583
 11
840.93374976070118
 21
584.93908616188583
  0
LINE
  8
_0-1_計細線
  6
CONTINUOUS
 62
    3
 10
832.93374976070129
 20
584.93908616188583
 11
832.93374976070129
 21
778.93908616188583
  0
LINE
  8
_0-1_計細線
  6
CONTINUOUS
 62
    3
 10
854.93374976070129
 20
778.93908616188583
 11
854.93374976070129
 21
584.93908616188583
  0
LINE
  8
_0-1_計細線
  6
CONTINUOUS
 62
    3
 10
846.93374976070118
 20
584.93908616188583
 11
846.93374976070118
 21
778.93908616188583
  0
LINE
  8
_0-1_計細線
  6
CONTINUOUS
 62
    3
 10
868.93374976070118
 20
778.93908616188583
 11
868.93374976070118
 21
584.93908616188583
  0
LINE
  8
_0-1_計細線
  6
CONTINUOUS
 62
    3
 10
860.93374976070118
 20
584.93908616188583
 11
860.93374976070118
 21
778.93908616188583
  0
LINE
  8
_0-1_計細線
  6
CONTINUOUS
 62
    3
 10
882.93374976070129
 20
778.93908616188583
 11
882.93374976070129
 21
584.93908616188583
  0
LINE
  8
_0-1_計細線
  6
CONTINUOUS
 62
    3
 10
874.93374976070129
 20
584.93908616188583
 11
874.93374976070129
 21
778.93908616188583
  0
LINE
  8
_0-1_計細線
  6
CONTINUOUS
 62
    3
 10
896.93374976070118
 20
778.93908616188583
 11
896.93374976070118
 21
584.93908616188583
  0
LINE
  8
_0-1_計細線
  6
CONTINUOUS
 62
    3
 10
888.93374976070118
 20
584.93908616188583
 11
888.93374976070118
 21
778.93908616188583
  0
LINE
  8
_0-1_計細線
  6
CONTINUOUS
 62
    3
 10
910.93374976070118
 20
778.93908616188583
 11
910.93374976070118
 21
584.93908616188583
  0
LINE
  8
_0-1_計細線
  6
CONTINUOUS
 62
    3
 10
902.93374976070129
 20
584.93908616188583
 11
902.93374976070129
 21
778.93908616188583
  0
LINE
  8
_0-1_計細線
  6
CONTINUOUS
 62
    3
 10
924.93374976070129
 20
778.93908616188583
 11
924.93374976070129
 21
584.93908616188583
  0
LINE
  8
_0-1_計細線
  6
CONTINUOUS
 62
    3
 10
916.93374976070118
 20
584.93908616188583
 11
916.93374976070118
 21
778.93908616188583
  0
LINE
  8
_0-1_計細線
  6
CONTINUOUS
 62
    3
 10
938.93374976070118
 20
778.93908616188583
 11
938.93374976070118
 21
584.93908616188583
  0
LINE
  8
_0-1_計細線
  6
CONTINUOUS
 62
    3
 10
930.93374976070118
 20
584.93908616188583
 11
930.93374976070118
 21
778.93908616188583
  0
LINE
  8
_0-1_計細線
  6
CONTINUOUS
 62
    3
 10
952.93374976070129
 20
778.93908616188583
 11
952.93374976070129
 21
584.93908616188583
  0
LINE
  8
_0-1_計細線
  6
CONTINUOUS
 62
    3
 10
944.93374976070129
 20
584.93908616188583
 11
944.93374976070129
 21
778.93908616188583
  0
LINE
  8
_0-1_計細線
  6
CONTINUOUS
 62
    3
 10
966.93374976070118
 20
778.93908616188583
 11
966.93374976070118
 21
584.93908616188583
  0
LINE
  8
_0-1_計細線
  6
CONTINUOUS
 62
    3
 10
958.93374976070118
 20
584.93908616188583
 11
958.93374976070118
 21
778.93908616188583
  0
LINE
  8
_0-1_計細線
  6
CONTINUOUS
 62
    3
 10
980.93374976070118
 20
778.93908616188583
 11
980.93374976070118
 21
584.93908616188583
  0
LINE
  8
_0-1_計細線
  6
CONTINUOUS
 62
    3
 10
972.93374976070129
 20
584.93908616188583
 11
972.93374976070129
 21
778.93908616188583
  0
LINE
  8
_0-1_計細線
  6
CONTINUOUS
 62
    3
 10
994.93374976070129
 20
778.93908616188583
 11
994.93374976070129
 21
584.93908616188583
  0
LINE
  8
_0-1_計細線
  6
CONTINUOUS
 62
    3
 10
986.93374976070118
 20
584.93908616188583
 11
986.93374976070118
 21
778.93908616188583
  0
LINE
  8
_0-1_計細線
  6
CONTINUOUS
 62
    3
 10
1008.9337497607012
 20
778.93908616188583
 11
1008.9337497607012
 21
584.93908616188583
  0
LINE
  8
_0-1_計細線
  6
CONTINUOUS
 62
    3
 10
1000.9337497607012
 20
584.93908616188583
 11
1000.9337497607012
 21
778.93908616188583
  0
LINE
  8
_0-1_計細線
  6
CONTINUOUS
 62
    3
 10
1022.9337497607013
 20
778.93908616188583
 11
1022.9337497607013
 21
584.93908616188583
  0
LINE
  8
_0-1_計細線
  6
CONTINUOUS
 62
    3
 10
1014.9337497607013
 20
584.93908616188583
 11
1014.9337497607013
 21
778.93908616188583
  0
LINE
  8
_0-1_計細線
  6
CONTINUOUS
 62
    3
 10
1036.9337497607012
 20
778.93908616188583
 11
1036.9337497607012
 21
584.93908616188583
  0
LINE
  8
_0-1_計細線
  6
CONTINUOUS
 62
    3
 10
1028.9337497607012
 20
584.93908616188583
 11
1028.9337497607012
 21
778.93908616188583
  0
LINE
  8
_0-1_計細線
  6
CONTINUOUS
 62
    3
 10
1050.9337497607012
 20
778.93908616188583
 11
1050.9337497607012
 21
584.93908616188583
  0
LINE
  8
_0-1_計細線
  6
CONTINUOUS
 62
    3
 10
1042.9337497607012
 20
584.93908616188583
 11
1042.9337497607012
 21
778.93908616188583
  0
LINE
  8
_0-1_計細線
  6
CONTINUOUS
 62
    3
 10
1064.9337497607012
 20
778.93908616188583
 11
1064.9337497607012
 21
584.93908616188583
  0
LINE
  8
_0-1_計細線
  6
CONTINUOUS
 62
    3
 10
1056.9337497607012
 20
584.93908616188583
 11
1056.9337497607012
 21
778.93908616188583
  0
LINE
  8
_0-1_計細線
  6
CONTINUOUS
 62
    3
 10
1078.9337497607012
 20
778.93908616188583
 11
1078.9337497607012
 21
584.93908616188583
  0
LINE
  8
_0-1_計細線
  6
CONTINUOUS
 62
    3
 10
1070.9337497607012
 20
584.93908616188583
 11
1070.9337497607012
 21
778.93908616188583
  0
LINE
  8
_0-1_計細線
  6
CONTINUOUS
 62
    3
 10
1092.9337497607012
 20
778.93908616188583
 11
1092.9337497607012
 21
584.93908616188583
  0
LINE
  8
_0-1_計細線
  6
CONTINUOUS
 62
    3
 10
1084.9337497607012
 20
584.93908616188583
 11
1084.9337497607012
 21
778.93908616188583
  0
LINE
  8
_0-1_計細線
  6
CONTINUOUS
 62
    3
 10
1106.9337497607012
 20
778.93908616188583
 11
1106.9337497607012
 21
584.93908616188583
  0
LINE
  8
_0-1_計細線
  6
CONTINUOUS
 62
    3
 10
1098.9337497607012
 20
584.93908616188583
 11
1098.9337497607012
 21
778.93908616188583
  0
LINE
  8
_0-1_計細線
  6
CONTINUOUS
 62
    3
 10
1120.9337497607012
 20
778.93908616188583
 11
1120.9337497607012
 21
584.93908616188583
  0
LINE
  8
_0-1_計細線
  6
CONTINUOUS
 62
    3
 10
1112.9337497607012
 20
584.93908616188583
 11
1112.9337497607012
 21
778.93908616188583
  0
LINE
  8
_0-1_計細線
  6
CONTINUOUS
 62
    3
 10
1134.9337497607007
 20
778.93908616188583
 11
1134.9337497607007
 21
584.93908616188583
  0
LINE
  8
_0-1_計細線
  6
CONTINUOUS
 62
    3
 10
1126.9337497607007
 20
584.93908616188583
 11
1126.9337497607007
 21
778.93908616188583
  0
LINE
  8
_0-1_計細線
  6
CONTINUOUS
 62
    3
 10
1148.9337497607007
 20
778.93908616188583
 11
1148.9337497607007
 21
584.93908616188583
  0
LINE
  8
_0-1_計細線
  6
CONTINUOUS
 62
    3
 10
1140.9337497607007
 20
584.93908616188583
 11
1140.9337497607007
 21
778.93908616188583
  0
LINE
  8
_0-1_計細線
  6
CONTINUOUS
 62
    3
 10
1162.9337497607007
 20
778.93908616188583
 11
1162.9337497607007
 21
584.93908616188583
  0
LINE
  8
_0-1_計細線
  6
CONTINUOUS
 62
    3
 10
1154.9337497607007
 20
584.93908616188583
 11
1154.9337497607007
 21
778.93908616188583
  0
LINE
  8
_0-1_計細線
  6
CONTINUOUS
 62
    3
 10
1176.9337497607007
 20
778.93908616188583
 11
1176.9337497607007
 21
584.93908616188583
  0
LINE
  8
_0-1_計細線
  6
CONTINUOUS
 62
    3
 10
1168.9337497607007
 20
584.93908616188583
 11
1168.9337497607007
 21
778.93908616188583
  0
LINE
  8
_0-1_計細線
  6
CONTINUOUS
 62
    3
 10
1190.9337497607007
 20
778.93908616188583
 11
1190.9337497607007
 21
584.93908616188583
  0
LINE
  8
_0-1_計細線
  6
CONTINUOUS
 62
    3
 10
1182.9337497607007
 20
584.93908616188583
 11
1182.9337497607007
 21
778.93908616188583
  0
LINE
  8
_0-1_計細線
  6
CONTINUOUS
 62
    3
 10
1204.9337497607007
 20
778.93908616188583
 11
1204.9337497607007
 21
584.93908616188583
  0
LINE
  8
_0-1_計細線
  6
CONTINUOUS
 62
    3
 10
1196.9337497607007
 20
584.93908616188583
 11
1196.9337497607007
 21
778.93908616188583
  0
LINE
  8
_0-1_計細線
  6
CONTINUOUS
 62
    3
 10
1218.9337497607007
 20
778.93908616188583
 11
1218.9337497607007
 21
584.93908616188583
  0
LINE
  8
_0-1_計細線
  6
CONTINUOUS
 62
    3
 10
1210.9337497607007
 20
584.93908616188583
 11
1210.9337497607007
 21
778.93908616188583
  0
LINE
  8
_0-5_寸法線
  6
CONTINUOUS
 62
    7
 10
779.66677902452557
 20
621.29578965970074
 11
784.66677902452557
 21
612.63553562185632
  0
LINE
  8
_0-5_寸法線
  6
CONTINUOUS
 62
    7
 10
779.66677902452557
 20
621.29578965970074
 11
779.66677902452557
 21
611.29578965970074
  0
LINE
  8
_0-5_寸法線
  6
CONTINUOUS
 62
    7
 10
779.66677902452557
 20
621.29578965970074
 11
803.02426214457967
 21
534.12447591872603
  0
LINE
  8
_0-5_寸法線
  6
CONTINUOUS
 62
    7
 10
803.02426214457967
 20
534.12447591872603
 11
937.46327435969965
 21
534.12447591872603
  0
TEXT
  8
_0-5_寸法線
 62
    7
 10
805.46327435969943
 20
534.12447591872603
 40
15
 41
0.8000000000000001
 50
0
  1
ステンレスグレーチング
  0
TEXT
  8
_0-5_寸法線
 62
    7
 10
575.70543558092822
 20
519.12447591872603
 40
15
 41
0.8000000000000001
 50
0
  1
ＧＳＬ－２０
  0
TEXT
  8
_0-5_寸法線
 62
    7
 10
803.02426214457967
 20
519.12447591872603
 40
15
 41
0.8000000000000001
 50
0
  1
ＧＳＴＪ－２０Ｗ２００
  0
TEXT
  8
_0-7_枠細線
 62
    5
 10
965.50000000000011
 20
110
 40
20
 41
0.6
 50
0
  1
ＧＳＴＪ－２０Ｗ２００
  0
TEXT
  8
_0-7_枠細線
 62
    5
 10
965.49999999999966
 20
70
 40
20.000000000000004
 41
0.5999999999999997
 50
0
  1
表面形状については記号表参照のこと
  0
LINE
  8
_0-7_枠細線
  6
CONTINUOUS
 62
    5
 10
1409.4018171150183
 20
328.47321710336223
 11
1409.4018171150183
 21
223.47321710336274
  0
TEXT
  8
_0-7_枠細線
 62
    5
 10
1318.4018171150192
 20
308.47321710336223
 40
15.000000000000002
 41
0.8
 50
0
  1
ノンスリップ
  0
TEXT
  8
_0-7_枠細線
 62
    5
 10
1330.4018171150185
 20
283.47321710336234
 40
15.000000000000002
 41
0.8
 50
0
  1
品番－Ｄ
  0
LINE
  8
_0-7_枠細線
  6
CONTINUOUS
 62
    5
 10
1299.4018171150176
 20
328.47321710336223
 11
1299.4018171150176
 21
223.47321710336274
  0
TEXT
  8
_0-7_枠細線
 62
    5
 10
1220.4018171150176
 20
308.47321710336234
 40
15.000000000000002
 41
0.8
 50
0
  1
プレーン
  0
TEXT
  8
_0-7_枠細線
 62
    5
 10
1220.4018171150183
 20
283.47321710336234
 40
15.000000000000002
 41
0.8
 50
0
  1
品番－Ｆ
  0
TEXT
  8
_0-7_枠細線
 62
    5
 10
1140.4018171150178
 20
308.47321710336223
 40
15.000000000000002
 41
0.8
 50
0
  1
タ イ プ
  0
LINE
  8
_0-7_枠細線
  6
CONTINUOUS
 62
    5
 10
1139.4018171150171
 20
278.47321710336234
 11
1409.4018171150183
 21
278.47321710336234
  0
LINE
  8
_0-7_枠細線
  6
CONTINUOUS
 62
    5
 10
1139.4018171150171
 20
303.47321710336223
 11
1409.4018171150183
 21
303.47321710336223
  0
LINE
  8
_0-7_枠細線
  6
CONTINUOUS
 62
    5
 10
1139.4018171150171
 20
328.47321710336223
 11
1409.4018171150183
 21
328.47321710336223
  0
LINE
  8
_0-7_枠細線
  6
CONTINUOUS
 62
    5
 10
1139.4018171150171
 20
223.47321710336274
 11
1409.4018171150183
 21
223.47321710336274
  0
LINE
  8
_0-7_枠細線
  6
CONTINUOUS
 62
    5
 10
1189.401817115018
 20
328.47321710336223
 11
1189.401817115018
 21
223.47321710336274
  0
LINE
  8
_0-7_枠細線
  6
CONTINUOUS
 62
    5
 10
1139.4018171150171
 20
328.47321710336223
 11
1139.4018171150171
 21
223.47321710336274
  0
TEXT
  8
_0-7_枠細線
 62
    5
 10
1140.4018171150178
 20
243.47321710336257
 40
15.000000000000002
 41
0.8
 50
0
  1
表面形状
  0
TEXT
  8
_0-7_枠細線
 62
    5
 10
1147.1760284558284
 20
330.9732171033624
 40
17.500000000000004
 41
0.7999999999999996
 50
0
  1
記号表
  0
TEXT
  8
_0-7_枠細線
 62
    5
 10
1140.4018171150178
 20
283.47321710336246
 40
15.000000000000002
 41
0.8
 50
0
  1
記　　号
  0
ARC
  8
_0-7_枠細線
  6
CONTINUOUS
 62
    5
 10
1282.9664605906701
 20
242.85777402966897
 40
12.026499332130607
 50
317.5616290000047
 51
42.438370999994966
  0
ARC
  8
_0-7_枠細線
  6
CONTINUOUS
 62
    5
 10
1300.7176602555626
 20
259.08866002804609
 40
12.026499332130607
 50
137.56162900000001
 51
222.43837100000297
  0
ARC
  8
_0-7_枠細線
  6
CONTINUOUS
 62
    5
 10
1188.0859738141414
 20
242.85777402966897
 40
12.026499332130607
 50
317.5616290000047
 51
42.438370999994966
  0
ARC
  8
_0-7_枠細線
  6
CONTINUOUS
 62
    5
 10
1205.8371734790339
 20
259.08866002804609
 40
12.026499332130607
 50
137.56162900000001
 51
222.43837100000297
  0
LINE
  8
_0-7_枠細線
  6
CONTINUOUS
 62
    5
 10
1194.4553061852555
 20
262.97321702885733
 11
1289.3357929617841
 21
262.97321702885733
  0
LINE
  8
_0-7_枠細線
  6
CONTINUOUS
 62
    5
 10
1294.3483278844483
 20
238.97321702885733
 11
1199.4678411079199
 21
238.97321702885733
  0
ARC
  8
_0-7_枠細線
  6
CONTINUOUS
 62
    5
 10
1392.9664605906705
 20
242.85777402966897
 40
12.026499332130607
 50
317.5616290000047
 51
42.438370999994966
  0
ARC
  8
_0-7_枠細線
  6
CONTINUOUS
 62
    5
 10
1410.7176602555633
 20
259.08866002804609
 40
12.026499332130607
 50
137.56162900000001
 51
222.43837100000297
  0
ARC
  8
_0-7_枠細線
  6
CONTINUOUS
 62
    5
 10
1298.0859738141419
 20
242.85777402966897
 40
12.026499332130607
 50
317.5616290000047
 51
42.438370999994966
  0
ARC
  8
_0-7_枠細線
  6
CONTINUOUS
 62
    5
 10
1315.8371734790344
 20
259.08866002804609
 40
12.026499332130607
 50
137.56162900000001
 51
222.43837100000297
  0
LINE
  8
_0-7_枠細線
  6
CONTINUOUS
 62
    5
 10
1304.4553061852559
 20
262.97321702885733
 11
1399.3357929617844
 21
262.97321702885733
  0
LINE
  8
_0-7_枠細線
  6
CONTINUOUS
 62
    5
 10
1404.3483278844487
 20
238.97321702885733
 11
1309.4678411079203
 21
238.97321702885733
  0
LINE
  8
_0-7_枠細線
  6
CONTINUOUS
 62
    5
 10
1310.0055655050664
 20
244.4577803132122
 11
1315.4901287894211
 21
238.9732170288575
  0
LINE
  8
_0-7_枠細線
  6
CONTINUOUS
 62
    5
 10
1304.3960893257236
 20
262.79517855391305
 11
1328.218050850779
 21
238.97321702885748
  0
LINE
  8
_0-7_枠細線
  6
CONTINUOUS
 62
    5
 10
1316.9459729121368
 20
262.97321702885745
 11
1340.9459729121365
 21
238.97321702885748
  0
LINE
  8
_0-7_枠細線
  6
CONTINUOUS
 62
    5
 10
1329.6738949734945
 20
262.97321702885745
 11
1353.6738949734943
 21
238.97321702885748
  0
LINE
  8
_0-7_枠細線
  6
CONTINUOUS
 62
    5
 10
1342.4018170348522
 20
262.97321702885745
 11
1366.4018170348522
 21
238.97321702885745
  0
LINE
  8
_0-7_枠細線
  6
CONTINUOUS
 62
    5
 10
1355.12973909621
 20
262.97321702885733
 11
1379.1297390962097
 21
238.97321702885739
  0
LINE
  8
_0-7_枠細線
  6
CONTINUOUS
 62
    5
 10
1367.8576611575679
 20
262.97321702885733
 11
1391.8576611575677
 21
238.97321702885739
  0
LINE
  8
_0-7_枠細線
  6
CONTINUOUS
 62
    5
 10
1380.5855832189259
 20
262.97321702885733
 11
1404.4075447439811
 21
239.15125550380145
  0
LINE
  8
_0-7_枠細線
  6
CONTINUOUS
 62
    5
 10
1393.3135052802834
 20
262.97321702885733
 11
1398.7980685646385
 21
257.48865374450202
  0
LINE
  8
_0-7_枠細線
  6
CONTINUOUS
 62
    5
 10
1393.3135052802841
 20
238.97321702885739
 11
1403.3188705607758
 21
248.97858230934932
  0
LINE
  8
_0-7_枠細線
  6
CONTINUOUS
 62
    5
 10
1380.5855832189261
 20
238.97321702885739
 11
1398.8365633238177
 21
257.22419713374904
  0
LINE
  8
_0-7_枠細線
  6
CONTINUOUS
 62
    5
 10
1367.8576611575681
 20
238.97321702885745
 11
1391.8576611575681
 21
262.97321702885733
  0
LINE
  8
_0-7_枠細線
  6
CONTINUOUS
 62
    5
 10
1355.1297390962104
 20
238.97321702885748
 11
1379.1297390962106
 21
262.97321702885733
  0
LINE
  8
_0-7_枠細線
  6
CONTINUOUS
 62
    5
 10
1342.4018170348527
 20
238.97321702885748
 11
1366.4018170348525
 21
262.97321702885733
  0
LINE
  8
_0-7_枠細線
  6
CONTINUOUS
 62
    5
 10
1329.6738949734947
 20
238.97321702885748
 11
1353.6738949734947
 21
262.97321702885733
  0
LINE
  8
_0-7_枠細線
  6
CONTINUOUS
 62
    5
 10
1316.9459729121372
 20
238.9732170288575
 11
1340.9459729121372
 21
262.97321702885745
  0
LINE
  8
_0-7_枠細線
  6
CONTINUOUS
 62
    5
 10
1309.9670707458872
 20
244.72223692396568
 11
1328.218050850779
 21
262.97321702885745
  0
LINE
  8
_0-7_枠細線
  6
CONTINUOUS
 62
    5
 10
1305.4847635089295
 20
252.96785174836555
 11
1315.4901287894213
 21
262.97321702885745
  0
LINE
  8
_0-9_枠極太
  6
CONTINUOUS
 62
    5
 10
60
 20
60
 11
60
 21
960
  0
LINE
  8
_0-9_枠極太
  6
CONTINUOUS
 62
    5
 10
60
 20
960
 11
1425
 21
960
  0
LINE
  8
_0-9_枠極太
  6
CONTINUOUS
 62
    5
 10
1425
 20
960
 11
1425
 21
60
  0
LINE
  8
_0-9_枠極太
  6
CONTINUOUS
 62
    5
 10
1425
 20
60
 11
60
 21
60
  0
LINE
  8
_0-5_寸法線
  6
CONTINUOUS
 62
    7
 10
190.93374976070243
 20
576.93908616188867
 11
145.93374976070146
 21
576.93908616188878
  0
LINE
  8
_0-5_寸法線
  6
CONTINUOUS
 62
    7
 10
150.93374976070146
 20
576.93908616188878
 11
148.34555930967625
 21
586.5983444247795
  0
LINE
  8
_0-5_寸法線
  6
CONTINUOUS
 62
    7
 10
150.93374976070146
 20
576.93908616188878
 11
153.52194021172664
 21
586.5983444247795
  0
LINE
  8
_0-5_寸法線
  6
CONTINUOUS
 62
    7
 10
190.93374976070243
 20
606.93908616188912
 11
145.93374976070146
 21
606.93908616188924
  0
LINE
  8
_0-5_寸法線
  6
CONTINUOUS
 62
    7
 10
150.93374976070146
 20
606.93908616188924
 11
153.52194021172664
 21
597.27982789899852
  0
LINE
  8
_0-5_寸法線
  6
CONTINUOUS
 62
    7
 10
150.93374976070146
 20
606.93908616188924
 11
148.34555930967625
 21
597.27982789899852
  0
LINE
  8
_0-5_寸法線
  6
CONTINUOUS
 62
    7
 10
150.93374976070146
 20
576.93908616188878
 11
150.93374976070146
 21
606.93908616188924
  0
TEXT
  8
_0-5_寸法線
 62
    7
 10
150.93374976070146
 20
584.4390861618856
 40
15
 41
1
 50
90
  1
30
  0
LINE
  8
_0-5_寸法線
  6
CONTINUOUS
 62
    7
 10
150.93374976070146
 20
606.93908616188924
 11
148.34555930967625
 21
616.59834442477995
  0
LINE
  8
_0-5_寸法線
  6
CONTINUOUS
 62
    7
 10
150.93374976070146
 20
606.93908616188924
 11
153.52194021172664
 21
616.59834442477995
  0
LINE
  8
_0-5_寸法線
  6
CONTINUOUS
 62
    7
 10
190.93374976070152
 20
756.93908616188435
 11
145.93374976070146
 21
756.93908616188446
  0
LINE
  8
_0-5_寸法線
  6
CONTINUOUS
 62
    7
 10
150.93374976070146
 20
756.93908616188446
 11
153.52194021172664
 21
747.27982789899374
  0
LINE
  8
_0-5_寸法線
  6
CONTINUOUS
 62
    7
 10
150.93374976070146
 20
756.93908616188446
 11
148.34555930967625
 21
747.27982789899374
  0
LINE
  8
_0-5_寸法線
  6
CONTINUOUS
 62
    7
 10
150.93374976070146
 20
606.93908616188924
 11
150.93374976070146
 21
756.93908616188446
  0
TEXT
  8
_0-5_寸法線
 62
    7
 10
150.93374976070146
 20
670.6890861618856
 40
15
 41
1
 50
89.999999999999815
  1
150
  0
LINE
  8
_0-5_寸法線
  6
CONTINUOUS
 62
    7
 10
150.93374976070146
 20
756.93908616188446
 11
148.34555930967625
 21
766.59834442477518
  0
LINE
  8
_0-5_寸法線
  6
CONTINUOUS
 62
    7
 10
150.93374976070146
 20
756.93908616188446
 11
153.52194021172664
 21
766.59834442477518
  0
LINE
  8
_0-5_寸法線
  6
CONTINUOUS
 62
    7
 10
190.93374976070265
 20
786.93908616188901
 11
145.93374976070146
 21
786.93908616188924
  0
LINE
  8
_0-5_寸法線
  6
CONTINUOUS
 62
    7
 10
150.93374976070146
 20
786.93908616188924
 11
153.52194021172664
 21
777.27982789899841
  0
LINE
  8
_0-5_寸法線
  6
CONTINUOUS
 62
    7
 10
150.93374976070146
 20
786.93908616188924
 11
148.34555930967625
 21
777.27982789899841
  0
LINE
  8
_0-5_寸法線
  6
CONTINUOUS
 62
    7
 10
150.93374976070146
 20
756.93908616188446
 11
150.93374976070146
 21
786.93908616188924
  0
TEXT
  8
_0-5_寸法線
 62
    7
 10
150.93374976070146
 20
764.4390861618856
 40
15
 41
1
 50
90
  1
30
  0
LINE
  8
_0-5_寸法線
  6
CONTINUOUS
 62
    7
 10
1258.9337497607012
 20
576.93908616188571
 11
1338.9337497607012
 21
576.93908616188537
  0
LINE
  8
_0-5_寸法線
  6
CONTINUOUS
 62
    7
 10
1333.9337497607012
 20
576.93908616188537
 11
1331.345559309676
 21
586.59834442477609
  0
LINE
  8
_0-5_寸法線
  6
CONTINUOUS
 62
    7
 10
1333.9337497607012
 20
576.93908616188537
 11
1336.5219402117261
 21
586.59834442477609
  0
LINE
  8
_0-5_寸法線
  6
CONTINUOUS
 62
    7
 10
1258.9337497607007
 20
786.93908616188583
 11
1338.9337497607012
 21
786.93908616188537
  0
LINE
  8
_0-5_寸法線
  6
CONTINUOUS
 62
    7
 10
1333.9337497607012
 20
786.93908616188537
 11
1336.5219402117261
 21
777.27982789899465
  0
LINE
  8
_0-5_寸法線
  6
CONTINUOUS
 62
    7
 10
1333.9337497607012
 20
786.93908616188537
 11
1331.345559309676
 21
777.27982789899465
  0
LINE
  8
_0-5_寸法線
  6
CONTINUOUS
 62
    7
 10
1333.9337497607012
 20
576.93908616188537
 11
1333.9337497607012
 21
786.93908616188537
  0
TEXT
  8
_0-5_寸法線
 62
    7
 10
1333.9337497607012
 20
670.68908616188514
 40
15
 41
1
 50
90
  1
210
  0
LINE
  8
_0-a_極細3
  6
CONTINUOUS
 62
    7
 10
649.26399310350587
 20
251.56810602460041
 11
645.4306597701725
 21
251.56810602460041
  0
LINE
  8
_0-a_極細3
  6
CONTINUOUS
 62
    7
 10
649.26399310350587
 20
254.9014393579339
 11
645.4306597701725
 21
254.9014393579339
  0
LINE
  8
_0-a_極細3
  6
CONTINUOUS
 62
    7
 10
649.26399310350587
 20
248.23477269126715
 11
645.4306597701725
 21
248.23477269126715
  0
LINE
  8
_0-a_極細3
  6
CONTINUOUS
 62
    7
 10
649.26399310350587
 20
258.23477269126715
 11
645.4306597701725
 21
258.23477269126715
  0
LINE
  8
_0-a_極細3
  6
CONTINUOUS
 62
    7
 10
645.4306597701725
 20
224.9014393579339
 11
649.26399310350587
 21
224.9014393579339
  0
LINE
  8
_0-a_極細3
  6
CONTINUOUS
 62
    7
 10
649.26399310350587
 20
274.9014393579339
 11
645.4306597701725
 21
274.9014393579339
  0
LINE
  8
_0-b_細線3
  6
CONTINUOUS
 62
    7
 10
645.4306597701725
 20
278.23477269126715
 11
645.4306597701725
 21
219.9014393579339
  0
LINE
  8
_0-b_細線3
  6
CONTINUOUS
 62
    7
 10
645.4306597701725
 20
219.9014393579339
 11
649.26399310350587
 21
219.9014393579339
  0
LINE
  8
_0-b_細線3
  6
CONTINUOUS
 62
    7
 10
649.26399310350587
 20
219.9014393579339
 11
649.26399310350587
 21
278.23477269126715
  0
LINE
  8
_0-b_細線3
  6
CONTINUOUS
 62
    7
 10
649.26399310350587
 20
278.23477269126715
 11
645.4306597701725
 21
278.23477269126715
  0
LINE
  8
_0-7_枠細線
  6
CONTINUOUS
 62
    5
 10
668.34986119674545
 20
255.9635226874212
 11
660.84986119674545
 21
270.96352268742118
  0
LINE
  8
_0-7_枠細線
  6
CONTINUOUS
 62
    5
 10
653.34986119674545
 20
255.9635226874212
 11
668.34986119674545
 21
255.9635226874212
  0
LINE
  8
_0-7_枠細線
  6
CONTINUOUS
 62
    5
 10
660.84986119674545
 20
270.96352268742118
 11
653.34986119674545
 21
255.9635226874212
  0
TEXT
  8
_0-7_枠細線
 62
    5
 10
655.71501246489345
 20
255.65652044204063
 40
12.5
 41
0.8
 50
0
  1
１
  0
LINE
  8
_0-a_極細3
  6
CONTINUOUS
 62
    7
 10
291.5973264368381
 20
251.56810602460041
 11
295.43065977017147
 21
251.56810602460041
  0
LINE
  8
_0-a_極細3
  6
CONTINUOUS
 62
    7
 10
291.5973264368381
 20
254.9014393579339
 11
295.43065977017147
 21
254.9014393579339
  0
LINE
  8
_0-a_極細3
  6
CONTINUOUS
 62
    7
 10
291.5973264368381
 20
248.23477269126715
 11
295.43065977017147
 21
248.23477269126715
  0
LINE
  8
_0-a_極細3
  6
CONTINUOUS
 62
    7
 10
291.5973264368381
 20
258.23477269126715
 11
295.43065977017147
 21
258.23477269126715
  0
LINE
  8
_0-a_極細3
  6
CONTINUOUS
 62
    7
 10
295.43065977017147
 20
224.9014393579339
 11
291.5973264368381
 21
224.9014393579339
  0
LINE
  8
_0-a_極細3
  6
CONTINUOUS
 62
    7
 10
291.5973264368381
 20
274.9014393579339
 11
295.43065977017147
 21
274.9014393579339
  0
LINE
  8
_0-b_細線3
  6
CONTINUOUS
 62
    7
 10
295.43065977017147
 20
278.23477269126715
 11
295.43065977017147
 21
219.9014393579339
  0
LINE
  8
_0-b_細線3
  6
CONTINUOUS
 62
    7
 10
295.43065977017147
 20
219.9014393579339
 11
291.5973264368381
 21
219.9014393579339
  0
LINE
  8
_0-b_細線3
  6
CONTINUOUS
 62
    7
 10
291.5973264368381
 20
219.9014393579339
 11
291.5973264368381
 21
278.23477269126715
  0
LINE
  8
_0-b_細線3
  6
CONTINUOUS
 62
    7
 10
291.5973264368381
 20
278.23477269126715
 11
295.43065977017147
 21
278.23477269126715
  0
LINE
  8
_0-7_枠細線
  6
CONTINUOUS
 62
    5
 10
1425
 20
907.5
 11
890
 21
907.5
  0
LINE
  8
_0-7_枠細線
  6
CONTINUOUS
 62
    5
 10
915
 20
908.94233397174708
 11
907.5
 21
923.94233397174708
  0
LINE
  8
_0-7_枠細線
  6
CONTINUOUS
 62
    5
 10
900
 20
908.94233397174708
 11
915
 21
908.94233397174708
  0
LINE
  8
_0-7_枠細線
  6
CONTINUOUS
 62
    5
 10
907.5
 20
923.94233397174708
 11
900
 21
908.94233397174708
  0
TEXT
  8
_0-7_枠細線
 62
    5
 10
902.36515126814822
 20
908.63533172636653
 40
12.5
 41
0.8
 50
0
  1
１
  0
TEXT
  8
_0-7_枠細線
 62
    5
 10
1180
 20
910
 40
12.5
 41
0.7199999999999999
 50
0
  1
２０１９．０９．０１
  0
TEXT
  8
_0-7_枠細線
 62
    5
 10
938.85037037037023
 20
910
 40
12.500000000000002
 41
1
 50
0
  1
アンカー材質･厚み変更
  0
LINE
  8
_0-7_枠細線
  6
CONTINUOUS
 62
    5
 10
890
 20
907.5
 11
890
 21
959.99999999999909
  0
LINE
  8
_0-7_枠細線
  6
CONTINUOUS
 62
    5
 10
925
 20
907.5
 11
925
 21
959.99999999999943
  0
LINE
  8
_0-7_枠細線
  6
CONTINUOUS
 62
    5
 10
1175
 20
907.5
 11
1175
 21
959.99999999999943
  0
LINE
  8
_0-7_枠細線
  6
CONTINUOUS
 62
    5
 10
1275
 20
907.5
 11
1275
 21
959.99999999999943
  0
LINE
  8
_0-0_計極細
  6
CENTER2
 62
    2
 10
1248.9337497607
 20
681.93908616188662
 11
200.93374976070044
 21
681.93908616188662
  0
LINE
  8
_0-5_寸法線
  6
CONTINUOUS
 62
    7
 10
1258.9337497607012
 20
576.93908616188571
 11
1303.9337497607012
 21
576.9390861618856
  0
LINE
  8
_0-5_寸法線
  6
CONTINUOUS
 62
    7
 10
1298.9337497607012
 20
576.9390861618856
 11
1301.5219402117261
 21
567.27982789899488
  0
LINE
  8
_0-5_寸法線
  6
CONTINUOUS
 62
    7
 10
1298.9337497607012
 20
576.9390861618856
 11
1296.345559309676
 21
567.27982789899488
  0
LINE
  8
_0-5_寸法線
  6
CONTINUOUS
 62
    7
 10
1258.9337497607012
 20
579.93908616188639
 11
1303.9337497607012
 21
579.93908616188628
  0
CIRCLE
  8
_0-5_寸法線
  6
CONTINUOUS
 62
    1
 10
1298.9337497607012
 20
579.93908616188628
 40
1.5000000000000002
  0
LINE
  8
_0-5_寸法線
  6
CONTINUOUS
 62
    7
 10
1298.9337497607012
 20
551.9390861618856
 11
1298.9337497607012
 21
579.93908616188628
  0
TEXT
  8
_0-5_寸法線
 62
    7
 10
1298.9337497607012
 20
556.73720680373594
 40
15
 41
1
 50
90
  1
3
  0
LINE
  8
_0-5_寸法線
  6
CONTINUOUS
 62
    7
 10
1258.9337497607012
 20
581.93908616188583
 11
1303.9337497607012
 21
581.93908616188571
  0
LINE
  8
_0-5_寸法線
  6
CONTINUOUS
 62
    7
 10
1298.9337497607012
 20
579.93908616188628
 11
1298.9337497607012
 21
581.93908616188571
  0
TEXT
  8
_0-5_寸法線
 62
    7
 10
1317.6079410982748
 20
579.93908616188628
 40
15
 41
1
 50
90
  1
2
  0
LINE
  8
_0-5_寸法線
  6
CONTINUOUS
 62
    7
 10
1298.9337497607012
 20
581.93908616188571
 11
1296.345559309676
 21
591.59834442477643
  0
LINE
  8
_0-5_寸法線
  6
CONTINUOUS
 62
    7
 10
1298.9337497607012
 20
581.93908616188571
 11
1301.5219402117261
 21
591.59834442477643
  0
LINE
  8
_0-5_寸法線
  6
CONTINUOUS
 62
    7
 10
1258.9337497607012
 20
781.93908616188583
 11
1303.9337497607012
 21
781.9390861618856
  0
LINE
  8
_0-5_寸法線
  6
CONTINUOUS
 62
    7
 10
1298.9337497607012
 20
781.9390861618856
 11
1301.5219402117261
 21
772.27982789899499
  0
LINE
  8
_0-5_寸法線
  6
CONTINUOUS
 62
    7
 10
1298.9337497607012
 20
781.9390861618856
 11
1296.345559309676
 21
772.27982789899499
  0
LINE
  8
_0-5_寸法線
  6
CONTINUOUS
 62
    7
 10
1298.9337497607012
 20
581.93908616188571
 11
1298.9337497607012
 21
781.9390861618856
  0
TEXT
  8
_0-5_寸法線
 62
    7
 10
1298.9337497607012
 20
670.68908616188583
 40
15
 41
1
 50
90
  1
200
  0
LINE
  8
_0-5_寸法線
  6
CONTINUOUS
 62
    7
 10
1258.9337497607012
 20
783.93908616188583
 11
1303.9337497607012
 21
783.93908616188571
  0
CIRCLE
  8
_0-5_寸法線
  6
CONTINUOUS
 62
    1
 10
1298.9337497607012
 20
783.93908616188571
 40
1.5000000000000002
  0
LINE
  8
_0-5_寸法線
  6
CONTINUOUS
 62
    7
 10
1298.9337497607012
 20
781.9390861618856
 11
1298.9337497607012
 21
783.93908616188571
  0
TEXT
  8
_0-5_寸法線
 62
    7
 10
1317.6079410982752
 20
776.43908616188583
 40
15
 41
1
 50
90
  1
2
  0
LINE
  8
_0-5_寸法線
  6
CONTINUOUS
 62
    7
 10
1258.9337497607023
 20
786.93908616188821
 11
1303.9337497607012
 21
786.93908616188821
  0
LINE
  8
_0-5_寸法線
  6
CONTINUOUS
 62
    7
 10
1298.9337497607012
 20
786.93908616188821
 11
1296.345559309676
 21
796.59834442477882
  0
LINE
  8
_0-5_寸法線
  6
CONTINUOUS
 62
    7
 10
1298.9337497607012
 20
786.93908616188821
 11
1301.5219402117261
 21
796.59834442477882
  0
LINE
  8
_0-5_寸法線
  6
CONTINUOUS
 62
    7
 10
1298.9337497607012
 20
783.93908616188571
 11
1298.9337497607012
 21
811.93908616188821
  0
TEXT
  8
_0-5_寸法線
 62
    7
 10
1298.9337497607012
 20
800.52847139648577
 40
15
 41
1
 50
90
  1
3
  0
LINE
  8
_0-d_寸法3
  6
CONTINUOUS
 62
    7
 10
295.4306597701725
 20
381.56810602460041
 11
285.77140150728167
 21
378.97991557357523
  0
LINE
  8
_0-d_寸法3
  6
CONTINUOUS
 62
    7
 10
295.4306597701725
 20
381.56810602460041
 11
285.77140150728184
 21
384.15629647562571
  0
LINE
  8
_0-d_寸法3
  6
CONTINUOUS
 62
    7
 10
300.43065977017199
 20
300.73477269126693
 11
300.4306597701725
 21
386.56810602460041
  0
CIRCLE
  8
_0-d_寸法3
  6
CONTINUOUS
 62
    1
 10
300.4306597701725
 20
381.56810602460041
 40
1.5000000000000002
  0
LINE
  8
_0-d_寸法3
  6
CONTINUOUS
 62
    7
 10
270.4306597701725
 20
381.56810602460041
 11
300.4306597701725
 21
381.56810602460041
  0
TEXT
  8
_0-d_寸法3
 62
    7
 10
272.8996918337586
 20
381.56810602460041
 40
15
 41
1
 50
0
  1
3
  0
LINE
  8
_0-d_寸法3
  6
CONTINUOUS
 62
    7
 10
303.76399310350507
 20
298.23477102292259
 11
303.76399310350553
 21
386.56810602460041
  0
LINE
  8
_0-d_寸法3
  6
CONTINUOUS
 62
    7
 10
300.4306597701725
 20
381.56810602460041
 11
303.76399310350553
 21
381.56810602460041
  0
TEXT
  8
_0-d_寸法3
 62
    7
 10
298.3473264368385
 20
381.56810602460041
 40
15
 41
1
 50
0
  1
2
  0
LINE
  8
_0-d_寸法3
  6
CONTINUOUS
 62
    7
 10
303.76399310350553
 20
381.56810602460041
 11
313.42325136639613
 21
384.1562964756256
  0
LINE
  8
_0-d_寸法3
  6
CONTINUOUS
 62
    7
 10
303.76399310350553
 20
381.56810602460041
 11
313.42325136639613
 21
378.97991557357523
  0
LINE
  8
_0-d_寸法3
  6
CONTINUOUS
 62
    7
 10
637.09732643683901
 20
298.23477102292259
 11
637.09732643683901
 21
386.56810602460041
  0
LINE
  8
_0-d_寸法3
  6
CONTINUOUS
 62
    7
 10
637.09732643683901
 20
381.56810602460041
 11
627.4380681739483
 21
378.97991557357523
  0
LINE
  8
_0-d_寸法3
  6
CONTINUOUS
 62
    7
 10
637.09732643683901
 20
381.56810602460041
 11
627.4380681739483
 21
384.15629647562571
  0
LINE
  8
_0-d_寸法3
  6
CONTINUOUS
 62
    7
 10
303.76399310350553
 20
381.56810602460041
 11
637.09732643683901
 21
381.56810602460041
  0
TEXT
  8
_0-d_寸法3
 62
    7
 10
459.18065977017199
 20
381.56810602460041
 40
15
 41
1
 50
0
  1
200
  0
LINE
  8
_0-d_寸法3
  6
CONTINUOUS
 62
    7
 10
640.43065977017204
 20
300.73477269126693
 11
640.43065977017204
 21
386.56810602460041
  0
CIRCLE
  8
_0-d_寸法3
  6
CONTINUOUS
 62
    1
 10
640.43065977017204
 20
381.56810602460041
 40
1.5000000000000002
  0
LINE
  8
_0-d_寸法3
  6
CONTINUOUS
 62
    7
 10
637.09732643683901
 20
381.56810602460041
 11
640.43065977017204
 21
381.56810602460041
  0
TEXT
  8
_0-d_寸法3
 62
    7
 10
635.01399310350507
 20
381.56810602460041
 40
15
 41
1
 50
0
  1
2
  0
LINE
  8
_0-d_寸法3
  6
CONTINUOUS
 62
    7
 10
645.43065977017204
 20
381.56810602460041
 11
655.08991803306276
 21
384.15629647562554
  0
LINE
  8
_0-d_寸法3
  6
CONTINUOUS
 62
    7
 10
645.43065977017204
 20
381.56810602460041
 11
655.08991803306276
 21
378.97991557357523
  0
LINE
  8
_0-d_寸法3
  6
CONTINUOUS
 62
    7
 10
640.43065977017204
 20
381.56810602460041
 11
670.43065977017204
 21
381.56810602460041
  0
TEXT
  8
_0-d_寸法3
 62
    7
 10
659.68752769445689
 20
381.56810602460041
 40
15
 41
1
 50
0
  1
3
  0
ENDSEC
  0
EOF
