  0
SECTION
  2
HEADER
  9
$ACADVER
  1
AC1009
  9
$INSBASE
 10
0
 20
0
 30
0
  9
$EXTMIN
 10
0
 20
0
  9
$EXTMAX
 10
1485
 20
1050
  9
$LIMMIN
 10
0
 20
0
  9
$LIMMAX
 10
1485
 20
1050
  9
$LTSCALE
 40
5
  0
ENDSEC
  0
SECTION
  2
TABLES
  0
TABLE
  2
LTYPE
 70
     9
  0
LTYPE
  2
CONTINUOUS
 70
    64
  3
実線
 72
    65
 73
     0
 40
0.0
  0
LTYPE
  2
DASHED1
 70
    64
  3
--  --  --  --  --  --  --  --  
 72
    65
 73
     2
 40
2.5
 49
1.25
 49
-1.25
  0
LTYPE
  2
DASHED2
 70
    64
  3
----    ----    ----    ----    
 72
    65
 73
     2
 40
5.0
 49
2.5
 49
-2.5
  0
LTYPE
  2
DASHED3
 70
    64
  3
------  ------  ------  ------  
 72
    65
 73
     2
 40
5.0
 49
3.75
 49
-1.25
  0
LTYPE
  2
CENTER1
 70
    64
  3
----- - ----- - ----- - ----- - 
 72
    65
 73
     4
 40
10.0
 49
6.25
 49
-1.25
 49
1.25
 49
-1.25
  0
LTYPE
  2
CENTER2
 70
    64
  3
----------  --  ----------  --  
 72
    65
 73
     4
 40
20.0
 49
12.5
 49
-2.5
 49
2.5
 49
-2.5
  0
LTYPE
  2
PHANTOM1
 70
    64
  3
--- - - --- - - --- - - --- - - 
 72
    65
 73
     6
 40
10.0
 49
3.25
 49
-1.25
 49
1.25
 49
-1.25
 49
1.25
 49
-1.25
  0
LTYPE
  2
PHANTOM2
 70
    64
  3
--------  -  -  --------  -  -  
 72
    65
 73
     6
 40
20.0
 49
10.0
 49
-2.5
 49
1.25
 49
-2.5
 49
1.25
 49
-2.5
  0
LTYPE
  2
DOT
 70
    64
  3
-   -   -   -   -   -   -   -   
 72
    65
 73
     2
 40
2.5
 49
0.625
 49
-1.875
  0
LTYPE
  2
DUMMY
 70
    64
  3
ダミー
 72
    65
 73
     0
 40
0.0
  0
LTYPE
  2
RAND1
 70
    64
  3
ランダム線1
 72
    65
 73
     4
 40
10.0
 49
1.0
 49
-2.0
 49
3.0
 49
-4.0
  0
LTYPE
  2
RAND2
 70
    64
  3
ランダム線2
 72
    65
 73
     4
 40
14.0
 49
2.0
 49
-3.0
 49
4.0
 49
-5.0
  0
LTYPE
  2
RAND3
 70
    64
  3
ランダム線3
 72
    65
 73
     4
 40
18.0
 49
3.0
 49
-4.0
 49
5.0
 49
-6.0
  0
LTYPE
  2
RAND4
 70
    64
  3
ランダム線4
 72
    65
 73
     4
 40
22.0
 49
4.0
 49
-5.0
 49
6.0
 49
-7.0
  0
LTYPE
  2
RAND5
 70
    64
  3
ランダム線5
 72
    65
 73
     4
 40
26.0
 49
5.0
 49
-6.0
 49
7.0
 49
-8.0
  0
LTYPE
  2
LONG1
 70
    64
  3
----------  --  ----------  --  
 72
    65
 73
     4
 40
40.0
 49
32.5
 49
-2.5
 49
2.5
 49
-2.5
  0
LTYPE
  2
LONG2
 70
    64
  3
--------  -  -  --------  -  -  
 72
    65
 73
     6
 40
40.0
 49
30.0
 49
-2.5
 49
1.25
 49
-2.5
 49
1.25
 49
-2.5
  0
LTYPE
  2
LONG3
 70
    64
  3
+++++++++++++++..+++++++++++++++
 72
    65
 73
     2
 40
40.0
 49
37.5
 49
-2.5
  0
LTYPE
  2
LONG4
 70
    64
  3
+++++++++++++++..+++++++++++++++
 72
    65
 73
     2
 40
80.0
 49
75.0
 49
-5.0
  0
LTYPE
  2
LONG5
 70
    64
  3
----------  --  ----------  --  
 72
    65
 73
     4
 40
60.0
 49
37.5
 49
-7.5
 49
7.5
 49
-7.5
  0
LTYPE
  2
dashed
 70
   64
  3
-------   -------------   ------
 72
   65
 73
    2
 40
7.5
 49
6
 49
-1.5
  0
LTYPE
  2
dashed_spaced
 70
   64
  3
----        --------        ----
 72
   65
 73
    2
 40
12
 49
6
 49
-6
  0
LTYPE
  2
long_dashed_dotted
 70
   64
  3
------------- --- --------------
 72
   65
 73
    4
 40
15.25
 49
12
 49
-1.5
 49
0.25
 49
-1.5
  0
LTYPE
  2
long_dashed_double-dotted
 70
   64
  3
----------- --- --- ------------
 72
   65
 73
    6
 40
17
 49
12
 49
-1.5
 49
0.25
 49
-1.5
 49
0.25
 49
-1.5
  0
LTYPE
  2
long_dashed_triplicate-dotted
 70
   64
  3
--------- --- --- --- ----------
 72
   65
 73
    8
 40
18.75
 49
12
 49
-1.5
 49
0.25
 49
-1.5
 49
0.25
 49
-1.5
 49
0.25
 49
-1.5
  0
LTYPE
  2
dotted
 70
   64
  3
   -       -       -       -    
 72
   65
 73
    2
 40
1.75
 49
0.25
 49
-1.5
  0
LTYPE
  2
chain
 70
   64
  3
-------------- -- --------------
 72
   65
 73
    4
 40
18.5
 49
12
 49
-1.5
 49
3.5
 49
-1.5
  0
LTYPE
  2
chain_double_dash
 70
   64
  3
------------ -- -- -------------
 72
   65
 73
    6
 40
23.5
 49
12
 49
-1.5
 49
3.5
 49
-1.5
 49
3.5
 49
-1.5
  0
LTYPE
  2
dashed_dotted
 70
   64
  3
-----------     -     ----------
 72
   65
 73
    4
 40
9.25
 49
6
 49
-1.5
 49
0.25
 49
-1.5
  0
LTYPE
  2
double-dashed_dotted
 70
   64
  3
------   -----------   -   -----
 72
   65
 73
    6
 40
16.75
 49
6
 49
-1.5
 49
6
 49
-1.5
 49
0.25
 49
-1.5
  0
LTYPE
  2
dashed_double-dotted
 70
   64
  3
---------    -    -    ---------
 72
   65
 73
    6
 40
11
 49
6
 49
-1.5
 49
0.25
 49
-1.5
 49
0.25
 49
-1.5
  0
LTYPE
  2
double-dashed_double-dotted
 70
   64
  3
-----   ---------   -   -   ----
 72
   65
 73
    8
 40
18.5
 49
6
 49
-1.5
 49
6
 49
-1.5
 49
0.25
 49
-1.5
 49
0.25
 49
-1.5
  0
LTYPE
  2
dashed_triplicate-dotted
 70
   64
  3
-------    -    -    -    ------
 72
   65
 73
    8
 40
12.75
 49
6
 49
-1.5
 49
0.25
 49
-1.5
 49
0.25
 49
-1.5
 49
0.25
 49
-1.5
  0
LTYPE
  2
double-dashed_triplicate-dotted
 70
   64
  3
-----  ---------  -  -  -  -----
 72
   65
 73
   10
 40
20.25
 49
6
 49
-1.5
 49
6
 49
-1.5
 49
0.25
 49
-1.5
 49
0.25
 49
-1.5
 49
0.25
 49
-1.5
  0
LTYPE
  2
undefined
 70
   64
  3
--------------------------------
 72
   65
 73
    0
 40
0
  0
ENDTAB
  0
TABLE
  2
STYLE
  5
3
100
AcDbSymbolTable
 70
     1
  0
STYLE
  5
10
100
AcDbSymbolTableRecord
100
AcDbTextStyleTableRecord
  2
STANDARD
 70
     0
 40
0.0
 41
1.0
 50
0.0
 71
     0
 42
0.2
  3
txt
  4
bigfont.shx
  0
STYLE
  5
26
100
AcDbSymbolTableRecord
100
AcDbTextStyleTableRecord
  2
TATEGAKI
 70
    68
 40
0.0
 41
1.0
 50
0.0
 71
     0
 42
1.0
  3
txt
  4
bigfont.shx
  0
ENDTAB
  0
TABLE
  2
LAYER
 70
   10
  0
LAYER
  2
_0-0_計極細
 70
   64
 62
    7
  6
CONTINUOUS
  0
LAYER
  2
_0-1_計細線
 70
   64
 62
    7
  6
CONTINUOUS
  0
LAYER
  2
_0-5_寸法線
 70
   64
 62
    7
  6
CONTINUOUS
  0
LAYER
  2
_0-7_枠細線
 70
   64
 62
    7
  6
CONTINUOUS
  0
LAYER
  2
_0-8_枠中線
 70
   64
 62
    7
  6
CONTINUOUS
  0
LAYER
  2
_0-9_枠極太
 70
   64
 62
    7
  6
CONTINUOUS
  0
LAYER
  2
_0-a_極細3
 70
   64
 62
    7
  6
CONTINUOUS
  0
LAYER
  2
_0-b_細線3
 70
   64
 62
    7
  6
CONTINUOUS
  0
LAYER
  2
_0-d_寸法3
 70
   64
 62
    7
  6
CONTINUOUS
  0
LAYER
  2
ADD_LINE
 70
   64
 62
    7
  6
CONTINUOUS
  0
ENDTAB
  0
ENDSEC
  0
SECTION
  2
BLOCKS
  0
ENDSEC
  0
SECTION
  2
ENTITIES
  0
LINE
  8
_0-7_枠細線
  6
CONTINUOUS
 62
    5
 10
1425
 20
942.5
 11
890
 21
942.5
  0
TEXT
  8
_0-7_枠細線
 62
    5
 10
895
 20
945
 40
12.5
 41
1
 50
0
  1
記号
  0
TEXT
  8
_0-7_枠細線
 62
    5
 10
996.875
 20
945
 40
12.5
 41
1
 50
0
  1
訂　 正　 記　 事
  0
TEXT
  8
_0-7_枠細線
 62
    5
 10
1181.25
 20
945
 40
12.5
 41
1
 50
0
  1
訂 正 年 月 日
  0
TEXT
  8
_0-7_枠細線
 62
    5
 10
1306.25
 20
945
 40
12.5
 41
1
 50
0
  1
備　　　　　考
  0
LINE
  8
_0-7_枠細線
  6
CONTINUOUS
 62
    5
 10
1185
 20
180
 11
1185
 21
100
  0
TEXT
  8
_0-7_枠細線
 62
    5
 10
937.5
 20
97.5
 40
17.5
 41
1
 50
0
  1
備考
  7
TATEGAKI
  0
TEXT
  8
_0-7_枠細線
 62
    5
 10
937.5
 20
137.5
 40
17.5
 41
1
 50
0
  1
品番
  7
TATEGAKI
  0
TEXT
  8
_0-7_枠細線
 62
    5
 10
937.5
 20
177.5
 40
17.5
 41
1
 50
0
  1
品名
  7
TATEGAKI
  0
LINE
  8
_0-7_枠細線
  6
CONTINUOUS
 62
    5
 10
1185
 20
140
 11
925
 21
140
  0
LINE
  8
_0-7_枠細線
  6
CONTINUOUS
 62
    5
 10
950
 20
180
 11
950
 21
60
  0
LINE
  8
_0-8_枠中線
  6
CONTINUOUS
 62
    5
 10
1425
 20
180
 11
925
 21
180
  0
LINE
  8
_0-8_枠中線
  6
CONTINUOUS
 62
    5
 10
925
 20
180
 11
925
 21
60
  0
LINE
  8
_0-7_枠細線
  6
CONTINUOUS
 62
    5
 10
1245
 20
180
 11
1245
 21
60
  0
TEXT
  8
_0-7_枠細線
 62
    5
 10
1192.5
 20
160
 40
15
 41
1
 50
0
  1
縮　尺
  0
TEXT
  8
_0-7_枠細線
 62
    5
 10
1194
 20
117.5
 40
20
 41
0.7000000000000001
 50
0
  1
１：５
  0
LINE
  8
_0-7_枠細線
  6
CONTINUOUS
 62
    5
 10
1185
 20
155
 11
1245
 21
155
  0
LINE
  8
_0-7_枠細線
  6
CONTINUOUS
 62
    5
 10
1245
 20
100
 11
925
 21
100
  0
LINE
  8
_0-7_枠細線
  6
CONTINUOUS
 62
    5
 10
1425
 20
90
 11
1245
 21
90
  0
LINE
  8
_0-7_枠細線
  6
CONTINUOUS
 62
    5
 10
1245
 20
120
 11
1425
 21
120
  0
LINE
  8
_0-7_枠細線
  6
CONTINUOUS
 62
    5
 10
1425
 20
140
 11
1245
 21
140
  0
TEXT
  8
_0-7_枠細線
 62
    5
 10
1255
 20
147.5
 40
25
 41
0.8
 50
0
  1
株式会社シマブン
  0
TEXT
  8
_0-7_枠細線
 62
    5
 10
1252.5
 20
60
 40
15
 41
1
 50
0
  1
年月日
  0
TEXT
  8
_0-7_枠細線
 62
    5
 10
1252.5
 20
75
 40
15
 41
1
 50
0
  1
作　成
  0
TEXT
  8
_0-7_枠細線
 62
    5
 10
1256.25
 20
122.5
 40
15
 41
1
 50
0
  1
承 認
  0
LINE
  8
_0-7_枠細線
  6
CONTINUOUS
 62
    5
 10
1305
 20
140
 11
1305
 21
60
  0
TEXT
  8
_0-7_枠細線
 62
    5
 10
1316.25
 20
122.5
 40
15
 41
1
 50
0
  1
検 図
  0
LINE
  8
_0-7_枠細線
  6
CONTINUOUS
 62
    5
 10
1365
 20
140
 11
1365
 21
90
  0
TEXT
  8
_0-7_枠細線
 62
    5
 10
1375
 20
95
 40
20
 41
1
 50
0
  1
藤戸
  0
TEXT
  8
_0-7_枠細線
 62
    5
 10
1376.25
 20
122.5
 40
15
 41
1
 50
0
  1
設 計
  0
TEXT
  8
_0-7_枠細線
 62
    5
 10
1255
 20
95
 40
20
 41
1
 50
0
  1
隠塚
  0
TEXT
  8
_0-7_枠細線
 62
    5
 10
1315
 20
95
 40
20
 41
1
 50
0
  1
渋田
  0
TEXT
  8
_0-7_枠細線
 62
    5
 10
965.50000000000011
 20
150
 40
20
 41
0.5
 50
0
  1
Ｔバー ステンレスグレーチング Ｈ２０タイプ
  0
TEXT
  8
_0-7_枠細線
 62
    5
 10
1310
 20
67.5
 40
15
 41
0.6666666666666666
 50
0
  1
２０１２年０２月２９日
  0
LINE
  8
_0-7_枠細線
  6
CONTINUOUS
 62
    5
 10
1425
 20
925
 11
890
 21
925
  0
TEXT
  8
_0-7_枠細線
 62
    5
 10
938.85037037037023
 20
927.5
 40
12.500000000000002
 41
1
 50
0
  1
品番変更
  0
LINE
  8
_0-b_細線3
  6
CONTINUOUS
 62
    7
 10
953.15211640940788
 20
296.56810602460041
 11
939.81878307607474
 21
296.56810602460041
  0
LINE
  8
_0-b_細線3
  6
CONTINUOUS
 62
    7
 10
976.48544974274137
 20
296.56810602460041
 11
963.15211640940788
 21
296.56810602460041
  0
LINE
  8
_0-b_細線3
  6
CONTINUOUS
 62
    7
 10
999.81878307607428
 20
296.56810602460041
 11
986.48544974274091
 21
296.56810602460041
  0
LINE
  8
_0-b_細線3
  6
CONTINUOUS
 62
    7
 10
1023.1521164094079
 20
296.56810602460041
 11
1009.8187830760747
 21
296.56810602460041
  0
LINE
  8
_0-d_寸法3
  6
CONTINUOUS
 62
    7
 10
939.81878307607474
 20
306.56810602460041
 11
939.81878307607474
 21
351.56810602460041
  0
LINE
  8
_0-d_寸法3
  6
CONTINUOUS
 62
    7
 10
939.81878307607474
 20
346.56810602460041
 11
930.15952481318413
 21
343.97991557357523
  0
LINE
  8
_0-d_寸法3
  6
CONTINUOUS
 62
    7
 10
939.81878307607474
 20
346.56810602460041
 11
930.15952481318413
 21
349.15629647562571
  0
LINE
  8
_0-d_寸法3
  6
CONTINUOUS
 62
    7
 10
953.15211640940834
 20
306.56810602460041
 11
953.15211640940834
 21
351.56810602460041
  0
CIRCLE
  8
_0-d_寸法3
  6
CONTINUOUS
 62
    1
 10
953.15211640940834
 20
346.56810602460041
 40
1.5000000000000002
  0
LINE
  8
_0-d_寸法3
  6
CONTINUOUS
 62
    7
 10
914.81878307607474
 20
346.56810602460041
 11
953.15211640940834
 21
346.56810602460041
  0
TEXT
  8
_0-d_寸法3
 62
    7
 10
922.31334902649394
 20
346.56810602460041
 40
15
 41
1
 50
0
  1
8
  0
LINE
  8
_0-d_寸法3
  6
CONTINUOUS
 62
    7
 10
963.15211640940834
 20
306.56810602460041
 11
963.15211640940834
 21
351.56810602460041
  0
LINE
  8
_0-d_寸法3
  6
CONTINUOUS
 62
    7
 10
963.15211640940834
 20
346.56810602460041
 11
972.81137467229894
 21
349.15629647562554
  0
LINE
  8
_0-d_寸法3
  6
CONTINUOUS
 62
    7
 10
963.15211640940834
 20
346.56810602460041
 11
972.81137467229894
 21
343.97991557357523
  0
LINE
  8
_0-d_寸法3
  6
CONTINUOUS
 62
    7
 10
953.15211640940834
 20
346.56810602460041
 11
988.15211640940834
 21
346.56810602460041
  0
TEXT
  8
_0-d_寸法3
 62
    7
 10
972.87285519933346
 20
346.56810602460041
 40
15
 41
1
 50
0
  1
6
  0
LINE
  8
_0-b_細線3
  6
CONTINUOUS
 62
    7
 10
1046.4854497427409
 20
296.56810602460041
 11
1033.1521164094079
 21
296.56810602460041
  0
LINE
  8
_0-b_細線3
  6
CONTINUOUS
 62
    7
 10
1069.8187830760739
 20
296.56810602460041
 11
1056.4854497427409
 21
296.56810602460041
  0
LINE
  8
_0-d_寸法3
  6
CONTINUOUS
 62
    7
 10
1016.4854497427414
 20
306.56810602460052
 11
1016.4854497427414
 21
351.56810602460041
  0
LINE
  8
_0-d_寸法3
  6
CONTINUOUS
 62
    7
 10
1016.4854497427414
 20
346.56810602460041
 11
1026.1447080056319
 21
349.1562964756256
  0
LINE
  8
_0-d_寸法3
  6
CONTINUOUS
 62
    7
 10
1016.4854497427414
 20
346.56810602460041
 11
1026.1447080056319
 21
343.97991557357523
  0
LINE
  8
_0-d_寸法3
  6
CONTINUOUS
 62
    7
 10
1039.8187830760749
 20
306.56810602460041
 11
1039.8187830760749
 21
351.56810602460041
  0
LINE
  8
_0-d_寸法3
  6
CONTINUOUS
 62
    7
 10
1039.8187830760749
 20
346.56810602460041
 11
1030.1595248131841
 21
343.97991557357523
  0
LINE
  8
_0-d_寸法3
  6
CONTINUOUS
 62
    7
 10
1039.8187830760749
 20
346.56810602460041
 11
1030.1595248131841
 21
349.15629647562571
  0
LINE
  8
_0-d_寸法3
  6
CONTINUOUS
 62
    7
 10
1016.4854497427414
 20
346.56810602460041
 11
1039.8187830760749
 21
346.56810602460041
  0
TEXT
  8
_0-d_寸法3
 62
    7
 10
1020.6521164094079
 20
346.56810602460041
 40
15
 41
1
 50
0
  1
14
  0
LINE
  8
_0-d_寸法3
  6
CONTINUOUS
 62
    7
 10
1039.8187830760749
 20
346.56810602460041
 11
1049.4780413389658
 21
349.15629647562554
  0
LINE
  8
_0-d_寸法3
  6
CONTINUOUS
 62
    7
 10
1039.8187830760749
 20
346.56810602460041
 11
1049.4780413389658
 21
343.97991557357523
  0
LINE
  8
_0-d_寸法3
  6
CONTINUOUS
 62
    7
 10
1063.1521164094079
 20
306.56810602460041
 11
1063.1521164094079
 21
351.56810602460041
  0
LINE
  8
_0-d_寸法3
  6
CONTINUOUS
 62
    7
 10
1063.1521164094079
 20
346.56810602460041
 11
1053.4928581465172
 21
343.97991557357523
  0
LINE
  8
_0-d_寸法3
  6
CONTINUOUS
 62
    7
 10
1063.1521164094079
 20
346.56810602460041
 11
1053.4928581465172
 21
349.15629647562571
  0
LINE
  8
_0-d_寸法3
  6
CONTINUOUS
 62
    7
 10
1039.8187830760749
 20
346.56810602460041
 11
1063.1521164094079
 21
346.56810602460041
  0
TEXT
  8
_0-d_寸法3
 62
    7
 10
1043.9854497427414
 20
346.56810602460041
 40
15
 41
1
 50
0
  1
14
  0
LINE
  8
_0-d_寸法3
  6
CONTINUOUS
 62
    7
 10
922.26314135259918
 20
296.56810602460047
 11
893.92980801926569
 21
296.56810602460052
  0
LINE
  8
_0-d_寸法3
  6
CONTINUOUS
 62
    7
 10
898.92980801926569
 20
296.56810602460052
 11
901.51799847029088
 21
286.90884776170992
  0
LINE
  8
_0-d_寸法3
  6
CONTINUOUS
 62
    7
 10
898.92980801926569
 20
296.56810602460052
 11
896.34161756824039
 21
286.90884776170992
  0
LINE
  8
_0-d_寸法3
  6
CONTINUOUS
 62
    7
 10
922.26314135259918
 20
263.23477269126721
 11
893.92980801926569
 21
263.23477269126727
  0
LINE
  8
_0-d_寸法3
  6
CONTINUOUS
 62
    7
 10
898.92980801926569
 20
263.23477269126727
 11
896.34161756824039
 21
272.89403095415793
  0
LINE
  8
_0-d_寸法3
  6
CONTINUOUS
 62
    7
 10
898.92980801926569
 20
263.23477269126727
 11
901.51799847029088
 21
272.89403095415793
  0
LINE
  8
_0-d_寸法3
  6
CONTINUOUS
 62
    7
 10
898.92980801926569
 20
296.56810602460052
 11
898.92980801926569
 21
263.23477269126727
  0
TEXT
  8
_0-d_寸法3
 62
    7
 10
898.92980801926569
 20
272.4014393579339
 40
15
 41
1
 50
90
  1
20
  0
LINE
  8
_0-b_細線3
  6
CONTINUOUS
 62
    7
 10
945.48544974274137
 20
263.23477269126715
 11
947.48544974274125
 21
263.23477269126715
  0
LINE
  8
_0-b_細線3
  6
CONTINUOUS
 62
    7
 10
968.81878307607485
 20
263.23477269126715
 11
970.81878307607485
 21
263.23477269126715
  0
LINE
  8
_0-b_細線3
  6
CONTINUOUS
 62
    7
 10
992.15211640940777
 20
263.23477269126715
 11
994.15211640940788
 21
263.23477269126715
  0
LINE
  8
_0-b_細線3
  6
CONTINUOUS
 62
    7
 10
1015.4854497427414
 20
263.23477269126715
 11
1017.4854497427409
 21
263.23477269126715
  0
LINE
  8
_0-b_細線3
  6
CONTINUOUS
 62
    7
 10
1038.8187830760744
 20
263.23477269126715
 11
1040.8187830760739
 21
263.23477269126715
  0
LINE
  8
_0-b_細線3
  6
CONTINUOUS
 62
    7
 10
1062.1521164094074
 20
263.23477269126715
 11
1064.152116409407
 21
263.23477269126715
  0
ARC
  8
_0-a_極細3
  6
CONTINUOUS
 62
    7
 10
951.58512460882491
 20
288.88554488551165
 40
21.070607518177617
 50
150.03871396148139
 51
205.2381040238788
  0
ARC
  8
_0-a_極細3
  6
CONTINUOUS
 62
    7
 10
913.46655438094729
 20
270.91733383035478
 40
21.070607518177617
 50
330.03871396148219
 51
25.238104023878272
  0
LINE
  8
_0-b_細線3
  6
CONTINUOUS
 62
    7
 10
931.96501361196169
 20
296.56810602460041
 11
1075.3920453877322
 21
296.56810602460041
  0
ARC
  8
_0-a_極細3
  6
CONTINUOUS
 62
    7
 10
1094.9758023633772
 20
288.88554488551165
 40
21.070607518177617
 50
150.03871396148139
 51
205.2381040238788
  0
ARC
  8
_0-a_極細3
  6
CONTINUOUS
 62
    7
 10
1056.8572321354995
 20
270.91733383035478
 40
21.070607518177617
 50
330.03871396148219
 51
25.238104023878019
  0
LINE
  8
_0-a_極細3
  6
CENTER1
 62
    7
 10
914.128534257296
 20
279.90143935793344
 11
1087.6337554753186
 21
279.90143935793344
  0
LINE
  8
_0-b_細線3
  6
CONTINUOUS
 62
    7
 10
933.08666537781107
 20
263.23477269126636
 11
1076.4773431323633
 21
263.23477269126624
  0
ARC
  8
_0-b_細線3
  6
CONTINUOUS
 62
    7
 10
958.15211640940834
 20
317.70421713571136
 40
46.136111111111042
 50
256.63227178393157
 51
283.36772821606712
  0
ARC
  8
_0-b_細線3
  6
CONTINUOUS
 62
    7
 10
958.15211640940834
 20
242.0986615801562
 40
46.136111111111042
 50
76.632271783932524
 51
103.36772821606807
  0
ARC
  8
_0-b_細線3
  6
CONTINUOUS
 62
    7
 10
981.48544974274137
 20
317.70421713571136
 40
46.136111111111042
 50
256.63227178393157
 51
283.36772821606712
  0
ARC
  8
_0-b_細線3
  6
CONTINUOUS
 62
    7
 10
981.48544974274137
 20
242.0986615801562
 40
46.136111111111042
 50
76.632271783932524
 51
103.36772821606779
  0
ARC
  8
_0-b_細線3
  6
CONTINUOUS
 62
    7
 10
1004.8187830760747
 20
317.70421713571136
 40
46.136111111111042
 50
256.63227178393186
 51
283.36772821606712
  0
ARC
  8
_0-b_細線3
  6
CONTINUOUS
 62
    7
 10
1004.8187830760747
 20
242.0986615801562
 40
46.136111111111042
 50
76.632271783932524
 51
103.36772821606753
  0
LINE
  8
_0-b_細線3
  6
CONTINUOUS
 62
    7
 10
953.15211640940834
 20
294.56810602460041
 11
953.15211640940834
 21
296.56810602460041
  0
LINE
  8
_0-b_細線3
  6
CONTINUOUS
 62
    7
 10
947.48544974274125
 20
294.56810602460041
 11
953.15211640940834
 21
294.56810602460041
  0
LINE
  8
_0-b_細線3
  6
CONTINUOUS
 62
    7
 10
947.48544974274125
 20
263.23477269126715
 11
947.48544974274125
 21
294.56810602460041
  0
LINE
  8
_0-b_細線3
  6
CONTINUOUS
 62
    7
 10
945.48544974274137
 20
263.23477269126715
 11
947.48544974274125
 21
263.23477269126715
  0
LINE
  8
_0-b_細線3
  6
CONTINUOUS
 62
    7
 10
945.48544974274137
 20
294.56810602460041
 11
945.48544974274137
 21
263.23477269126715
  0
LINE
  8
_0-b_細線3
  6
CONTINUOUS
 62
    7
 10
939.81878307607474
 20
294.56810602460041
 11
945.48544974274137
 21
294.56810602460041
  0
LINE
  8
_0-b_細線3
  6
CONTINUOUS
 62
    7
 10
939.81878307607474
 20
296.56810602460041
 11
939.81878307607474
 21
294.56810602460041
  0
LINE
  8
_0-b_細線3
  6
CONTINUOUS
 62
    7
 10
953.15211640940834
 20
296.56810602460041
 11
939.81878307607474
 21
296.56810602460041
  0
LINE
  8
_0-b_細線3
  6
CONTINUOUS
 62
    7
 10
976.48544974274159
 20
294.56810602460041
 11
976.48544974274159
 21
296.56810602460041
  0
LINE
  8
_0-b_細線3
  6
CONTINUOUS
 62
    7
 10
970.81878307607485
 20
294.56810602460041
 11
976.48544974274159
 21
294.56810602460041
  0
LINE
  8
_0-b_細線3
  6
CONTINUOUS
 62
    7
 10
970.81878307607485
 20
263.23477269126715
 11
970.81878307607485
 21
294.56810602460041
  0
LINE
  8
_0-b_細線3
  6
CONTINUOUS
 62
    7
 10
968.81878307607485
 20
263.23477269126715
 11
970.81878307607485
 21
263.23477269126715
  0
LINE
  8
_0-b_細線3
  6
CONTINUOUS
 62
    7
 10
968.81878307607485
 20
294.56810602460041
 11
968.81878307607485
 21
263.23477269126715
  0
LINE
  8
_0-b_細線3
  6
CONTINUOUS
 62
    7
 10
963.15211640940834
 20
294.56810602460041
 11
968.81878307607485
 21
294.56810602460041
  0
LINE
  8
_0-b_細線3
  6
CONTINUOUS
 62
    7
 10
963.15211640940834
 20
296.56810602460041
 11
963.15211640940834
 21
294.56810602460041
  0
LINE
  8
_0-b_細線3
  6
CONTINUOUS
 62
    7
 10
976.48544974274159
 20
296.56810602460041
 11
963.15211640940834
 21
296.56810602460041
  0
LINE
  8
_0-b_細線3
  6
CONTINUOUS
 62
    7
 10
999.81878307607462
 20
294.56810602460041
 11
999.81878307607462
 21
296.56810602460041
  0
LINE
  8
_0-b_細線3
  6
CONTINUOUS
 62
    7
 10
994.15211640940822
 20
294.56810602460041
 11
999.81878307607462
 21
294.56810602460041
  0
LINE
  8
_0-b_細線3
  6
CONTINUOUS
 62
    7
 10
994.15211640940822
 20
263.23477269126715
 11
994.15211640940822
 21
294.56810602460041
  0
LINE
  8
_0-b_細線3
  6
CONTINUOUS
 62
    7
 10
992.15211640940822
 20
263.23477269126715
 11
994.15211640940822
 21
263.23477269126715
  0
LINE
  8
_0-b_細線3
  6
CONTINUOUS
 62
    7
 10
992.15211640940822
 20
294.56810602460041
 11
992.15211640940822
 21
263.23477269126715
  0
LINE
  8
_0-b_細線3
  6
CONTINUOUS
 62
    7
 10
986.48544974274137
 20
294.56810602460041
 11
992.15211640940822
 21
294.56810602460041
  0
LINE
  8
_0-b_細線3
  6
CONTINUOUS
 62
    7
 10
986.48544974274137
 20
296.56810602460041
 11
986.48544974274137
 21
294.56810602460041
  0
LINE
  8
_0-b_細線3
  6
CONTINUOUS
 62
    7
 10
999.81878307607462
 20
296.56810602460041
 11
986.48544974274137
 21
296.56810602460041
  0
LINE
  8
_0-b_細線3
  6
CONTINUOUS
 62
    7
 10
1023.1521164094084
 20
294.56810602460041
 11
1023.1521164094084
 21
296.56810602460041
  0
LINE
  8
_0-b_細線3
  6
CONTINUOUS
 62
    7
 10
1017.4854497427414
 20
294.56810602460041
 11
1023.1521164094084
 21
294.56810602460041
  0
LINE
  8
_0-b_細線3
  6
CONTINUOUS
 62
    7
 10
1017.4854497427414
 20
263.23477269126715
 11
1017.4854497427414
 21
294.56810602460041
  0
LINE
  8
_0-b_細線3
  6
CONTINUOUS
 62
    7
 10
1015.4854497427415
 20
263.23477269126715
 11
1017.4854497427414
 21
263.23477269126715
  0
LINE
  8
_0-b_細線3
  6
CONTINUOUS
 62
    7
 10
1015.4854497427415
 20
294.56810602460041
 11
1015.4854497427415
 21
263.23477269126715
  0
LINE
  8
_0-b_細線3
  6
CONTINUOUS
 62
    7
 10
1009.8187830760747
 20
294.56810602460041
 11
1015.4854497427415
 21
294.56810602460041
  0
LINE
  8
_0-b_細線3
  6
CONTINUOUS
 62
    7
 10
1009.8187830760747
 20
296.56810602460041
 11
1009.8187830760747
 21
294.56810602460041
  0
LINE
  8
_0-b_細線3
  6
CONTINUOUS
 62
    7
 10
1023.1521164094084
 20
296.56810602460041
 11
1009.8187830760747
 21
296.56810602460041
  0
ARC
  8
_0-b_細線3
  6
CONTINUOUS
 62
    7
 10
1028.1521164094083
 20
317.70421713571136
 40
46.136111111111042
 50
256.63227178393214
 51
283.36772821606712
  0
ARC
  8
_0-b_細線3
  6
CONTINUOUS
 62
    7
 10
1028.1521164094083
 20
242.0986615801562
 40
46.136111111111042
 50
76.632271783932524
 51
103.36772821606753
  0
LINE
  8
_0-b_細線3
  6
CONTINUOUS
 62
    7
 10
1046.4854497427418
 20
294.56810602460041
 11
1046.4854497427418
 21
296.56810602460041
  0
LINE
  8
_0-b_細線3
  6
CONTINUOUS
 62
    7
 10
1040.8187830760749
 20
294.56810602460041
 11
1046.4854497427418
 21
294.56810602460041
  0
LINE
  8
_0-b_細線3
  6
CONTINUOUS
 62
    7
 10
1040.8187830760749
 20
263.23477269126715
 11
1040.8187830760749
 21
294.56810602460041
  0
LINE
  8
_0-b_細線3
  6
CONTINUOUS
 62
    7
 10
1038.8187830760753
 20
294.56810602460041
 11
1038.8187830760753
 21
263.23477269126715
  0
LINE
  8
_0-b_細線3
  6
CONTINUOUS
 62
    7
 10
1033.1521164094083
 20
294.56810602460041
 11
1038.8187830760753
 21
294.56810602460041
  0
LINE
  8
_0-b_細線3
  6
CONTINUOUS
 62
    7
 10
1033.1521164094083
 20
296.56810602460041
 11
1033.1521164094083
 21
294.56810602460041
  0
ARC
  8
_0-b_細線3
  6
CONTINUOUS
 62
    7
 10
1051.4854497427418
 20
317.70421713571136
 40
46.136111111111042
 50
256.63227178393214
 51
283.36772821606712
  0
ARC
  8
_0-b_細線3
  6
CONTINUOUS
 62
    7
 10
1051.4854497427418
 20
242.0986615801562
 40
46.136111111111042
 50
76.632271783932524
 51
103.36772821606753
  0
LINE
  8
_0-b_細線3
  6
CONTINUOUS
 62
    7
 10
1069.8187830760753
 20
294.56810602460041
 11
1069.8187830760753
 21
296.56810602460041
  0
LINE
  8
_0-b_細線3
  6
CONTINUOUS
 62
    7
 10
1064.1521164094083
 20
294.56810602460041
 11
1069.8187830760753
 21
294.56810602460041
  0
LINE
  8
_0-b_細線3
  6
CONTINUOUS
 62
    7
 10
1064.1521164094083
 20
263.23477269126715
 11
1064.1521164094083
 21
294.56810602460041
  0
LINE
  8
_0-b_細線3
  6
CONTINUOUS
 62
    7
 10
1062.1521164094088
 20
294.56810602460041
 11
1062.1521164094088
 21
263.23477269126715
  0
LINE
  8
_0-b_細線3
  6
CONTINUOUS
 62
    7
 10
1056.4854497427418
 20
294.56810602460041
 11
1062.1521164094088
 21
294.56810602460041
  0
LINE
  8
_0-b_細線3
  6
CONTINUOUS
 62
    7
 10
1056.4854497427418
 20
296.56810602460041
 11
1056.4854497427418
 21
294.56810602460041
  0
ARC
  8
_0-b_細線3
  6
CONTINUOUS
 62
    7
 10
934.81878307607474
 20
242.0986615801562
 40
46.136111111111042
 50
76.632271783932524
 51
95.331778543219158
  0
ARC
  8
_0-b_細線3
  6
CONTINUOUS
 62
    7
 10
934.81878307607474
 20
317.70421713571136
 40
46.136111111111042
 50
269.63773734898541
 51
283.36772821606655
  0
ARC
  8
_0-b_細線3
  6
CONTINUOUS
 62
    7
 10
1074.8187830760758
 20
317.70421713571136
 40
46.136111111111042
 50
256.63227178393157
 51
273.84719120855112
  0
ARC
  8
_0-b_細線3
  6
CONTINUOUS
 62
    7
 10
1074.8187830760758
 20
242.0986615801562
 40
46.136111111111042
 50
91.121818745999931
 51
103.36772821606807
  0
TEXT
  8
_0-7_枠細線
 62
    5
 10
956.55807915457694
 20
218.48278215653394
 40
25
 41
0.8
 50
0
  1
側面詳細図
  0
TEXT
  8
_0-7_枠細線
 62
    5
 10
1027.2366688631309
 20
193.70761534481403
 40
20
 41
0.6
 50
0
  1
Ｓ＝１：３
  0
TEXT
  8
_0-7_枠細線
 62
    5
 10
1180
 20
927.5
 40
12.5
 41
0.7199999999999999
 50
0
  1
２０１５．０４．０１
  0
LINE
  8
_0-a_極細3
  6
CENTER1
 62
    7
 10
470.43065977017199
 20
247.04894283920763
 11
470.43065977017199
 21
310.49894283921378
  0
LINE
  8
_0-d_寸法3
  6
CONTINUOUS
 62
    7
 10
462.23913932728209
 20
268.97053668816795
 11
426.88679760159658
 21
293.72451285785871
  0
LINE
  8
_0-d_寸法3
  6
CONTINUOUS
 62
    7
 10
430.98255782304159
 20
290.85663067610346
 11
428.3943673720164
 21
300.51588893899412
  0
LINE
  8
_0-d_寸法3
  6
CONTINUOUS
 62
    7
 10
430.98255782304159
 20
290.85663067610346
 11
433.57074827406677
 21
300.51588893899412
  0
LINE
  8
_0-d_寸法3
  6
CONTINUOUS
 62
    7
 10
462.23913932728209
 20
302.30387002150121
 11
426.88679760159658
 21
327.05784619119197
  0
LINE
  8
_0-d_寸法3
  6
CONTINUOUS
 62
    7
 10
430.98255782304159
 20
324.18996400943678
 11
433.57074827406677
 21
314.530705746546
  0
LINE
  8
_0-d_寸法3
  6
CONTINUOUS
 62
    7
 10
430.98255782304159
 20
324.18996400943678
 11
428.39436737201629
 21
314.53070574654606
  0
LINE
  8
_0-d_寸法3
  6
CONTINUOUS
 62
    7
 10
430.98255782304159
 20
290.85663067610346
 11
430.98255782304159
 21
324.18996400943678
  0
TEXT
  8
_0-d_寸法3
 62
    7
 10
430.98255782304159
 20
300.02329734276998
 40
15
 41
1
 50
90
  1
20
  0
TEXT
  8
_0-7_枠細線
 62
    5
 10
420.50861213093816
 20
113.23440732297932
 40
25
 41
0.8
 50
0
  1
断面詳細図
  0
TEXT
  8
_0-7_枠細線
 62
    5
 10
535.45758188010586
 20
113.23440732297932
 40
20
 41
0.6
 50
0
  1
Ｓ＝１：３
  0
CIRCLE
  8
_0-a_極細3
  6
CONTINUOUS
 62
    7
 10
240.38089923365575
 20
281.52707163020602
 40
0.5530864197530718
  0
LINE
  8
_0-a_極細3
  6
CONTINUOUS
 62
    7
 10
245.4306597701715
 20
296.56810565799071
 11
245.4306597701715
 21
284.90143899132374
  0
LINE
  8
_0-a_極細3
  6
CONTINUOUS
 62
    7
 10
245.4306597701715
 20
296.56810565799071
 11
156.25291262505692
 21
296.56810565799071
  0
LINE
  8
_0-a_極細3
  6
CONTINUOUS
 62
    7
 10
253.76399310350507
 20
284.90143899132374
 11
156.25291262505692
 21
284.90143899132374
  0
LINE
  8
_0-a_極細3
  6
CONTINUOUS
 62
    7
 10
253.76399310350507
 20
296.56810565799071
 11
245.4306597701715
 21
296.56810565799071
  0
LINE
  8
_0-a_極細3
  6
CONTINUOUS
 62
    7
 10
253.76399310350507
 20
295.73477232465723
 11
253.76399310350507
 21
296.56810565799071
  0
LINE
  8
_0-a_極細3
  6
CONTINUOUS
 62
    7
 10
253.56590284714542
 20
284.90143899132374
 11
253.76399310350456
 21
285.09952924768334
  0
LINE
  8
_0-a_極細3
  6
CONTINUOUS
 62
    7
 10
249.32326216002636
 20
284.90143899132374
 11
253.76399310350507
 21
289.34216993480243
  0
LINE
  8
_0-a_極細3
  6
CONTINUOUS
 62
    7
 10
245.4306597701715
 20
285.25147728858849
 11
253.76399310350507
 21
293.58481062192175
  0
LINE
  8
_0-a_極細3
  6
CONTINUOUS
 62
    7
 10
245.4306597701715
 20
289.49411797570758
 11
252.50464745245424
 21
296.56810565799071
  0
LINE
  8
_0-a_極細3
  6
CONTINUOUS
 62
    7
 10
245.4306597701715
 20
293.73675866282713
 11
248.26200676533517
 21
296.56810565799071
  0
LINE
  8
_0-a_極細3
  6
CONTINUOUS
 62
    7
 10
253.76399310350507
 20
294.28713878573205
 11
251.48302623124664
 21
296.56810565799071
  0
LINE
  8
_0-a_極細3
  6
CONTINUOUS
 62
    7
 10
253.76399310350507
 20
290.04449809861273
 11
247.24038554412701
 21
296.56810565799071
  0
LINE
  8
_0-a_極細3
  6
CONTINUOUS
 62
    7
 10
245.4306597701715
 20
294.1351907448269
 11
253.76399310350507
 21
285.80185741149364
  0
LINE
  8
_0-a_極細3
  6
CONTINUOUS
 62
    7
 10
245.4306597701715
 20
289.89255005770758
 11
250.42177083655488
 21
284.90143899132374
  0
LINE
  8
_0-a_極細3
  6
CONTINUOUS
 62
    7
 10
245.4306597701715
 20
285.64990937058826
 11
246.17913014943582
 21
284.90143899132374
  0
LINE
  8
_0-a_極細3
  6
CONTINUOUS
 62
    7
 10
236.59534009254088
 20
284.90143898519648
 11
245.4306597701715
 21
293.73675866282713
  0
LINE
  8
_0-a_極細3
  6
CONTINUOUS
 62
    7
 10
215.38213664223349
 20
284.9014389704854
 11
227.04880332973872
 21
296.56810565799049
  0
LINE
  8
_0-a_極細3
  6
CONTINUOUS
 62
    7
 10
194.16893319192553
 20
284.90143895577387
 11
205.83559989414198
 21
296.56810565799071
  0
LINE
  8
_0-a_極細3
  6
CONTINUOUS
 62
    7
 10
172.95572974161763
 20
284.90143894106279
 11
184.62239645854552
 21
296.56810565799071
  0
LINE
  8
_0-a_極細3
  6
CONTINUOUS
 62
    7
 10
156.25291262505692
 20
289.411825260098
 11
163.40919302294921
 21
296.56810565799049
  0
LINE
  8
_0-a_極細3
  6
DASHED2
 62
    7
 10
225.98873836738719
 20
284.90143897784094
 11
237.65540504753693
 21
296.56810565799071
  0
LINE
  8
_0-a_極細3
  6
DASHED2
 62
    7
 10
204.77553491707923
 20
284.90143896312964
 11
216.44220161194056
 21
296.56810565799071
  0
LINE
  8
_0-a_極細3
  6
DASHED2
 62
    7
 10
183.56233146677184
 20
284.90143894841833
 11
195.22899817634374
 21
296.56810565799071
  0
LINE
  8
_0-a_極細3
  6
DASHED2
 62
    7
 10
162.34912801646388
 20
284.90143893370725
 11
174.01579474074737
 21
296.56810565799071
  0
LINE
  8
_0-a_極細3
  6
CONTINUOUS
 62
    7
 10
187.09732643683807
 20
251.56810565799074
 11
187.09732643683807
 21
183.23477232465748
  0
LINE
  8
_0-a_極細3
  6
CONTINUOUS
 62
    7
 10
270.43065977017147
 20
183.23477232465748
 11
187.09732643683807
 21
183.23477232465748
  0
LINE
  8
_0-a_極細3
  6
CONTINUOUS
 62
    7
 10
187.09732643683807
 20
251.56810565799074
 11
156.25291262505692
 21
251.56810565799074
  0
LINE
  8
_0-a_極細3
  6
CONTINUOUS
 62
    7
 10
270.43065977017147
 20
183.23477232465748
 11
270.43065977017147
 21
156.99317202987834
  0
LINE
  8
_0-a_極細3
  6
CONTINUOUS
 62
    7
 10
233.00868520518179
 20
156.99317214631526
 11
259.25028538352433
 21
183.23477232465748
  0
LINE
  8
_0-a_極細3
  6
CONTINUOUS
 62
    7
 10
162.29800730654048
 20
156.99317236632837
 11
188.53960726486952
 21
183.23477232465748
  0
LINE
  8
_0-a_極細3
  6
CONTINUOUS
 62
    7
 10
156.25291262505692
 20
221.65875580349976
 11
186.16226247954813
 21
251.56810565799074
  0
LINE
  8
_0-a_極細3
  6
CONTINUOUS
 62
    7
 10
225.93761741531756
 20
156.99317216831659
 11
252.17921757165868
 21
183.23477232465748
  0
LINE
  8
_0-a_極細3
  6
CONTINUOUS
 62
    7
 10
156.25291262505692
 20
158.01914549671039
 11
187.09732643683807
 21
188.86355930849177
  0
LINE
  8
_0-a_極細3
  6
CONTINUOUS
 62
    7
 10
156.25291262505692
 20
228.72982361536529
 11
179.09119466768237
 21
251.56810565799074
  0
LINE
  8
_0-a_極細3
  6
CONTINUOUS
 62
    7
 10
218.86654962545384
 20
156.99317219031798
 11
245.10814975979329
 21
183.23477232465748
  0
LINE
  8
_0-a_極細3
  6
CONTINUOUS
 62
    7
 10
156.25291262505692
 20
165.09021330857593
 11
187.09732643683807
 21
195.93462712035731
  0
LINE
  8
_0-a_極細3
  6
CONTINUOUS
 62
    7
 10
156.25291262505692
 20
235.80089142723057
 11
172.02012685581707
 21
251.56810565799074
  0
CIRCLE
  8
_0-a_極細3
  6
CONTINUOUS
 62
    7
 10
174.14880046822418
 20
266.77151607465078
 40
0.5530864197530718
  0
CIRCLE
  8
_0-a_極細3
  6
CONTINUOUS
 62
    7
 10
163.81793627069371
 20
256.81596051909526
 40
0.5530864197530718
  0
CIRCLE
  8
_0-a_極細3
  6
CONTINUOUS
 62
    7
 10
174.42534367810089
 20
257.88262718576186
 40
0.5530864197530718
  0
CIRCLE
  8
_0-a_極細3
  6
CONTINUOUS
 62
    7
 10
187.04756590032318
 20
259.83818274131738
 40
0.5530864197530718
  0
CIRCLE
  8
_0-a_極細3
  6
CONTINUOUS
 62
    7
 10
215.4920103447671
 20
271.57151607465073
 40
0.5530864197530718
  0
CIRCLE
  8
_0-a_極細3
  6
CONTINUOUS
 62
    7
 10
246.06978812254459
 20
265.34929385242856
 40
0.5530864197530718
  0
CIRCLE
  8
_0-a_極細3
  6
CONTINUOUS
 62
    7
 10
221.18089923365588
 20
264.81596051909526
 40
0.5530864197530718
  0
CIRCLE
  8
_0-a_極細3
  6
CONTINUOUS
 62
    7
 10
193.99201034476746
 20
252.58262718576191
 40
0.5530864197530718
  0
CIRCLE
  8
_0-a_極細3
  6
CONTINUOUS
 62
    7
 10
214.43645478921141
 20
251.33818274131741
 40
0.5530864197530718
  0
CIRCLE
  8
_0-a_極細3
  6
CONTINUOUS
 62
    7
 10
239.50312145587802
 20
247.60484940798426
 40
0.5530864197530718
  0
CIRCLE
  8
_0-a_極細3
  6
CONTINUOUS
 62
    7
 10
226.88089923365573
 20
241.91596051909542
 40
0.5530864197530718
  0
CIRCLE
  8
_0-a_極細3
  6
CONTINUOUS
 62
    7
 10
212.12534367810071
 20
228.40484940798422
 40
0.5530864197530718
  0
CIRCLE
  8
_0-a_極細3
  6
CONTINUOUS
 62
    7
 10
239.50312145587802
 20
235.69373829687322
 40
0.5530864197530718
  0
CIRCLE
  8
_0-a_極細3
  6
CONTINUOUS
 62
    7
 10
198.39201034476716
 20
208.58262718576239
 40
0.5530864197530718
  0
CIRCLE
  8
_0-a_極細3
  6
CONTINUOUS
 62
    7
 10
192.70312145587823
 20
190.6270716302069
 40
0.5530864197530718
  0
CIRCLE
  8
_0-a_極細3
  6
CONTINUOUS
 62
    7
 10
201.41423256698948
 20
197.38262718576237
 40
0.5530864197530718
  0
CIRCLE
  8
_0-a_極細3
  6
CONTINUOUS
 62
    7
 10
207.63645478921163
 20
188.84929385242899
 40
0.5530864197530718
  0
CIRCLE
  8
_0-a_極細3
  6
CONTINUOUS
 62
    7
 10
246.93645478921141
 20
206.73818274131793
 40
0.5530864197530718
  0
CIRCLE
  8
_0-a_極細3
  6
CONTINUOUS
 62
    7
 10
235.73645478921156
 20
201.22707163020678
 40
0.5530864197530718
  0
CIRCLE
  8
_0-a_極細3
  6
CONTINUOUS
 62
    7
 10
241.95867701143371
 20
198.73818274131793
 40
0.5530864197530718
  0
CIRCLE
  8
_0-a_極細3
  6
CONTINUOUS
 62
    7
 10
238.40312145587808
 20
189.4937382968736
 40
0.5530864197530718
  0
CIRCLE
  8
_0-a_極細3
  6
CONTINUOUS
 62
    7
 10
258.31423256698912
 20
190.56040496354029
 40
0.5530864197530718
  0
CIRCLE
  8
_0-a_極細3
  6
CONTINUOUS
 62
    7
 10
271.29201034476682
 20
193.76040496354028
 40
0.5530864197530718
  0
CIRCLE
  8
_0-a_極細3
  6
CONTINUOUS
 62
    7
 10
284.98089923365569
 20
178.82707163020712
 40
0.5530864197530718
  0
CIRCLE
  8
_0-a_極細3
  6
CONTINUOUS
 62
    7
 10
278.0475659003223
 20
163.89373829687372
 40
0.5530864197530718
  0
CIRCLE
  8
_0-a_極細3
  6
CONTINUOUS
 62
    7
 10
261.38089923365567
 20
207.50855311168823
 40
0.5530864197530718
  0
CIRCLE
  8
_0-a_極細3
  6
CONTINUOUS
 62
    7
 10
276.1364547892112
 20
241.64188644502147
 40
0.5530864197530718
  0
CIRCLE
  8
_0-a_極細3
  6
CONTINUOUS
 62
    7
 10
291.24756590032206
 20
231.68633088946592
 40
0.5530864197530718
  0
CIRCLE
  8
_0-a_極細3
  6
CONTINUOUS
 62
    7
 10
291.7808992336553
 20
213.7307753339104
 40
0.5530864197530718
  0
CIRCLE
  8
_0-a_極細3
  6
CONTINUOUS
 62
    7
 10
256.53645478921135
 20
243.46410866724355
 40
0.5530864197530718
  0
CIRCLE
  8
_0-a_極細3
  6
CONTINUOUS
 62
    7
 10
236.24756590032248
 20
265.4480592845274
 40
1.825531472681392
  0
CIRCLE
  8
_0-a_極細3
  6
CONTINUOUS
 62
    7
 10
184.4854461988875
 20
272.37767355922517
 40
1.825531472681392
  0
CIRCLE
  8
_0-a_極細3
  6
CONTINUOUS
 62
    7
 10
211.02534367810037
 20
242.64805928452745
 40
1.825531472681392
  0
CIRCLE
  8
_0-a_極細3
  6
CONTINUOUS
 62
    7
 10
191.42534367810043
 20
204.6480592845279
 40
1.825531472681392
  0
CIRCLE
  8
_0-a_極細3
  6
CONTINUOUS
 62
    7
 10
244.6253436780998
 20
191.84805928452818
 40
1.825531472681392
  0
CIRCLE
  8
_0-a_極細3
  6
CONTINUOUS
 62
    7
 10
280.60312145587744
 20
188.24805928452832
 40
1.825531472681392
  0
CIRCLE
  8
_0-a_極細3
  6
CONTINUOUS
 62
    7
 10
285.40312145587723
 20
169.58139261786172
 40
1.825531472681392
  0
CIRCLE
  8
_0-a_極細3
  6
CONTINUOUS
 62
    7
 10
164.28836665780813
 20
273.27028150674948
 40
1.825531472681392
  0
LINE
  8
_0-a_極細3
  6
CONTINUOUS
 62
    7
 10
302.93065977017147
 20
258.23477232465746
 11
303.76399310350507
 21
258.23477232465746
  0
LINE
  8
_0-a_極細3
  6
CONTINUOUS
 62
    7
 10
303.76399310350507
 20
258.23477232465746
 11
303.76399310350507
 21
156.99317202987834
  0
CIRCLE
  8
_0-a_極細3
  6
CONTINUOUS
 62
    7
 10
296.87655895587613
 20
242.24805928452807
 40
1.825531472681392
  0
CIRCLE
  8
_0-a_極細3
  6
CONTINUOUS
 62
    7
 10
295.88460293735892
 20
187.53818274131817
 40
0.5530864197530718
  0
CIRCLE
  8
_0-a_極細3
  6
CONTINUOUS
 62
    7
 10
297.21793627069292
 20
164.88211170814827
 40
0.5530864197530718
  0
CIRCLE
  8
_0-a_極細3
  6
CONTINUOUS
 62
    7
 10
284.84756590031793
 20
223.13694817341718
 40
1.825531472681392
  0
LINE
  8
_0-a_極細3
  6
CONTINUOUS
 62
    7
 10
210.1239248830197
 20
208.11647348716099
 11
204.99362273313452
 21
222.21186279894951
  0
LINE
  8
_0-a_極細3
  6
CONTINUOUS
 62
    7
 10
260.11796755681644
 20
242.27548349819574
 11
265.24826970670119
 21
228.18009418640727
  0
LINE
  8
_0-a_極細3
  6
CONTINUOUS
 62
    7
 10
204.99362273313452
 20
222.21186279894951
 11
260.11796755681644
 21
242.27548349819574
  0
LINE
  8
_0-a_極細3
  6
CONTINUOUS
 62
    7
 10
210.1239248830197
 20
208.11647348716099
 11
265.24826970670119
 21
228.18009418640727
  0
LINE
  8
_0-a_極細3
  6
CENTER1
 62
    7
 10
202.60334041608431
 20
213.36053810302531
 11
266.6343608986503
 21
236.66592358806076
  0
LINE
  8
_0-a_極細3
  6
CONTINUOUS
 62
    7
 10
228.76399310350507
 20
183.23477232465748
 11
228.76399310350507
 21
227.32033367297359
  0
LINE
  8
_0-a_極細3
  6
CONTINUOUS
 62
    7
 10
228.76399310350507
 20
227.32033367297359
 11
213.76399310350507
 21
227.32033367297359
  0
LINE
  8
_0-a_極細3
  6
CONTINUOUS
 62
    7
 10
213.76399310350507
 20
227.32033367297359
 11
213.76399310350507
 21
183.23477232465748
  0
CIRCLE
  8
_0-a_極細3
  6
CONTINUOUS
 62
    7
 10
243.14386219661898
 20
213.1567012598363
 40
1.825531472681392
  0
CIRCLE
  8
_0-a_極細3
  6
CONTINUOUS
 62
    7
 10
264.85250417192759
 20
219.37892348205867
 40
1.825531472681392
  0
LINE
  8
_0-a_極細3
  6
CENTER1
 62
    7
 10
221.26399310350507
 20
174.95803204020461
 11
221.26399310350507
 21
231.5960538375831
  0
LINE
  8
_0-d_寸法3
  6
CONTINUOUS
 62
    7
 10
243.76399310350507
 20
296.56810565799077
 11
197.81396202491578
 21
296.56810565799071
  0
LINE
  8
_0-d_寸法3
  6
CONTINUOUS
 62
    7
 10
202.81396202491578
 20
296.56810565799071
 11
205.40215247594091
 21
286.9088473951
  0
LINE
  8
_0-d_寸法3
  6
CONTINUOUS
 62
    7
 10
202.81396202491578
 20
296.56810565799071
 11
200.22577157389051
 21
286.90884739510005
  0
LINE
  8
_0-d_寸法3
  6
CONTINUOUS
 62
    7
 10
241.76399310350504
 20
258.23477232465751
 11
197.81396202491578
 21
258.23477232465746
  0
LINE
  8
_0-d_寸法3
  6
CONTINUOUS
 62
    7
 10
202.81396202491578
 20
258.23477232465746
 11
200.22577157389051
 21
267.89403058754817
  0
LINE
  8
_0-d_寸法3
  6
CONTINUOUS
 62
    7
 10
202.81396202491578
 20
258.23477232465746
 11
205.40215247594091
 21
267.89403058754817
  0
LINE
  8
_0-d_寸法3
  6
CONTINUOUS
 62
    7
 10
202.81396202491578
 20
296.56810565799071
 11
202.81396202491578
 21
258.23477232465746
  0
TEXT
  8
_0-d_寸法3
 62
    7
 10
202.81396202491578
 20
269.9014389913242
 40
15
 41
1
 50
90
  1
23
  0
LINE
  8
_0-d_寸法3
  6
CONTINUOUS
 62
    7
 10
243.76399310350507
 20
258.23477232465729
 11
197.81396202491578
 21
258.23477232465723
  0
LINE
  8
_0-d_寸法3
  6
CONTINUOUS
 62
    7
 10
202.81396202491578
 20
258.23477232465723
 11
205.40215247594091
 21
248.57551406176654
  0
LINE
  8
_0-d_寸法3
  6
CONTINUOUS
 62
    7
 10
202.81396202491578
 20
258.23477232465723
 11
200.22577157389051
 21
248.57551406176657
  0
LINE
  8
_0-d_寸法3
  6
CONTINUOUS
 62
    7
 10
241.76399310350504
 20
219.90143899132403
 11
197.81396202491578
 21
219.90143899132403
  0
LINE
  8
_0-d_寸法3
  6
CONTINUOUS
 62
    7
 10
202.81396202491578
 20
219.90143899132397
 11
200.22577157389051
 21
229.56069725421469
  0
LINE
  8
_0-d_寸法3
  6
CONTINUOUS
 62
    7
 10
202.81396202491578
 20
219.90143899132397
 11
205.40215247594091
 21
229.56069725421469
  0
LINE
  8
_0-d_寸法3
  6
CONTINUOUS
 62
    7
 10
202.81396202491578
 20
258.23477232465723
 11
202.81396202491578
 21
219.90143899132397
  0
TEXT
  8
_0-d_寸法3
 62
    7
 10
202.81396202491578
 20
231.56810565799074
 40
15
 41
1
 50
90
  1
23
  0
LINE
  8
_0-d_寸法3
  6
CONTINUOUS
 62
    7
 10
253.76399310350507
 20
209.9014389913242
 11
253.76399310350507
 21
192.7567470904188
  0
LINE
  8
_0-d_寸法3
  6
CONTINUOUS
 62
    7
 10
253.76399310350507
 20
197.7567470904188
 11
263.42325136639573
 21
200.34493754144407
  0
LINE
  8
_0-d_寸法3
  6
CONTINUOUS
 62
    7
 10
253.76399310350507
 20
197.7567470904188
 11
263.42325136639573
 21
195.16855663939361
  0
LINE
  8
_0-d_寸法3
  6
CONTINUOUS
 62
    7
 10
303.76399310350496
 20
248.23477232465748
 11
303.7639931035045
 21
192.7567470904188
  0
LINE
  8
_0-d_寸法3
  6
CONTINUOUS
 62
    7
 10
303.76399310350456
 20
197.7567470904188
 11
294.10473484061384
 21
195.16855663939367
  0
LINE
  8
_0-d_寸法3
  6
CONTINUOUS
 62
    7
 10
303.76399310350456
 20
197.7567470904188
 11
294.1047348406139
 21
200.34493754144407
  0
LINE
  8
_0-d_寸法3
  6
CONTINUOUS
 62
    7
 10
253.76399310350507
 20
197.7567470904188
 11
303.76399310350456
 21
197.7567470904188
  0
TEXT
  8
_0-d_寸法3
 62
    7
 10
271.26399310350456
 20
197.7567470904188
 40
15
 41
1
 50
0
  1
30
  0
ARC
  8
_0-b_細線3
  6
CONTINUOUS
 62
    7
 10
258.76399310350507
 20
263.23477232465746
 40
5
 50
179.99999999999983
 51
269.99999999999977
  0
LINE
  8
_0-b_細線3
  6
CONTINUOUS
 62
    7
 10
253.76399310350507
 20
263.23477232465746
 11
253.76399310350507
 21
295.73477232465723
  0
LINE
  8
_0-b_細線3
  6
CONTINUOUS
 62
    7
 10
258.76399310350507
 20
258.23477232465746
 11
302.93065977017147
 21
258.23477232465746
  0
LINE
  8
_0-b_細線3
  6
CONTINUOUS
 62
    7
 10
303.76399310350507
 20
259.06810565799071
 11
302.93065977017147
 21
258.23477232465746
  0
LINE
  8
_0-b_細線3
  6
CONTINUOUS
 62
    7
 10
303.76399310350507
 20
262.4014389913242
 11
303.76399310350507
 21
259.06810565799071
  0
LINE
  8
_0-b_細線3
  6
CONTINUOUS
 62
    7
 10
302.93065977017147
 20
263.23477232465746
 11
303.76399310350507
 21
262.4014389913242
  0
LINE
  8
_0-b_細線3
  6
CONTINUOUS
 62
    7
 10
258.76399310350507
 20
263.23477232465746
 11
302.93065977017147
 21
263.23477232465746
  0
LINE
  8
_0-b_細線3
  6
CONTINUOUS
 62
    7
 10
254.59732643683807
 20
296.56810565799071
 11
253.76399310350507
 21
295.73477232465723
  0
LINE
  8
_0-b_細線3
  6
CONTINUOUS
 62
    7
 10
257.93065977017147
 20
296.56810565799071
 11
254.59732643683807
 21
296.56810565799071
  0
LINE
  8
_0-b_細線3
  6
CONTINUOUS
 62
    7
 10
258.76399310350507
 20
295.73477232465723
 11
257.93065977017147
 21
296.56810565799071
  0
LINE
  8
_0-b_細線3
  6
CONTINUOUS
 62
    7
 10
258.76399310350507
 20
263.23477232465746
 11
258.76399310350507
 21
295.73477232465723
  0
LINE
  8
_0-b_細線3
  6
CONTINUOUS
 62
    7
 10
267.0973264368381
 20
263.234772324657
 11
267.0973264368381
 21
296.56810565799003
  0
LINE
  8
_0-b_細線3
  6
CONTINUOUS
 62
    7
 10
267.0973264368381
 20
296.56810565799003
 11
262.0973264368381
 21
296.56810565799003
  0
LINE
  8
_0-b_細線3
  6
CONTINUOUS
 62
    7
 10
262.0973264368381
 20
296.56810565799003
 11
262.0973264368381
 21
263.234772324657
  0
LINE
  8
_0-b_細線3
  6
CONTINUOUS
 62
    7
 10
262.0973264368381
 20
263.234772324657
 11
267.0973264368381
 21
263.234772324657
  0
ARC
  8
_0-b_細線3
  6
CONTINUOUS
 62
    7
 10
303.76399310350479
 20
279.9014389913242
 40
8.75
 50
294.03943363457506
 51
65.960566365424228
  0
ARC
  8
_0-b_細線3
  6
CONTINUOUS
 62
    7
 10
303.76399310350479
 20
279.9014389913242
 40
8.75
 50
114.03943363457542
 51
245.96056636541877
  0
ARC
  8
_0-b_細線3
  6
CONTINUOUS
 62
    7
 10
303.76399310349757
 20
274.06810565793342
 40
2.4999999999928004
 50
179.99999999999983
 51
359.99999999999966
  0
LINE
  8
_0-b_細線3
  6
CONTINUOUS
 62
    7
 10
301.26399310350479
 20
285.73477232465768
 11
301.26399310350479
 21
274.06810565799094
  0
ARC
  8
_0-b_細線3
  6
CONTINUOUS
 62
    7
 10
303.76399310349757
 20
285.73477232472953
 40
2.5000000000072005
 50
0
 51
179.99999999999983
  0
LINE
  8
_0-b_細線3
  6
CONTINUOUS
 62
    7
 10
306.26399310350479
 20
274.06810565799094
 11
306.26399310350479
 21
285.73477232465768
  0
ARC
  8
_0-b_細線3
  6
CONTINUOUS
 62
    7
 10
303.76399310351024
 20
274.06810565797207
 40
4.1666666666723522
 50
179.99999999999983
 51
359.99999999999966
  0
LINE
  8
_0-b_細線3
  6
CONTINUOUS
 62
    7
 10
299.59732643683878
 20
285.73477232465768
 11
299.59732643683878
 21
274.06810565799094
  0
ARC
  8
_0-b_細線3
  6
CONTINUOUS
 62
    7
 10
303.7639931034721
 20
285.73477232475545
 40
4.1666666667000154
 50
0
 51
179.99999999999983
  0
LINE
  8
_0-b_細線3
  6
CONTINUOUS
 62
    7
 10
307.93065977017181
 20
274.06810565799094
 11
307.93065977017181
 21
285.73477232465768
  0
CIRCLE
  8
_0-a_極細3
  6
CONTINUOUS
 62
    7
 10
759.09201034476382
 20
281.83355311168737
 40
0.5530864197530718
  0
CIRCLE
  8
_0-a_極細3
  6
CONTINUOUS
 62
    7
 10
707.09201034476439
 20
282.76688644502076
 40
0.5530864197530718
  0
LINE
  8
_0-a_極細3
  6
CONTINUOUS
 62
    7
 10
695.43065977017204
 20
296.56810565799071
 11
695.43065977017204
 21
284.90143899132374
  0
LINE
  8
_0-a_極細3
  6
CONTINUOUS
 62
    7
 10
695.43065977017204
 20
296.56810565799071
 11
784.60840691528676
 21
296.56810565799071
  0
LINE
  8
_0-a_極細3
  6
CONTINUOUS
 62
    7
 10
687.09732643683867
 20
284.90143899132374
 11
784.60840691528676
 21
284.90143899132374
  0
LINE
  8
_0-a_極細3
  6
CONTINUOUS
 62
    7
 10
687.09732643683867
 20
296.56810565799071
 11
695.43065977017204
 21
296.56810565799071
  0
LINE
  8
_0-a_極細3
  6
CONTINUOUS
 62
    7
 10
687.09732643683867
 20
295.73477232465723
 11
687.09732643683867
 21
296.56810565799071
  0
LINE
  8
_0-a_極細3
  6
CONTINUOUS
 62
    7
 10
695.43065977017204
 20
288.57052527204871
 11
691.76157348944707
 21
284.90143899132374
  0
LINE
  8
_0-a_極細3
  6
CONTINUOUS
 62
    7
 10
695.43065977017204
 20
292.8131659591678
 11
687.5189328023281
 21
284.90143899132374
  0
LINE
  8
_0-a_極細3
  6
CONTINUOUS
 62
    7
 10
687.09732643683867
 20
288.72247331295387
 11
694.9429587818754
 21
296.56810565799071
  0
LINE
  8
_0-a_極細3
  6
CONTINUOUS
 62
    7
 10
687.09732643683867
 20
292.96511400007319
 11
690.70031809475597
 21
296.56810565799049
  0
LINE
  8
_0-a_極細3
  6
CONTINUOUS
 62
    7
 10
695.43065977017204
 20
295.05878344848509
 11
693.92133756066642
 21
296.56810565799071
  0
LINE
  8
_0-a_極細3
  6
CONTINUOUS
 62
    7
 10
695.43065977017204
 20
290.81614276136577
 11
689.67869687354732
 21
296.56810565799071
  0
LINE
  8
_0-a_極細3
  6
CONTINUOUS
 62
    7
 10
695.43065977017204
 20
286.57350207424645
 11
687.09732643683867
 21
294.90683540757993
  0
LINE
  8
_0-a_極細3
  6
CONTINUOUS
 62
    7
 10
692.8600821659752
 20
284.90143899132374
 11
687.09732643683867
 21
290.66419472046061
  0
LINE
  8
_0-a_極細3
  6
CONTINUOUS
 62
    7
 10
688.61744147885611
 20
284.90143899132374
 11
687.09732643683867
 21
286.42155403334129
  0
LINE
  8
_0-a_極細3
  6
CONTINUOUS
 62
    7
 10
763.88646517047493
 20
284.90143899132374
 11
775.55313121035272
 21
296.56810503120153
  0
LINE
  8
_0-a_極細3
  6
CONTINUOUS
 62
    7
 10
742.67326173487845
 20
284.90143899132397
 11
754.33992794070491
 21
296.5681051971502
  0
LINE
  8
_0-a_極細3
  6
CONTINUOUS
 62
    7
 10
721.46005829928208
 20
284.90143899132374
 11
733.12672467105688
 21
296.56810536309843
  0
LINE
  8
_0-a_極細3
  6
CONTINUOUS
 62
    7
 10
700.24685486368571
 20
284.90143899132374
 11
711.91352140140907
 21
296.5681055290471
  0
LINE
  8
_0-a_極細3
  6
DASHED2
 62
    7
 10
774.49306688827346
 20
284.90143899132397
 11
784.60840691528676
 21
295.01677901833739
  0
LINE
  8
_0-a_極細3
  6
DASHED2
 62
    7
 10
753.27986345267664
 20
284.90143899132374
 11
764.94652957552853
 21
296.56810511417564
  0
LINE
  8
_0-a_極細3
  6
DASHED2
 62
    7
 10
732.06666001708027
 20
284.90143899132374
 11
743.73332630588084
 21
296.56810528012431
  0
LINE
  8
_0-a_極細3
  6
DASHED2
 62
    7
 10
710.85345658148401
 20
284.90143899132374
 11
722.52012303623269
 21
296.56810544607276
  0
LINE
  8
_0-a_極細3
  6
DASHED2
 62
    7
 10
695.43065977017204
 20
290.69184561560826
 11
701.306919766585
 21
296.56810561202121
  0
CIRCLE
  8
_0-a_極細3
  6
CONTINUOUS
 62
    7
 10
767.09201034476337
 20
282.20361484008265
 40
1.825531472681392
  0
LINE
  8
_0-a_極細3
  6
CONTINUOUS
 62
    7
 10
753.76399310350507
 20
251.56810565799074
 11
753.76399310350507
 21
183.23477232465748
  0
LINE
  8
_0-a_極細3
  6
CONTINUOUS
 62
    7
 10
670.43065977017204
 20
183.23477232465748
 11
753.76399310350507
 21
183.23477232465748
  0
LINE
  8
_0-a_極細3
  6
CONTINUOUS
 62
    7
 10
753.76399310350507
 20
251.56810565799074
 11
784.60840691528676
 21
251.56810565799074
  0
LINE
  8
_0-a_極細3
  6
CONTINUOUS
 62
    7
 10
670.43065977017204
 20
183.23477232465748
 11
670.43065977017204
 21
156.99317202987834
  0
LINE
  8
_0-a_極細3
  6
CONTINUOUS
 62
    7
 10
762.05399551809842
 20
156.99317202987834
 11
784.60840695682748
 21
179.54758346860729
  0
LINE
  8
_0-a_極細3
  6
CONTINUOUS
 62
    7
 10
691.34331739944355
 20
156.99317202987834
 11
717.58491769422244
 21
183.23477232465748
  0
LINE
  8
_0-a_極細3
  6
CONTINUOUS
 62
    7
 10
753.76399310350507
 20
219.41384773394009
 11
784.60840691604199
 21
250.25826154647703
  0
LINE
  8
_0-a_極細3
  6
CONTINUOUS
 62
    7
 10
754.98292770623266
 20
156.99317202987834
 11
784.60840695274885
 21
186.61865127639444
  0
LINE
  8
_0-a_極細3
  6
CONTINUOUS
 62
    7
 10
684.27224958757779
 20
156.99317202987834
 11
710.51384988235714
 21
183.23477232465748
  0
LINE
  8
_0-a_極細3
  6
CONTINUOUS
 62
    7
 10
753.76399310350507
 20
226.48491554580562
 11
778.84718303614011
 21
251.56810547844032
  0
LINE
  8
_0-a_極細3
  6
CONTINUOUS
 62
    7
 10
747.91185989436735
 20
156.99317202987834
 11
784.60840694867011
 21
193.68971908418132
  0
LINE
  8
_0-a_極細3
  6
CONTINUOUS
 62
    7
 10
677.20118177571248
 20
156.99317202987834
 11
703.44278207049183
 21
183.23477232465748
  0
LINE
  8
_0-a_極細3
  6
CONTINUOUS
 62
    7
 10
753.76399310350507
 20
233.55598335767115
 11
771.77611527489091
 21
251.56810552905642
  0
CIRCLE
  8
_0-a_極細3
  6
CONTINUOUS
 62
    7
 10
656.83645478920926
 20
242.08910866724352
 40
0.5530864197530718
  0
CIRCLE
  8
_0-a_極細3
  6
CONTINUOUS
 62
    7
 10
666.79201034476466
 20
246.88910866724348
 40
0.5530864197530718
  0
CIRCLE
  8
_0-a_極細3
  6
CONTINUOUS
 62
    7
 10
662.70312145587604
 20
221.91133088946606
 40
0.5530864197530718
  0
CIRCLE
  8
_0-a_極細3
  6
CONTINUOUS
 62
    7
 10
680.23645478920935
 20
204.88910866724396
 40
0.5530864197530718
  0
CIRCLE
  8
_0-a_極細3
  6
CONTINUOUS
 62
    7
 10
662.40312145587598
 20
181.58910866724426
 40
0.5530864197530718
  0
CIRCLE
  8
_0-a_極細3
  6
CONTINUOUS
 62
    7
 10
653.06978812254283
 20
163.72244200057764
 40
0.5530864197530718
  0
CIRCLE
  8
_0-a_極細3
  6
CONTINUOUS
 62
    7
 10
664.53645478920907
 20
193.58910866724401
 40
0.5530864197530718
  0
CIRCLE
  8
_0-a_極細3
  6
CONTINUOUS
 62
    7
 10
678.40312145587586
 20
188.78910866724402
 40
0.5530864197530718
  0
CIRCLE
  8
_0-a_極細3
  6
CONTINUOUS
 62
    7
 10
705.33645478920926
 20
189.05577533391067
 40
0.5530864197530718
  0
CIRCLE
  8
_0-a_極細3
  6
CONTINUOUS
 62
    7
 10
693.33645478920926
 20
198.12244200057734
 40
0.5530864197530718
  0
CIRCLE
  8
_0-a_極細3
  6
CONTINUOUS
 62
    7
 10
704.53645478920907
 20
203.72244200057722
 40
0.5530864197530718
  0
CIRCLE
  8
_0-a_極細3
  6
CONTINUOUS
 62
    7
 10
692.55867701143097
 20
258.01133088946551
 40
0.5530864197530718
  0
CIRCLE
  8
_0-a_極細3
  6
CONTINUOUS
 62
    7
 10
713.09201034476428
 20
257.30021977835452
 40
0.5530864197530718
  0
CIRCLE
  8
_0-a_極細3
  6
CONTINUOUS
 62
    7
 10
701.49201034476437
 20
243.30021977835455
 40
0.5530864197530718
  0
CIRCLE
  8
_0-a_極細3
  6
CONTINUOUS
 62
    7
 10
740.69201034476418
 20
190.10021977835521
 40
0.5530864197530718
  0
CIRCLE
  8
_0-a_極細3
  6
CONTINUOUS
 62
    7
 10
747.892010344764
 20
204.10021977835513
 40
0.5530864197530718
  0
CIRCLE
  8
_0-a_極細3
  6
CONTINUOUS
 62
    7
 10
746.29201034476364
 20
224.90021977835488
 40
0.5530864197530718
  0
CIRCLE
  8
_0-a_極細3
  6
CONTINUOUS
 62
    7
 10
728.29201034476409
 20
246.10021977835473
 40
0.5530864197530718
  0
CIRCLE
  8
_0-a_極細3
  6
CONTINUOUS
 62
    7
 10
745.09201034476393
 20
265.70021977835438
 40
0.5530864197530718
  0
CIRCLE
  8
_0-a_極細3
  6
CONTINUOUS
 62
    7
 10
742.29201034476364
 20
238.90021977835465
 40
0.5530864197530718
  0
CIRCLE
  8
_0-a_極細3
  6
CONTINUOUS
 62
    7
 10
771.89201034476355
 20
260.10021977835447
 40
0.5530864197530718
  0
CIRCLE
  8
_0-a_極細3
  6
CONTINUOUS
 62
    7
 10
751.4475659003192
 20
258.40361484008292
 40
1.825531472681392
  0
CIRCLE
  8
_0-a_極細3
  6
CONTINUOUS
 62
    7
 10
696.02534367809767
 20
264.98139261786071
 40
1.825531472681392
  0
CIRCLE
  8
_0-a_極細3
  6
CONTINUOUS
 62
    7
 10
728.02534367809722
 20
232.98139261786093
 40
1.825531472681392
  0
CIRCLE
  8
_0-a_極細3
  6
CONTINUOUS
 62
    7
 10
657.63089923365396
 20
188.43139261786149
 40
1.825531472681392
  0
CIRCLE
  8
_0-a_極細3
  6
CONTINUOUS
 62
    7
 10
667.85312145587568
 20
218.29805928452799
 40
1.825531472681392
  0
CIRCLE
  8
_0-a_極細3
  6
CONTINUOUS
 62
    7
 10
703.0531214558755
 20
195.89805928452819
 40
1.825531472681392
  0
CIRCLE
  8
_0-a_極細3
  6
CONTINUOUS
 62
    7
 10
749.31831409115932
 20
185.71100689255871
 40
1.825531472681392
  0
CIRCLE
  8
_0-a_極細3
  6
CONTINUOUS
 62
    7
 10
698.65312145587541
 20
239.09805928452772
 40
1.825531472681392
  0
CIRCLE
  8
_0-a_極細3
  6
CONTINUOUS
 62
    7
 10
651.18707207315992
 20
233.67485387749127
 40
0.5530864197530718
  0
CIRCLE
  8
_0-a_極細3
  6
CONTINUOUS
 62
    7
 10
651.38707207316077
 20
209.71929832193598
 40
0.5530864197530718
  0
CIRCLE
  8
_0-a_極細3
  6
CONTINUOUS
 62
    7
 10
728.42534367809731
 20
270.4480592845274
 40
1.825531472681392
  0
LINE
  8
_0-a_極細3
  6
CONTINUOUS
 62
    7
 10
637.93065977017113
 20
258.23477232465746
 11
637.0973264368381
 21
258.23477232465746
  0
LINE
  8
_0-a_極細3
  6
CONTINUOUS
 62
    7
 10
637.0973264368381
 20
258.23477232465746
 11
637.0973264368381
 21
156.99317202987834
  0
CIRCLE
  8
_0-a_極細3
  6
CONTINUOUS
 62
    7
 10
643.08172227892146
 20
218.17799755613271
 40
0.5530864197530718
  0
CIRCLE
  8
_0-a_極細3
  6
CONTINUOUS
 62
    7
 10
644.38830664106138
 20
178.92244200057746
 40
0.5530864197530718
  0
CIRCLE
  8
_0-a_極細3
  6
CONTINUOUS
 62
    7
 10
643.74941775217167
 20
244.875837062306
 40
1.825531472681392
  0
CIRCLE
  8
_0-a_極細3
  6
CONTINUOUS
 62
    7
 10
646.69756590031966
 20
172.25361484008351
 40
1.825531472681392
  0
LINE
  8
_0-a_極細3
  6
CONTINUOUS
 62
    7
 10
730.73739465732388
 20
208.11647348716099
 11
735.86769680720909
 21
222.21186279894951
  0
LINE
  8
_0-a_極細3
  6
CONTINUOUS
 62
    7
 10
680.74335198352765
 20
242.27548349819574
 11
675.61304983364289
 21
228.18009418640727
  0
LINE
  8
_0-a_極細3
  6
CONTINUOUS
 62
    7
 10
735.86769680720909
 20
222.21186279894951
 11
680.74335198352765
 21
242.27548349819574
  0
LINE
  8
_0-a_極細3
  6
CONTINUOUS
 62
    7
 10
730.73739465732388
 20
208.11647348716099
 11
675.61304983364289
 21
228.18009418640727
  0
LINE
  8
_0-a_極細3
  6
CENTER1
 62
    7
 10
738.25797912425924
 20
213.36053810302531
 11
674.22695864169373
 21
236.66592358806076
  0
LINE
  8
_0-a_極細3
  6
CONTINUOUS
 62
    7
 10
712.09732643683867
 20
183.23477232465748
 11
712.09732643683867
 21
227.32033367297359
  0
LINE
  8
_0-a_極細3
  6
CONTINUOUS
 62
    7
 10
712.09732643683867
 20
227.32033367297359
 11
727.09732643683867
 21
227.32033367297359
  0
LINE
  8
_0-a_極細3
  6
CONTINUOUS
 62
    7
 10
727.09732643683867
 20
227.32033367297359
 11
727.09732643683867
 21
183.23477232465748
  0
LINE
  8
_0-a_極細3
  6
CENTER1
 62
    7
 10
719.59732643683867
 20
174.95803204020461
 11
719.59732643683867
 21
231.5960538375831
  0
CIRCLE
  8
_0-a_極細3
  6
CONTINUOUS
 62
    7
 10
713.71423256698699
 20
240.39651607465103
 40
0.5530864197530718
  0
CIRCLE
  8
_0-a_極細3
  6
CONTINUOUS
 62
    7
 10
735.93041912391402
 20
227.05330619810809
 40
0.5530864197530718
  0
LINE
  8
_0-d_寸法3
  6
CONTINUOUS
 62
    7
 10
687.09732643683901
 20
209.9014389913242
 11
687.09732643683901
 21
192.7567470904188
  0
LINE
  8
_0-d_寸法3
  6
CONTINUOUS
 62
    7
 10
687.09732643683901
 20
197.7567470904188
 11
677.4380681739483
 21
195.16855663939361
  0
LINE
  8
_0-d_寸法3
  6
CONTINUOUS
 62
    7
 10
687.09732643683901
 20
197.7567470904188
 11
677.4380681739483
 21
200.34493754144407
  0
LINE
  8
_0-d_寸法3
  6
CONTINUOUS
 62
    7
 10
637.09732643683901
 20
248.23477232465748
 11
637.09732643683901
 21
192.7567470904188
  0
LINE
  8
_0-d_寸法3
  6
CONTINUOUS
 62
    7
 10
637.09732643683901
 20
197.7567470904188
 11
646.75658469972973
 21
200.34493754144407
  0
LINE
  8
_0-d_寸法3
  6
CONTINUOUS
 62
    7
 10
637.09732643683901
 20
197.7567470904188
 11
646.75658469972973
 21
195.16855663939367
  0
LINE
  8
_0-d_寸法3
  6
CONTINUOUS
 62
    7
 10
687.09732643683901
 20
197.7567470904188
 11
637.09732643683901
 21
197.7567470904188
  0
TEXT
  8
_0-d_寸法3
 62
    7
 10
654.59732643683901
 20
197.7567470904188
 40
15
 41
1
 50
0
  1
30
  0
ARC
  8
_0-b_細線3
  6
CONTINUOUS
 62
    7
 10
682.09732643683867
 20
263.23477232465746
 40
5
 50
269.99999999999977
 51
359.99999999999966
  0
LINE
  8
_0-b_細線3
  6
CONTINUOUS
 62
    7
 10
687.09732643683867
 20
263.23477232465746
 11
687.09732643683867
 21
295.73477232465723
  0
LINE
  8
_0-b_細線3
  6
CONTINUOUS
 62
    7
 10
682.09732643683867
 20
258.23477232465746
 11
637.93065977017113
 21
258.23477232465746
  0
LINE
  8
_0-b_細線3
  6
CONTINUOUS
 62
    7
 10
637.0973264368381
 20
259.06810565799071
 11
637.93065977017113
 21
258.23477232465746
  0
LINE
  8
_0-b_細線3
  6
CONTINUOUS
 62
    7
 10
637.0973264368381
 20
262.4014389913242
 11
637.0973264368381
 21
259.06810565799071
  0
LINE
  8
_0-b_細線3
  6
CONTINUOUS
 62
    7
 10
637.93065977017113
 20
263.23477232465746
 11
637.0973264368381
 21
262.4014389913242
  0
LINE
  8
_0-b_細線3
  6
CONTINUOUS
 62
    7
 10
682.09732643683867
 20
263.23477232465746
 11
637.93065977017113
 21
263.23477232465746
  0
LINE
  8
_0-b_細線3
  6
CONTINUOUS
 62
    7
 10
686.26399310350553
 20
296.56810565799071
 11
687.09732643683867
 21
295.73477232465723
  0
LINE
  8
_0-b_細線3
  6
CONTINUOUS
 62
    7
 10
682.93065977017204
 20
296.56810565799071
 11
686.26399310350553
 21
296.56810565799071
  0
LINE
  8
_0-b_細線3
  6
CONTINUOUS
 62
    7
 10
682.09732643683867
 20
295.73477232465723
 11
682.93065977017204
 21
296.56810565799071
  0
LINE
  8
_0-b_細線3
  6
CONTINUOUS
 62
    7
 10
682.09732643683867
 20
263.23477232465746
 11
682.09732643683867
 21
295.73477232465723
  0
LINE
  8
_0-b_細線3
  6
CONTINUOUS
 62
    7
 10
673.76399310350553
 20
263.23477232465768
 11
673.76399310350553
 21
296.56810565799071
  0
LINE
  8
_0-b_細線3
  6
CONTINUOUS
 62
    7
 10
673.76399310350553
 20
296.56810565799071
 11
678.76399310350553
 21
296.56810565799071
  0
LINE
  8
_0-b_細線3
  6
CONTINUOUS
 62
    7
 10
678.76399310350553
 20
296.56810565799071
 11
678.76399310350553
 21
263.23477232465768
  0
LINE
  8
_0-b_細線3
  6
CONTINUOUS
 62
    7
 10
678.76399310350553
 20
263.23477232465768
 11
673.76399310350553
 21
263.23477232465768
  0
ARC
  8
_0-b_細線3
  6
CONTINUOUS
 62
    7
 10
637.09732643683856
 20
279.9014389913242
 40
8.75
 50
294.03943363457506
 51
65.960566365424228
  0
ARC
  8
_0-b_細線3
  6
CONTINUOUS
 62
    7
 10
637.09732643683856
 20
279.9014389913242
 40
8.75
 50
114.03943363457542
 51
245.96056636541877
  0
ARC
  8
_0-b_細線3
  6
CONTINUOUS
 62
    7
 10
637.09732643683128
 20
274.06810565793342
 40
2.4999999999928004
 50
179.99999999999983
 51
359.99999999999966
  0
LINE
  8
_0-b_細線3
  6
CONTINUOUS
 62
    7
 10
634.59732643683856
 20
285.73477232465768
 11
634.59732643683856
 21
274.06810565799094
  0
ARC
  8
_0-b_細線3
  6
CONTINUOUS
 62
    7
 10
637.09732643683128
 20
285.73477232472953
 40
2.5000000000072005
 50
0
 51
179.99999999999983
  0
LINE
  8
_0-b_細線3
  6
CONTINUOUS
 62
    7
 10
639.59732643683856
 20
274.06810565799094
 11
639.59732643683856
 21
285.73477232465768
  0
ARC
  8
_0-b_細線3
  6
CONTINUOUS
 62
    7
 10
637.09732643684401
 20
274.06810565797207
 40
4.1666666666723522
 50
179.99999999999983
 51
359.99999999999966
  0
LINE
  8
_0-b_細線3
  6
CONTINUOUS
 62
    7
 10
632.9306597701725
 20
285.73477232465768
 11
632.9306597701725
 21
274.06810565799094
  0
ARC
  8
_0-b_細線3
  6
CONTINUOUS
 62
    7
 10
637.09732643680582
 20
285.73477232475545
 40
4.1666666667000154
 50
0
 51
179.99999999999983
  0
LINE
  8
_0-b_細線3
  6
CONTINUOUS
 62
    7
 10
641.26399310350553
 20
274.06810565799094
 11
641.26399310350553
 21
285.73477232465768
  0
LINE
  8
_0-b_細線3
  6
CONTINUOUS
 62
    7
 10
673.76399310350553
 20
296.56810565799071
 11
267.0973264368381
 21
296.56810565799003
  0
LINE
  8
_0-d_寸法3
  6
CONTINUOUS
 62
    7
 10
303.76399310350507
 20
253.23477232465748
 11
303.76399310350507
 21
192.7567470904188
  0
LINE
  8
_0-d_寸法3
  6
CONTINUOUS
 62
    7
 10
303.76399310350507
 20
197.7567470904188
 11
313.42325136639573
 21
200.34493754144407
  0
LINE
  8
_0-d_寸法3
  6
CONTINUOUS
 62
    7
 10
303.76399310350507
 20
197.7567470904188
 11
313.42325136639573
 21
195.16855663939361
  0
LINE
  8
_0-d_寸法3
  6
CONTINUOUS
 62
    7
 10
637.0973264368381
 20
253.23477232465748
 11
637.0973264368381
 21
192.7567470904188
  0
LINE
  8
_0-d_寸法3
  6
CONTINUOUS
 62
    7
 10
637.0973264368381
 20
197.7567470904188
 11
627.43806817394739
 21
195.16855663939367
  0
LINE
  8
_0-d_寸法3
  6
CONTINUOUS
 62
    7
 10
637.0973264368381
 20
197.7567470904188
 11
627.43806817394739
 21
200.34493754144407
  0
LINE
  8
_0-d_寸法3
  6
CONTINUOUS
 62
    7
 10
303.76399310350507
 20
197.7567470904188
 11
637.0973264368381
 21
197.7567470904188
  0
TEXT
  8
_0-d_寸法3
 62
    7
 10
459.18065977017199
 20
197.7567470904188
 40
15
 41
1
 50
0
  1
200
  0
LINE
  8
_0-b_細線3
  6
CONTINUOUS
 62
    7
 10
673.76399310350553
 20
263.23477232465768
 11
267.0973264368381
 21
263.234772324657
  0
LINE
  8
_0-a_極細3
  6
CENTER1
 62
    7
 10
689.76408150466068
 20
279.9014389913242
 11
252.11000065896442
 21
279.9014389913242
  0
ARC
  8
_0-b_細線3
  6
CONTINUOUS
 62
    7
 10
470.43065977017199
 20
279.9014389913242
 40
8.75
 50
294.03943363457506
 51
65.960566365424228
  0
ARC
  8
_0-b_細線3
  6
CONTINUOUS
 62
    7
 10
470.43065977017199
 20
279.9014389913242
 40
8.75
 50
114.03943363457542
 51
245.96056636541877
  0
ARC
  8
_0-b_細線3
  6
CONTINUOUS
 62
    7
 10
470.43065977016477
 20
274.06810565793342
 40
2.4999999999928004
 50
179.99999999999983
 51
359.99999999999966
  0
LINE
  8
_0-b_細線3
  6
CONTINUOUS
 62
    7
 10
467.93065977017199
 20
285.73477232465768
 11
467.93065977017199
 21
274.06810565799094
  0
ARC
  8
_0-b_細線3
  6
CONTINUOUS
 62
    7
 10
470.43065977016477
 20
285.73477232472953
 40
2.5000000000072005
 50
0
 51
179.99999999999983
  0
LINE
  8
_0-b_細線3
  6
CONTINUOUS
 62
    7
 10
472.93065977017199
 20
274.06810565799094
 11
472.93065977017199
 21
285.73477232465768
  0
ARC
  8
_0-b_細線3
  6
CONTINUOUS
 62
    7
 10
470.4306597701775
 20
274.06810565797207
 40
4.1666666666723522
 50
179.99999999999983
 51
359.99999999999966
  0
LINE
  8
_0-b_細線3
  6
CONTINUOUS
 62
    7
 10
466.26399310350592
 20
285.73477232465768
 11
466.26399310350592
 21
274.06810565799094
  0
ARC
  8
_0-b_細線3
  6
CONTINUOUS
 62
    7
 10
470.43065977013924
 20
285.73477232475545
 40
4.1666666667000154
 50
0
 51
179.99999999999983
  0
LINE
  8
_0-b_細線3
  6
CONTINUOUS
 62
    7
 10
474.59732643683901
 20
274.06810565799094
 11
474.59732643683901
 21
285.73477232465768
  0
LINE
  8
_0-d_寸法3
  6
CONTINUOUS
 62
    7
 10
253.7639931035055
 20
301.56810565799071
 11
253.7639931035057
 21
421.56810565799077
  0
LINE
  8
_0-d_寸法3
  6
CONTINUOUS
 62
    7
 10
253.7639931035057
 20
416.56810565799077
 11
263.42325136639636
 21
419.1562961090159
  0
LINE
  8
_0-d_寸法3
  6
CONTINUOUS
 62
    7
 10
253.7639931035057
 20
416.56810565799077
 11
263.42325136639636
 21
413.97991520696559
  0
LINE
  8
_0-d_寸法3
  6
CONTINUOUS
 62
    7
 10
687.09732643683867
 20
301.56810565799071
 11
687.09732643683867
 21
421.56810565799077
  0
LINE
  8
_0-d_寸法3
  6
CONTINUOUS
 62
    7
 10
687.09732643683867
 20
416.56810565799077
 11
677.43806817394784
 21
413.97991520696559
  0
LINE
  8
_0-d_寸法3
  6
CONTINUOUS
 62
    7
 10
687.09732643683867
 20
416.56810565799077
 11
677.43806817394784
 21
419.15629610901595
  0
LINE
  8
_0-d_寸法3
  6
CONTINUOUS
 62
    7
 10
253.7639931035057
 20
416.56810565799077
 11
687.09732643683867
 21
416.56810565799077
  0
TEXT
  8
_0-d_寸法3
 62
    7
 10
459.18065977017199
 20
416.56810565799077
 40
15
 41
1
 50
0
  1
260
  0
LINE
  8
_0-d_寸法3
  6
CONTINUOUS
 62
    7
 10
262.0973264368385
 20
306.56810565799071
 11
262.0973264368385
 21
351.56810565799071
  0
LINE
  8
_0-d_寸法3
  6
CONTINUOUS
 62
    7
 10
262.0973264368385
 20
346.56810565799071
 11
271.75658469972916
 21
349.1562961090159
  0
LINE
  8
_0-d_寸法3
  6
CONTINUOUS
 62
    7
 10
262.0973264368385
 20
346.56810565799071
 11
271.75658469972916
 21
343.97991520696559
  0
LINE
  8
_0-d_寸法3
  6
CONTINUOUS
 62
    7
 10
303.76399310350536
 20
306.56810565799071
 11
303.76399310350553
 21
351.56810565799071
  0
LINE
  8
_0-d_寸法3
  6
CONTINUOUS
 62
    7
 10
303.76399310350553
 20
346.56810565799071
 11
294.10473484061475
 21
343.97991520696559
  0
LINE
  8
_0-d_寸法3
  6
CONTINUOUS
 62
    7
 10
303.76399310350553
 20
346.56810565799071
 11
294.10473484061481
 21
349.15629610901595
  0
LINE
  8
_0-d_寸法3
  6
CONTINUOUS
 62
    7
 10
262.0973264368385
 20
346.56810565799071
 11
303.76399310350553
 21
346.56810565799071
  0
TEXT
  8
_0-d_寸法3
 62
    7
 10
275.43065977017199
 20
346.56810565799071
 40
15
 41
1
 50
0
  1
25
  0
LINE
  8
_0-d_寸法3
  6
CONTINUOUS
 62
    7
 10
303.76399310350553
 20
346.56810565799071
 11
313.42325136639613
 21
349.15629610901584
  0
LINE
  8
_0-d_寸法3
  6
CONTINUOUS
 62
    7
 10
303.76399310350553
 20
346.56810565799071
 11
313.42325136639613
 21
343.97991520696553
  0
LINE
  8
_0-d_寸法3
  6
CONTINUOUS
 62
    7
 10
470.43065977017199
 20
306.56810565799049
 11
470.43065977017199
 21
351.56810565799071
  0
LINE
  8
_0-d_寸法3
  6
CONTINUOUS
 62
    7
 10
470.43065977017199
 20
346.56810565799071
 11
460.77140150728127
 21
343.97991520696559
  0
LINE
  8
_0-d_寸法3
  6
CONTINUOUS
 62
    7
 10
470.43065977017199
 20
346.56810565799071
 11
460.77140150728133
 21
349.15629610901595
  0
LINE
  8
_0-d_寸法3
  6
CONTINUOUS
 62
    7
 10
303.76399310350553
 20
346.56810565799071
 11
470.43065977017199
 21
346.56810565799071
  0
TEXT
  8
_0-d_寸法3
 62
    7
 10
375.84732643683873
 20
346.56810565799071
 40
15
 41
1
 50
0
  1
100
  0
LINE
  8
_0-d_寸法3
  6
CONTINUOUS
 62
    7
 10
470.43065977017199
 20
346.56810565799071
 11
480.08991803306276
 21
349.15629610901584
  0
LINE
  8
_0-d_寸法3
  6
CONTINUOUS
 62
    7
 10
470.43065977017199
 20
346.56810565799071
 11
480.08991803306265
 21
343.97991520696553
  0
LINE
  8
_0-d_寸法3
  6
CONTINUOUS
 62
    7
 10
637.0973264368381
 20
306.56810565799049
 11
637.0973264368381
 21
351.56810565799071
  0
LINE
  8
_0-d_寸法3
  6
CONTINUOUS
 62
    7
 10
637.0973264368381
 20
346.56810565799071
 11
627.43806817394739
 21
343.97991520696559
  0
LINE
  8
_0-d_寸法3
  6
CONTINUOUS
 62
    7
 10
637.0973264368381
 20
346.56810565799071
 11
627.43806817394739
 21
349.15629610901595
  0
LINE
  8
_0-d_寸法3
  6
CONTINUOUS
 62
    7
 10
470.43065977017199
 20
346.56810565799071
 11
637.0973264368381
 21
346.56810565799071
  0
TEXT
  8
_0-d_寸法3
 62
    7
 10
542.51399310350507
 20
346.56810565799071
 40
15
 41
1
 50
0
  1
100
  0
LINE
  8
_0-d_寸法3
  6
CONTINUOUS
 62
    7
 10
637.0973264368381
 20
346.56810565799071
 11
646.75658469972882
 21
349.15629610901584
  0
LINE
  8
_0-d_寸法3
  6
CONTINUOUS
 62
    7
 10
637.0973264368381
 20
346.56810565799071
 11
646.75658469972882
 21
343.97991520696553
  0
LINE
  8
_0-d_寸法3
  6
CONTINUOUS
 62
    7
 10
678.76399310350553
 20
306.56810565799071
 11
678.76399310350553
 21
351.56810565799071
  0
LINE
  8
_0-d_寸法3
  6
CONTINUOUS
 62
    7
 10
678.76399310350553
 20
346.56810565799071
 11
669.10473484061481
 21
343.97991520696559
  0
LINE
  8
_0-d_寸法3
  6
CONTINUOUS
 62
    7
 10
678.76399310350553
 20
346.56810565799071
 11
669.10473484061481
 21
349.15629610901595
  0
LINE
  8
_0-d_寸法3
  6
CONTINUOUS
 62
    7
 10
637.0973264368381
 20
346.56810565799071
 11
678.76399310350553
 21
346.56810565799071
  0
TEXT
  8
_0-d_寸法3
 62
    7
 10
650.43065977017204
 20
346.56810565799071
 40
15
 41
1
 50
0
  1
25
  0
LINE
  8
_0-7_枠細線
  6
CONTINUOUS
 62
    5
 10
1139.4018171150183
 20
373.42884000293418
 11
1139.4018171150183
 21
453.42884000293424
  0
LINE
  8
_0-7_枠細線
  6
CONTINUOUS
 62
    5
 10
1229.4018171150183
 20
373.42884000293418
 11
1229.4018171150183
 21
453.42884000293424
  0
TEXT
  8
_0-7_枠細線
 62
    5
 10
1251.9018171150183
 20
430.92884000293424
 40
15
 41
1
 50
0
  1
蓋重量
  0
LINE
  8
_0-7_枠細線
  6
CONTINUOUS
 62
    5
 10
1319.4018171150183
 20
373.42884000293418
 11
1319.4018171150183
 21
453.42884000293424
  0
TEXT
  8
_0-7_枠細線
 62
    5
 10
1341.9018171150183
 20
430.92884000293424
 40
15
 41
1
 50
0
  1
枠重量
  0
LINE
  8
_0-7_枠細線
  6
CONTINUOUS
 62
    5
 10
1139.4018171150183
 20
423.42884000293424
 11
1409.4018171150183
 21
423.42884000293424
  0
LINE
  8
_0-7_枠細線
  6
CONTINUOUS
 62
    5
 10
1139.4018171150183
 20
453.42884000293424
 11
1409.4018171150183
 21
453.42884000293424
  0
LINE
  8
_0-7_枠細線
  6
CONTINUOUS
 62
    5
 10
1139.4018171150183
 20
373.42884000293418
 11
1409.4018171150183
 21
373.42884000293418
  0
LINE
  8
_0-7_枠細線
  6
CONTINUOUS
 62
    5
 10
1409.4018171150183
 20
373.42884000293418
 11
1409.4018171150183
 21
453.42884000293424
  0
TEXT
  8
_0-7_枠細線
 62
    5
 10
1154.4018171150183
 20
430.92884000293424
 40
15
 41
1
 50
0
  1
適用荷重
  0
TEXT
  8
_0-7_枠細線
 62
    5
 10
1334.4018171150183
 20
392.17884000293424
 40
15
 41
0.8000000000000001
 50
0
  1
2.4kg/ｍ組
  0
TEXT
  8
_0-7_枠細線
 62
    5
 10
1161.9018171150183
 20
400.92884000293424
 40
15
 41
1
 50
0
  1
歩道用
  0
TEXT
  8
_0-7_枠細線
 62
    5
 10
1139.4018171150183
 20
380.92884000293418
 40
15
 41
1
 50
0
  1
（5.0kN/㎡）
  0
TEXT
  8
_0-7_枠細線
 62
    5
 10
1250.4018171150187
 20
392.17884000293424
 40
15
 41
0.8000000000000001
 50
0
  1
5.9kg/枚
  0
LINE
  8
_0-0_計極細
  6
CONTINUOUS
 62
    2
 10
1210.9337497004346
 20
684.43908616188526
 11
1204.9337497004349
 21
684.43908616188526
  0
LINE
  8
_0-0_計極細
  6
CONTINUOUS
 62
    2
 10
1210.9337497004346
 20
679.43908616188526
 11
1204.9337497004349
 21
679.43908616188526
  0
LINE
  8
_0-0_計極細
  6
CONTINUOUS
 62
    2
 10
1196.9337497004346
 20
684.43908616188526
 11
1190.9337497004346
 21
684.43908616188526
  0
LINE
  8
_0-0_計極細
  6
CONTINUOUS
 62
    2
 10
1196.9337497004346
 20
679.43908616188526
 11
1190.9337497004346
 21
679.43908616188526
  0
LINE
  8
_0-0_計極細
  6
CONTINUOUS
 62
    2
 10
1182.9337497004346
 20
684.43908616188526
 11
1176.9337497004346
 21
684.43908616188526
  0
LINE
  8
_0-0_計極細
  6
CONTINUOUS
 62
    2
 10
1182.9337497004346
 20
679.43908616188526
 11
1176.9337497004346
 21
679.43908616188526
  0
LINE
  8
_0-0_計極細
  6
CONTINUOUS
 62
    2
 10
1168.9337497004346
 20
684.43908616188526
 11
1162.9337497004346
 21
684.43908616188526
  0
LINE
  8
_0-0_計極細
  6
CONTINUOUS
 62
    2
 10
1168.9337497004346
 20
679.43908616188526
 11
1162.9337497004346
 21
679.43908616188526
  0
LINE
  8
_0-0_計極細
  6
CONTINUOUS
 62
    2
 10
1154.9337497004349
 20
684.43908616188526
 11
1148.9337497004346
 21
684.43908616188526
  0
LINE
  8
_0-0_計極細
  6
CONTINUOUS
 62
    2
 10
1154.9337497004349
 20
679.43908616188526
 11
1148.9337497004346
 21
679.43908616188526
  0
LINE
  8
_0-0_計極細
  6
CONTINUOUS
 62
    2
 10
1140.9337497004346
 20
684.43908616188526
 11
1134.9337497004349
 21
684.43908616188526
  0
LINE
  8
_0-0_計極細
  6
CONTINUOUS
 62
    2
 10
1140.9337497004346
 20
679.43908616188526
 11
1134.9337497004349
 21
679.43908616188526
  0
LINE
  8
_0-0_計極細
  6
CONTINUOUS
 62
    2
 10
1126.9337497004346
 20
684.43908616188526
 11
1120.9337497004351
 21
684.43908616188526
  0
LINE
  8
_0-0_計極細
  6
CONTINUOUS
 62
    2
 10
1126.9337497004346
 20
679.43908616188526
 11
1120.9337497004351
 21
679.43908616188526
  0
LINE
  8
_0-0_計極細
  6
CONTINUOUS
 62
    2
 10
1112.9337497004351
 20
684.43908616188526
 11
1106.9337497004353
 21
684.43908616188526
  0
LINE
  8
_0-0_計極細
  6
CONTINUOUS
 62
    2
 10
1112.9337497004351
 20
679.43908616188526
 11
1106.9337497004353
 21
679.43908616188526
  0
LINE
  8
_0-0_計極細
  6
CONTINUOUS
 62
    2
 10
1098.9337497004351
 20
684.43908616188526
 11
1092.9337497004351
 21
684.43908616188526
  0
LINE
  8
_0-0_計極細
  6
CONTINUOUS
 62
    2
 10
1098.9337497004351
 20
679.43908616188526
 11
1092.9337497004351
 21
679.43908616188526
  0
LINE
  8
_0-0_計極細
  6
CONTINUOUS
 62
    2
 10
1084.9337497004351
 20
684.43908616188526
 11
1078.9337497004351
 21
684.43908616188526
  0
LINE
  8
_0-0_計極細
  6
CONTINUOUS
 62
    2
 10
1084.9337497004351
 20
679.43908616188526
 11
1078.9337497004351
 21
679.43908616188526
  0
LINE
  8
_0-0_計極細
  6
CONTINUOUS
 62
    2
 10
1070.9337497004351
 20
684.43908616188526
 11
1064.9337497004351
 21
684.43908616188526
  0
LINE
  8
_0-0_計極細
  6
CONTINUOUS
 62
    2
 10
1070.9337497004351
 20
679.43908616188526
 11
1064.9337497004351
 21
679.43908616188526
  0
LINE
  8
_0-0_計極細
  6
CONTINUOUS
 62
    2
 10
1056.9337497004353
 20
684.43908616188526
 11
1050.9337497004351
 21
684.43908616188526
  0
LINE
  8
_0-0_計極細
  6
CONTINUOUS
 62
    2
 10
1056.9337497004353
 20
679.43908616188526
 11
1050.9337497004351
 21
679.43908616188526
  0
LINE
  8
_0-0_計極細
  6
CONTINUOUS
 62
    2
 10
1042.9337497004351
 20
684.43908616188526
 11
1036.9337497004353
 21
684.43908616188526
  0
LINE
  8
_0-0_計極細
  6
CONTINUOUS
 62
    2
 10
1042.9337497004351
 20
679.43908616188526
 11
1036.9337497004353
 21
679.43908616188526
  0
LINE
  8
_0-0_計極細
  6
CONTINUOUS
 62
    2
 10
1028.9337497004351
 20
684.43908616188526
 11
1022.9337497004351
 21
684.43908616188526
  0
LINE
  8
_0-0_計極細
  6
CONTINUOUS
 62
    2
 10
1028.9337497004351
 20
679.43908616188526
 11
1022.9337497004351
 21
679.43908616188526
  0
LINE
  8
_0-0_計極細
  6
CONTINUOUS
 62
    2
 10
1014.9337497004352
 20
684.43908616188526
 11
1008.9337497004351
 21
684.43908616188526
  0
LINE
  8
_0-0_計極細
  6
CONTINUOUS
 62
    2
 10
1014.9337497004352
 20
679.43908616188526
 11
1008.9337497004351
 21
679.43908616188526
  0
LINE
  8
_0-0_計極細
  6
CONTINUOUS
 62
    2
 10
1000.9337497004351
 20
684.43908616188526
 11
994.93374970043521
 21
684.43908616188526
  0
LINE
  8
_0-0_計極細
  6
CONTINUOUS
 62
    2
 10
1000.9337497004351
 20
679.43908616188526
 11
994.93374970043521
 21
679.43908616188526
  0
LINE
  8
_0-0_計極細
  6
CONTINUOUS
 62
    2
 10
986.93374970043521
 20
684.43908616188526
 11
980.9337497004351
 21
684.43908616188526
  0
LINE
  8
_0-0_計極細
  6
CONTINUOUS
 62
    2
 10
986.93374970043521
 20
679.43908616188526
 11
980.9337497004351
 21
679.43908616188526
  0
LINE
  8
_0-0_計極細
  6
CONTINUOUS
 62
    2
 10
972.9337497004351
 20
684.43908616188526
 11
966.93374970043521
 21
684.43908616188526
  0
LINE
  8
_0-0_計極細
  6
CONTINUOUS
 62
    2
 10
972.9337497004351
 20
679.43908616188526
 11
966.93374970043521
 21
679.43908616188526
  0
LINE
  8
_0-0_計極細
  6
CONTINUOUS
 62
    2
 10
958.9337497004351
 20
684.43908616188526
 11
952.9337497004351
 21
684.43908616188526
  0
LINE
  8
_0-0_計極細
  6
CONTINUOUS
 62
    2
 10
958.9337497004351
 20
679.43908616188526
 11
952.9337497004351
 21
679.43908616188526
  0
LINE
  8
_0-0_計極細
  6
CONTINUOUS
 62
    2
 10
944.93374970043521
 20
684.43908616188526
 11
938.9337497004351
 21
684.43908616188526
  0
LINE
  8
_0-0_計極細
  6
CONTINUOUS
 62
    2
 10
944.93374970043521
 20
679.43908616188526
 11
938.9337497004351
 21
679.43908616188526
  0
LINE
  8
_0-0_計極細
  6
CONTINUOUS
 62
    2
 10
930.9337497004351
 20
684.43908616188526
 11
924.93374970043521
 21
684.43908616188526
  0
LINE
  8
_0-0_計極細
  6
CONTINUOUS
 62
    2
 10
930.9337497004351
 20
679.43908616188526
 11
924.93374970043521
 21
679.43908616188526
  0
LINE
  8
_0-0_計極細
  6
CONTINUOUS
 62
    2
 10
916.93374970043521
 20
684.43908616188526
 11
910.9337497004351
 21
684.43908616188526
  0
LINE
  8
_0-0_計極細
  6
CONTINUOUS
 62
    2
 10
916.93374970043521
 20
679.43908616188526
 11
910.9337497004351
 21
679.43908616188526
  0
LINE
  8
_0-0_計極細
  6
CONTINUOUS
 62
    2
 10
902.9337497004351
 20
684.43908616188526
 11
896.93374970043521
 21
684.43908616188526
  0
LINE
  8
_0-0_計極細
  6
CONTINUOUS
 62
    2
 10
902.9337497004351
 20
679.43908616188526
 11
896.93374970043521
 21
679.43908616188526
  0
LINE
  8
_0-0_計極細
  6
CONTINUOUS
 62
    2
 10
888.9337497004351
 20
684.43908616188526
 11
882.9337497004351
 21
684.43908616188526
  0
LINE
  8
_0-0_計極細
  6
CONTINUOUS
 62
    2
 10
888.9337497004351
 20
679.43908616188526
 11
882.9337497004351
 21
679.43908616188526
  0
LINE
  8
_0-0_計極細
  6
CONTINUOUS
 62
    2
 10
874.93374970043521
 20
684.43908616188526
 11
868.9337497004351
 21
684.43908616188526
  0
LINE
  8
_0-0_計極細
  6
CONTINUOUS
 62
    2
 10
874.93374970043521
 20
679.43908616188526
 11
868.9337497004351
 21
679.43908616188526
  0
LINE
  8
_0-0_計極細
  6
CONTINUOUS
 62
    2
 10
860.9337497004351
 20
684.43908616188526
 11
854.93374970043521
 21
684.43908616188526
  0
LINE
  8
_0-0_計極細
  6
CONTINUOUS
 62
    2
 10
860.9337497004351
 20
679.43908616188526
 11
854.93374970043521
 21
679.43908616188526
  0
LINE
  8
_0-0_計極細
  6
CONTINUOUS
 62
    2
 10
846.93374970043521
 20
684.43908616188526
 11
840.9337497004351
 21
684.43908616188526
  0
LINE
  8
_0-0_計極細
  6
CONTINUOUS
 62
    2
 10
846.93374970043521
 20
679.43908616188526
 11
840.9337497004351
 21
679.43908616188526
  0
LINE
  8
_0-0_計極細
  6
CONTINUOUS
 62
    2
 10
832.9337497004351
 20
684.43908616188526
 11
826.93374970043521
 21
684.43908616188526
  0
LINE
  8
_0-0_計極細
  6
CONTINUOUS
 62
    2
 10
832.9337497004351
 20
679.43908616188526
 11
826.93374970043521
 21
679.43908616188526
  0
LINE
  8
_0-0_計極細
  6
CONTINUOUS
 62
    2
 10
818.9337497004351
 20
684.43908616188526
 11
812.9337497004351
 21
684.43908616188526
  0
LINE
  8
_0-0_計極細
  6
CONTINUOUS
 62
    2
 10
818.9337497004351
 20
679.43908616188526
 11
812.9337497004351
 21
679.43908616188526
  0
LINE
  8
_0-0_計極細
  6
CONTINUOUS
 62
    2
 10
804.93374970043521
 20
684.43908616188526
 11
798.9337497004351
 21
684.43908616188526
  0
LINE
  8
_0-0_計極細
  6
CONTINUOUS
 62
    2
 10
804.93374970043521
 20
679.43908616188526
 11
798.9337497004351
 21
679.43908616188526
  0
LINE
  8
_0-0_計極細
  6
CONTINUOUS
 62
    2
 10
790.9337497004351
 20
684.43908616188526
 11
784.93374970043521
 21
684.43908616188526
  0
LINE
  8
_0-0_計極細
  6
CONTINUOUS
 62
    2
 10
790.9337497004351
 20
679.43908616188526
 11
784.93374970043521
 21
679.43908616188526
  0
LINE
  8
_0-0_計極細
  6
CONTINUOUS
 62
    2
 10
776.93374970043521
 20
684.43908616188526
 11
770.9337497004351
 21
684.43908616188526
  0
LINE
  8
_0-0_計極細
  6
CONTINUOUS
 62
    2
 10
776.93374970043521
 20
679.43908616188526
 11
770.9337497004351
 21
679.43908616188526
  0
LINE
  8
_0-0_計極細
  6
CONTINUOUS
 62
    2
 10
762.9337497004351
 20
684.43908616188526
 11
756.9337497004351
 21
684.43908616188526
  0
LINE
  8
_0-0_計極細
  6
CONTINUOUS
 62
    2
 10
762.9337497004351
 20
679.43908616188526
 11
756.9337497004351
 21
679.43908616188526
  0
LINE
  8
_0-0_計極細
  6
CONTINUOUS
 62
    2
 10
748.9337497004351
 20
684.43908616188526
 11
742.9337497004351
 21
684.43908616188526
  0
LINE
  8
_0-0_計極細
  6
CONTINUOUS
 62
    2
 10
748.9337497004351
 20
679.43908616188526
 11
742.9337497004351
 21
679.43908616188526
  0
LINE
  8
_0-0_計極細
  6
CONTINUOUS
 62
    2
 10
734.93374970043521
 20
684.43908616188526
 11
728.9337497004351
 21
684.43908616188526
  0
LINE
  8
_0-0_計極細
  6
CONTINUOUS
 62
    2
 10
734.93374970043521
 20
679.43908616188526
 11
728.9337497004351
 21
679.43908616188526
  0
LINE
  8
_0-0_計極細
  6
CONTINUOUS
 62
    2
 10
720.9337497004351
 20
684.43908616188526
 11
714.93374970043521
 21
684.43908616188526
  0
LINE
  8
_0-0_計極細
  6
CONTINUOUS
 62
    2
 10
720.9337497004351
 20
679.43908616188526
 11
714.93374970043521
 21
679.43908616188526
  0
LINE
  8
_0-0_計極細
  6
CONTINUOUS
 62
    2
 10
706.9337497004351
 20
684.43908616188526
 11
700.9337497004351
 21
684.43908616188526
  0
LINE
  8
_0-0_計極細
  6
CONTINUOUS
 62
    2
 10
706.9337497004351
 20
679.43908616188526
 11
700.9337497004351
 21
679.43908616188526
  0
LINE
  8
_0-0_計極細
  6
CONTINUOUS
 62
    2
 10
692.9337497004351
 20
684.43908616188526
 11
686.9337497004351
 21
684.43908616188526
  0
LINE
  8
_0-0_計極細
  6
CONTINUOUS
 62
    2
 10
692.9337497004351
 20
679.43908616188526
 11
686.9337497004351
 21
679.43908616188526
  0
LINE
  8
_0-0_計極細
  6
CONTINUOUS
 62
    2
 10
678.9337497004351
 20
684.43908616188526
 11
672.9337497004351
 21
684.43908616188526
  0
LINE
  8
_0-0_計極細
  6
CONTINUOUS
 62
    2
 10
678.9337497004351
 20
679.43908616188526
 11
672.9337497004351
 21
679.43908616188526
  0
LINE
  8
_0-0_計極細
  6
CONTINUOUS
 62
    2
 10
664.93374970043521
 20
684.43908616188526
 11
658.9337497004351
 21
684.43908616188526
  0
LINE
  8
_0-0_計極細
  6
CONTINUOUS
 62
    2
 10
664.93374970043521
 20
679.43908616188526
 11
658.9337497004351
 21
679.43908616188526
  0
LINE
  8
_0-0_計極細
  6
CONTINUOUS
 62
    2
 10
650.9337497004351
 20
684.43908616188526
 11
644.93374970043521
 21
684.43908616188526
  0
LINE
  8
_0-0_計極細
  6
CONTINUOUS
 62
    2
 10
650.9337497004351
 20
679.43908616188526
 11
644.93374970043521
 21
679.43908616188526
  0
LINE
  8
_0-0_計極細
  6
CONTINUOUS
 62
    2
 10
636.9337497004351
 20
684.43908616188526
 11
630.9337497004351
 21
684.43908616188526
  0
LINE
  8
_0-0_計極細
  6
CONTINUOUS
 62
    2
 10
636.9337497004351
 20
679.43908616188526
 11
630.9337497004351
 21
679.43908616188526
  0
LINE
  8
_0-0_計極細
  6
CONTINUOUS
 62
    2
 10
622.9337497004351
 20
684.43908616188526
 11
616.9337497004351
 21
684.43908616188526
  0
LINE
  8
_0-0_計極細
  6
CONTINUOUS
 62
    2
 10
622.9337497004351
 20
679.43908616188526
 11
616.9337497004351
 21
679.43908616188526
  0
LINE
  8
_0-0_計極細
  6
CONTINUOUS
 62
    2
 10
608.9337497004351
 20
684.43908616188526
 11
602.9337497004351
 21
684.43908616188526
  0
LINE
  8
_0-0_計極細
  6
CONTINUOUS
 62
    2
 10
608.9337497004351
 20
679.43908616188526
 11
602.9337497004351
 21
679.43908616188526
  0
LINE
  8
_0-0_計極細
  6
CONTINUOUS
 62
    2
 10
594.9337497004351
 20
684.43908616188526
 11
588.9337497004351
 21
684.43908616188526
  0
LINE
  8
_0-0_計極細
  6
CONTINUOUS
 62
    2
 10
594.9337497004351
 20
679.43908616188526
 11
588.9337497004351
 21
679.43908616188526
  0
LINE
  8
_0-0_計極細
  6
CONTINUOUS
 62
    2
 10
580.9337497004351
 20
684.43908616188526
 11
574.9337497004351
 21
684.43908616188526
  0
LINE
  8
_0-0_計極細
  6
CONTINUOUS
 62
    2
 10
580.9337497004351
 20
679.43908616188526
 11
574.9337497004351
 21
679.43908616188526
  0
LINE
  8
_0-0_計極細
  6
CONTINUOUS
 62
    2
 10
566.9337497004351
 20
684.43908616188526
 11
560.9337497004351
 21
684.43908616188526
  0
LINE
  8
_0-0_計極細
  6
CONTINUOUS
 62
    2
 10
566.9337497004351
 20
679.43908616188526
 11
560.9337497004351
 21
679.43908616188526
  0
LINE
  8
_0-0_計極細
  6
CONTINUOUS
 62
    2
 10
552.9337497004351
 20
684.43908616188526
 11
546.9337497004351
 21
684.43908616188526
  0
LINE
  8
_0-0_計極細
  6
CONTINUOUS
 62
    2
 10
552.9337497004351
 20
679.43908616188526
 11
546.9337497004351
 21
679.43908616188526
  0
LINE
  8
_0-0_計極細
  6
CONTINUOUS
 62
    2
 10
538.9337497004351
 20
684.43908616188526
 11
532.9337497004351
 21
684.43908616188526
  0
LINE
  8
_0-0_計極細
  6
CONTINUOUS
 62
    2
 10
538.9337497004351
 20
679.43908616188526
 11
532.9337497004351
 21
679.43908616188526
  0
LINE
  8
_0-0_計極細
  6
CONTINUOUS
 62
    2
 10
524.9337497004351
 20
684.43908616188526
 11
518.9337497004351
 21
684.43908616188526
  0
LINE
  8
_0-0_計極細
  6
CONTINUOUS
 62
    2
 10
524.9337497004351
 20
679.43908616188526
 11
518.9337497004351
 21
679.43908616188526
  0
LINE
  8
_0-0_計極細
  6
CONTINUOUS
 62
    2
 10
510.9337497004351
 20
684.43908616188526
 11
504.9337497004351
 21
684.43908616188526
  0
LINE
  8
_0-0_計極細
  6
CONTINUOUS
 62
    2
 10
510.9337497004351
 20
679.43908616188526
 11
504.9337497004351
 21
679.43908616188526
  0
LINE
  8
_0-0_計極細
  6
CONTINUOUS
 62
    2
 10
496.93374970043516
 20
684.43908616188526
 11
490.9337497004351
 21
684.43908616188526
  0
LINE
  8
_0-0_計極細
  6
CONTINUOUS
 62
    2
 10
496.93374970043516
 20
679.43908616188526
 11
490.9337497004351
 21
679.43908616188526
  0
LINE
  8
_0-0_計極細
  6
CONTINUOUS
 62
    2
 10
482.93374970043516
 20
684.43908616188526
 11
476.93374970043516
 21
684.43908616188526
  0
LINE
  8
_0-0_計極細
  6
CONTINUOUS
 62
    2
 10
482.93374970043516
 20
679.43908616188526
 11
476.93374970043516
 21
679.43908616188526
  0
LINE
  8
_0-0_計極細
  6
CONTINUOUS
 62
    2
 10
468.9337497004351
 20
684.43908616188526
 11
462.93374970043516
 21
684.43908616188526
  0
LINE
  8
_0-0_計極細
  6
CONTINUOUS
 62
    2
 10
468.9337497004351
 20
679.43908616188526
 11
462.93374970043516
 21
679.43908616188526
  0
LINE
  8
_0-0_計極細
  6
CONTINUOUS
 62
    2
 10
454.9337497004351
 20
684.43908616188526
 11
448.9337497004351
 21
684.43908616188526
  0
LINE
  8
_0-0_計極細
  6
CONTINUOUS
 62
    2
 10
454.9337497004351
 20
679.43908616188526
 11
448.9337497004351
 21
679.43908616188526
  0
LINE
  8
_0-0_計極細
  6
CONTINUOUS
 62
    2
 10
440.9337497004351
 20
684.43908616188526
 11
434.9337497004351
 21
684.43908616188526
  0
LINE
  8
_0-0_計極細
  6
CONTINUOUS
 62
    2
 10
440.9337497004351
 20
679.43908616188526
 11
434.9337497004351
 21
679.43908616188526
  0
LINE
  8
_0-0_計極細
  6
CONTINUOUS
 62
    2
 10
426.93374970043516
 20
684.43908616188526
 11
420.9337497004351
 21
684.43908616188526
  0
LINE
  8
_0-0_計極細
  6
CONTINUOUS
 62
    2
 10
426.93374970043516
 20
679.43908616188526
 11
420.9337497004351
 21
679.43908616188526
  0
LINE
  8
_0-0_計極細
  6
CONTINUOUS
 62
    2
 10
412.93374970043516
 20
684.43908616188526
 11
406.93374970043516
 21
684.43908616188526
  0
LINE
  8
_0-0_計極細
  6
CONTINUOUS
 62
    2
 10
412.93374970043516
 20
679.43908616188526
 11
406.93374970043516
 21
679.43908616188526
  0
LINE
  8
_0-0_計極細
  6
CONTINUOUS
 62
    2
 10
398.9337497004351
 20
684.43908616188526
 11
392.93374970043516
 21
684.43908616188526
  0
LINE
  8
_0-0_計極細
  6
CONTINUOUS
 62
    2
 10
398.9337497004351
 20
679.43908616188526
 11
392.93374970043516
 21
679.43908616188526
  0
LINE
  8
_0-0_計極細
  6
CONTINUOUS
 62
    2
 10
384.9337497004351
 20
684.43908616188526
 11
378.9337497004351
 21
684.43908616188526
  0
LINE
  8
_0-0_計極細
  6
CONTINUOUS
 62
    2
 10
384.9337497004351
 20
679.43908616188526
 11
378.9337497004351
 21
679.43908616188526
  0
LINE
  8
_0-0_計極細
  6
CONTINUOUS
 62
    2
 10
370.9337497004351
 20
684.43908616188526
 11
364.9337497004351
 21
684.43908616188526
  0
LINE
  8
_0-0_計極細
  6
CONTINUOUS
 62
    2
 10
370.9337497004351
 20
679.43908616188526
 11
364.9337497004351
 21
679.43908616188526
  0
LINE
  8
_0-0_計極細
  6
CONTINUOUS
 62
    2
 10
356.93374970043516
 20
684.43908616188526
 11
350.9337497004351
 21
684.43908616188526
  0
LINE
  8
_0-0_計極細
  6
CONTINUOUS
 62
    2
 10
356.93374970043516
 20
679.43908616188526
 11
350.9337497004351
 21
679.43908616188526
  0
LINE
  8
_0-0_計極細
  6
CONTINUOUS
 62
    2
 10
342.9337497004351
 20
684.43908616188526
 11
336.93374970043516
 21
684.43908616188526
  0
LINE
  8
_0-0_計極細
  6
CONTINUOUS
 62
    2
 10
342.9337497004351
 20
679.43908616188526
 11
336.93374970043516
 21
679.43908616188526
  0
LINE
  8
_0-0_計極細
  6
CONTINUOUS
 62
    2
 10
328.9337497004351
 20
684.43908616188526
 11
322.9337497004351
 21
684.43908616188526
  0
LINE
  8
_0-0_計極細
  6
CONTINUOUS
 62
    2
 10
328.9337497004351
 20
679.43908616188526
 11
322.9337497004351
 21
679.43908616188526
  0
LINE
  8
_0-0_計極細
  6
CONTINUOUS
 62
    2
 10
314.9337497004351
 20
684.43908616188526
 11
308.9337497004351
 21
684.43908616188526
  0
LINE
  8
_0-0_計極細
  6
CONTINUOUS
 62
    2
 10
314.9337497004351
 20
679.43908616188526
 11
308.9337497004351
 21
679.43908616188526
  0
LINE
  8
_0-0_計極細
  6
CONTINUOUS
 62
    2
 10
300.9337497004351
 20
684.43908616188526
 11
294.9337497004351
 21
684.43908616188526
  0
LINE
  8
_0-0_計極細
  6
CONTINUOUS
 62
    2
 10
300.9337497004351
 20
679.43908616188526
 11
294.9337497004351
 21
679.43908616188526
  0
LINE
  8
_0-0_計極細
  6
CONTINUOUS
 62
    2
 10
286.9337497004351
 20
684.43908616188526
 11
280.9337497004351
 21
684.43908616188526
  0
LINE
  8
_0-0_計極細
  6
CONTINUOUS
 62
    2
 10
286.9337497004351
 20
679.43908616188526
 11
280.9337497004351
 21
679.43908616188526
  0
LINE
  8
_0-0_計極細
  6
CONTINUOUS
 62
    2
 10
272.93374970043516
 20
684.43908616188526
 11
266.9337497004351
 21
684.43908616188526
  0
LINE
  8
_0-0_計極細
  6
CONTINUOUS
 62
    2
 10
272.93374970043516
 20
679.43908616188526
 11
266.9337497004351
 21
679.43908616188526
  0
LINE
  8
_0-0_計極細
  6
CONTINUOUS
 62
    2
 10
258.9337497004351
 20
684.43908616188526
 11
252.93374970043516
 21
684.43908616188526
  0
LINE
  8
_0-0_計極細
  6
CONTINUOUS
 62
    2
 10
258.9337497004351
 20
679.43908616188526
 11
252.93374970043516
 21
679.43908616188526
  0
LINE
  8
_0-0_計極細
  6
CONTINUOUS
 62
    2
 10
244.9337497004351
 20
684.43908616188526
 11
238.9337497004351
 21
684.43908616188526
  0
LINE
  8
_0-0_計極細
  6
CONTINUOUS
 62
    2
 10
244.9337497004351
 20
679.43908616188526
 11
238.9337497004351
 21
679.43908616188526
  0
LINE
  8
_0-1_計細線
  6
CONTINUOUS
 62
    3
 10
230.93374970043513
 20
781.93908616188435
 11
200.93374970043513
 21
781.93908616188435
  0
LINE
  8
_0-1_計細線
  6
CONTINUOUS
 62
    3
 10
1248.9337497004346
 20
781.93908616188355
 11
1218.9337497004346
 21
781.93908616188355
  0
LINE
  8
_0-1_計細線
  6
CONTINUOUS
 62
    3
 10
199.54663257667718
 20
808.93908616188673
 11
1247.5466325766763
 21
808.93908616188583
  0
LINE
  8
_0-1_計細線
  6
CONTINUOUS
 62
    3
 10
200.93374970043513
 20
811.93908616188662
 11
1248.9337497004346
 21
811.93908616188583
  0
ARC
  8
_0-1_計細線
  6
CONTINUOUS
 62
    3
 10
188.65075445030612
 20
789.4390861618848
 40
14.391732776656191
 50
328.59175045525751
 51
31.408249544743832
  0
ARC
  8
_0-1_計細線
  6
CONTINUOUS
 62
    3
 10
213.21674495056229
 20
804.43908616188537
 40
14.391732776655743
 50
148.59175045525689
 51
211.40824954473919
  0
ARC
  8
_0-1_計細線
  6
CONTINUOUS
 62
    3
 10
1236.6507544503063
 20
789.4390861618848
 40
14.391732776656227
 50
328.59175045525899
 51
31.408249544743374
  0
ARC
  8
_0-1_計細線
  6
CONTINUOUS
 62
    3
 10
1261.2167449505625
 20
804.43908616188583
 40
14.391732776655658
 50
148.59175045525842
 51
211.40824954474121
  0
LINE
  8
_0-1_計細線
  6
CONTINUOUS
 62
    3
 10
230.93374970043513
 20
803.93908616188583
 11
238.9337497004351
 21
803.93908616188583
  0
LINE
  8
_0-1_計細線
  6
CONTINUOUS
 62
    3
 10
244.9337497004351
 20
803.93908616188583
 11
252.93374970043516
 21
803.93908616188583
  0
LINE
  8
_0-1_計細線
  6
CONTINUOUS
 62
    3
 10
258.9337497004351
 20
803.93908616188583
 11
266.9337497004351
 21
803.93908616188583
  0
LINE
  8
_0-1_計細線
  6
CONTINUOUS
 62
    3
 10
272.93374970043516
 20
803.93908616188583
 11
280.9337497004351
 21
803.93908616188583
  0
LINE
  8
_0-1_計細線
  6
CONTINUOUS
 62
    3
 10
286.9337497004351
 20
803.93908616188583
 11
294.9337497004351
 21
803.93908616188583
  0
LINE
  8
_0-1_計細線
  6
CONTINUOUS
 62
    3
 10
300.9337497004351
 20
803.93908616188583
 11
308.9337497004351
 21
803.93908616188583
  0
LINE
  8
_0-1_計細線
  6
CONTINUOUS
 62
    3
 10
314.9337497004351
 20
803.93908616188583
 11
322.9337497004351
 21
803.93908616188583
  0
LINE
  8
_0-1_計細線
  6
CONTINUOUS
 62
    3
 10
328.9337497004351
 20
803.93908616188583
 11
336.93374970043516
 21
803.93908616188583
  0
LINE
  8
_0-1_計細線
  6
CONTINUOUS
 62
    3
 10
342.9337497004351
 20
803.93908616188583
 11
350.9337497004351
 21
803.93908616188583
  0
LINE
  8
_0-1_計細線
  6
CONTINUOUS
 62
    3
 10
356.93374970043516
 20
803.93908616188583
 11
364.9337497004351
 21
803.93908616188583
  0
LINE
  8
_0-1_計細線
  6
CONTINUOUS
 62
    3
 10
370.9337497004351
 20
803.93908616188583
 11
378.9337497004351
 21
803.93908616188583
  0
LINE
  8
_0-1_計細線
  6
CONTINUOUS
 62
    3
 10
384.9337497004351
 20
803.93908616188583
 11
392.93374970043516
 21
803.93908616188583
  0
LINE
  8
_0-1_計細線
  6
CONTINUOUS
 62
    3
 10
398.9337497004351
 20
803.93908616188583
 11
406.93374970043516
 21
803.93908616188583
  0
LINE
  8
_0-1_計細線
  6
CONTINUOUS
 62
    3
 10
412.93374970043516
 20
803.93908616188583
 11
420.9337497004351
 21
803.93908616188583
  0
LINE
  8
_0-1_計細線
  6
CONTINUOUS
 62
    3
 10
426.93374970043516
 20
803.93908616188583
 11
434.9337497004351
 21
803.93908616188583
  0
LINE
  8
_0-1_計細線
  6
CONTINUOUS
 62
    3
 10
440.9337497004351
 20
803.93908616188583
 11
448.9337497004351
 21
803.93908616188583
  0
LINE
  8
_0-1_計細線
  6
CONTINUOUS
 62
    3
 10
454.9337497004351
 20
803.93908616188583
 11
462.93374970043516
 21
803.93908616188583
  0
LINE
  8
_0-1_計細線
  6
CONTINUOUS
 62
    3
 10
468.9337497004351
 20
803.93908616188583
 11
476.93374970043516
 21
803.93908616188583
  0
LINE
  8
_0-1_計細線
  6
CONTINUOUS
 62
    3
 10
482.93374970043516
 20
803.93908616188583
 11
490.9337497004351
 21
803.93908616188583
  0
LINE
  8
_0-1_計細線
  6
CONTINUOUS
 62
    3
 10
496.93374970043516
 20
803.93908616188583
 11
504.9337497004351
 21
803.93908616188583
  0
LINE
  8
_0-1_計細線
  6
CONTINUOUS
 62
    3
 10
510.9337497004351
 20
803.93908616188583
 11
518.9337497004351
 21
803.93908616188583
  0
LINE
  8
_0-1_計細線
  6
CONTINUOUS
 62
    3
 10
524.9337497004351
 20
803.93908616188583
 11
532.9337497004351
 21
803.93908616188583
  0
LINE
  8
_0-1_計細線
  6
CONTINUOUS
 62
    3
 10
538.9337497004351
 20
803.93908616188583
 11
546.9337497004351
 21
803.93908616188583
  0
LINE
  8
_0-1_計細線
  6
CONTINUOUS
 62
    3
 10
552.9337497004351
 20
803.93908616188583
 11
560.9337497004351
 21
803.93908616188583
  0
LINE
  8
_0-1_計細線
  6
CONTINUOUS
 62
    3
 10
566.9337497004351
 20
803.93908616188583
 11
574.9337497004351
 21
803.93908616188583
  0
LINE
  8
_0-1_計細線
  6
CONTINUOUS
 62
    3
 10
580.9337497004351
 20
803.93908616188583
 11
588.9337497004351
 21
803.93908616188583
  0
LINE
  8
_0-1_計細線
  6
CONTINUOUS
 62
    3
 10
594.9337497004351
 20
803.93908616188583
 11
602.9337497004351
 21
803.93908616188583
  0
LINE
  8
_0-1_計細線
  6
CONTINUOUS
 62
    3
 10
608.9337497004351
 20
803.93908616188583
 11
616.9337497004351
 21
803.93908616188583
  0
LINE
  8
_0-1_計細線
  6
CONTINUOUS
 62
    3
 10
622.9337497004351
 20
803.93908616188583
 11
630.9337497004351
 21
803.93908616188583
  0
LINE
  8
_0-1_計細線
  6
CONTINUOUS
 62
    3
 10
636.9337497004351
 20
803.93908616188583
 11
644.93374970043521
 21
803.93908616188583
  0
LINE
  8
_0-1_計細線
  6
CONTINUOUS
 62
    3
 10
650.9337497004351
 20
803.93908616188583
 11
658.9337497004351
 21
803.93908616188583
  0
LINE
  8
_0-1_計細線
  6
CONTINUOUS
 62
    3
 10
664.93374970043521
 20
803.93908616188583
 11
672.9337497004351
 21
803.93908616188583
  0
LINE
  8
_0-1_計細線
  6
CONTINUOUS
 62
    3
 10
678.9337497004351
 20
803.93908616188583
 11
686.9337497004351
 21
803.93908616188583
  0
LINE
  8
_0-1_計細線
  6
CONTINUOUS
 62
    3
 10
692.9337497004351
 20
803.93908616188583
 11
700.9337497004351
 21
803.93908616188583
  0
LINE
  8
_0-1_計細線
  6
CONTINUOUS
 62
    3
 10
706.9337497004351
 20
803.93908616188583
 11
714.93374970043521
 21
803.93908616188583
  0
LINE
  8
_0-1_計細線
  6
CONTINUOUS
 62
    3
 10
720.9337497004351
 20
803.93908616188583
 11
728.9337497004351
 21
803.93908616188583
  0
LINE
  8
_0-1_計細線
  6
CONTINUOUS
 62
    3
 10
734.93374970043521
 20
803.93908616188583
 11
742.9337497004351
 21
803.93908616188583
  0
LINE
  8
_0-1_計細線
  6
CONTINUOUS
 62
    3
 10
748.9337497004351
 20
803.93908616188583
 11
756.9337497004351
 21
803.93908616188583
  0
LINE
  8
_0-1_計細線
  6
CONTINUOUS
 62
    3
 10
762.9337497004351
 20
803.93908616188583
 11
770.9337497004351
 21
803.93908616188583
  0
LINE
  8
_0-1_計細線
  6
CONTINUOUS
 62
    3
 10
776.93374970043521
 20
803.93908616188583
 11
784.93374970043521
 21
803.93908616188583
  0
LINE
  8
_0-1_計細線
  6
CONTINUOUS
 62
    3
 10
790.9337497004351
 20
803.93908616188583
 11
798.9337497004351
 21
803.93908616188583
  0
LINE
  8
_0-1_計細線
  6
CONTINUOUS
 62
    3
 10
804.93374970043521
 20
803.93908616188583
 11
812.9337497004351
 21
803.93908616188583
  0
LINE
  8
_0-1_計細線
  6
CONTINUOUS
 62
    3
 10
818.9337497004351
 20
803.93908616188583
 11
826.93374970043521
 21
803.93908616188583
  0
LINE
  8
_0-1_計細線
  6
CONTINUOUS
 62
    3
 10
832.9337497004351
 20
803.93908616188583
 11
840.9337497004351
 21
803.93908616188583
  0
LINE
  8
_0-1_計細線
  6
CONTINUOUS
 62
    3
 10
846.93374970043521
 20
803.93908616188583
 11
854.93374970043521
 21
803.93908616188583
  0
LINE
  8
_0-1_計細線
  6
CONTINUOUS
 62
    3
 10
860.9337497004351
 20
803.93908616188583
 11
868.9337497004351
 21
803.93908616188583
  0
LINE
  8
_0-1_計細線
  6
CONTINUOUS
 62
    3
 10
874.93374970043521
 20
803.93908616188583
 11
882.9337497004351
 21
803.93908616188583
  0
LINE
  8
_0-1_計細線
  6
CONTINUOUS
 62
    3
 10
888.9337497004351
 20
803.93908616188583
 11
896.93374970043521
 21
803.93908616188583
  0
LINE
  8
_0-1_計細線
  6
CONTINUOUS
 62
    3
 10
902.9337497004351
 20
803.93908616188583
 11
910.9337497004351
 21
803.93908616188583
  0
LINE
  8
_0-1_計細線
  6
CONTINUOUS
 62
    3
 10
916.93374970043521
 20
803.93908616188583
 11
924.93374970043521
 21
803.93908616188583
  0
LINE
  8
_0-1_計細線
  6
CONTINUOUS
 62
    3
 10
930.9337497004351
 20
803.93908616188583
 11
938.9337497004351
 21
803.93908616188583
  0
LINE
  8
_0-1_計細線
  6
CONTINUOUS
 62
    3
 10
944.93374970043521
 20
803.93908616188583
 11
952.9337497004351
 21
803.93908616188583
  0
LINE
  8
_0-1_計細線
  6
CONTINUOUS
 62
    3
 10
958.9337497004351
 20
803.93908616188583
 11
966.93374970043521
 21
803.93908616188583
  0
LINE
  8
_0-1_計細線
  6
CONTINUOUS
 62
    3
 10
972.9337497004351
 20
803.93908616188583
 11
980.9337497004351
 21
803.93908616188583
  0
LINE
  8
_0-1_計細線
  6
CONTINUOUS
 62
    3
 10
986.93374970043521
 20
803.93908616188583
 11
994.93374970043521
 21
803.93908616188583
  0
LINE
  8
_0-1_計細線
  6
CONTINUOUS
 62
    3
 10
1000.9337497004351
 20
803.93908616188583
 11
1008.9337497004351
 21
803.93908616188583
  0
LINE
  8
_0-1_計細線
  6
CONTINUOUS
 62
    3
 10
1014.9337497004352
 20
803.93908616188583
 11
1022.9337497004351
 21
803.93908616188583
  0
LINE
  8
_0-1_計細線
  6
CONTINUOUS
 62
    3
 10
1028.9337497004351
 20
803.93908616188583
 11
1036.9337497004353
 21
803.93908616188583
  0
LINE
  8
_0-1_計細線
  6
CONTINUOUS
 62
    3
 10
1042.9337497004351
 20
803.93908616188583
 11
1050.9337497004351
 21
803.93908616188583
  0
LINE
  8
_0-1_計細線
  6
CONTINUOUS
 62
    3
 10
1056.9337497004353
 20
803.93908616188583
 11
1064.9337497004351
 21
803.93908616188583
  0
LINE
  8
_0-1_計細線
  6
CONTINUOUS
 62
    3
 10
1070.9337497004351
 20
803.93908616188583
 11
1078.9337497004351
 21
803.93908616188583
  0
LINE
  8
_0-1_計細線
  6
CONTINUOUS
 62
    3
 10
1084.9337497004351
 20
803.93908616188583
 11
1092.9337497004351
 21
803.93908616188583
  0
LINE
  8
_0-1_計細線
  6
CONTINUOUS
 62
    3
 10
1098.9337497004351
 20
803.93908616188583
 11
1106.9337497004353
 21
803.93908616188583
  0
LINE
  8
_0-1_計細線
  6
CONTINUOUS
 62
    3
 10
1112.9337497004351
 20
803.93908616188583
 11
1120.9337497004351
 21
803.93908616188583
  0
LINE
  8
_0-1_計細線
  6
CONTINUOUS
 62
    3
 10
1126.9337497004346
 20
803.93908616188583
 11
1134.9337497004349
 21
803.93908616188583
  0
LINE
  8
_0-1_計細線
  6
CONTINUOUS
 62
    3
 10
1140.9337497004346
 20
803.93908616188583
 11
1148.9337497004346
 21
803.93908616188583
  0
LINE
  8
_0-1_計細線
  6
CONTINUOUS
 62
    3
 10
1154.9337497004349
 20
803.93908616188583
 11
1162.9337497004346
 21
803.93908616188583
  0
LINE
  8
_0-1_計細線
  6
CONTINUOUS
 62
    3
 10
1168.9337497004346
 20
803.93908616188583
 11
1176.9337497004346
 21
803.93908616188583
  0
LINE
  8
_0-1_計細線
  6
CONTINUOUS
 62
    3
 10
1182.9337497004346
 20
803.93908616188583
 11
1190.9337497004346
 21
803.93908616188583
  0
LINE
  8
_0-1_計細線
  6
CONTINUOUS
 62
    3
 10
1196.9337497004346
 20
803.93908616188583
 11
1204.9337497004349
 21
803.93908616188583
  0
LINE
  8
_0-1_計細線
  6
CONTINUOUS
 62
    3
 10
1210.9337497004346
 20
803.93908616188583
 11
1218.9337497004346
 21
803.93908616188583
  0
LINE
  8
_0-1_計細線
  6
CONTINUOUS
 62
    3
 10
1218.9337497004346
 20
803.93908616188583
 11
1218.9337497004346
 21
806.93908616188583
  0
LINE
  8
_0-1_計細線
  6
CONTINUOUS
 62
    3
 10
230.93374970043513
 20
803.93908616188583
 11
1218.9337497004346
 21
803.93908616188583
  0
LINE
  8
_0-1_計細線
  6
CONTINUOUS
 62
    3
 10
230.93374970043513
 20
806.93908616188583
 11
230.93374970043513
 21
803.93908616188583
  0
LINE
  8
_0-1_計細線
  6
CONTINUOUS
 62
    3
 10
1218.9337497004346
 20
806.93908616188583
 11
230.93374970043513
 21
806.93908616188583
  0
LINE
  8
_0-0_計極細
  6
CONTINUOUS
 62
    2
 10
1210.9337497004346
 20
784.43908616188583
 11
1204.9337497004349
 21
784.43908616188583
  0
LINE
  8
_0-0_計極細
  6
CONTINUOUS
 62
    2
 10
1210.9337497004346
 20
779.43908616188435
 11
1204.9337497004349
 21
779.43908616188435
  0
LINE
  8
_0-0_計極細
  6
CONTINUOUS
 62
    2
 10
1196.9337497004346
 20
784.43908616188583
 11
1190.9337497004346
 21
784.43908616188583
  0
LINE
  8
_0-0_計極細
  6
CONTINUOUS
 62
    2
 10
1196.9337497004346
 20
779.43908616188435
 11
1190.9337497004346
 21
779.43908616188435
  0
LINE
  8
_0-0_計極細
  6
CONTINUOUS
 62
    2
 10
1182.9337497004346
 20
784.43908616188583
 11
1176.9337497004346
 21
784.43908616188583
  0
LINE
  8
_0-0_計極細
  6
CONTINUOUS
 62
    2
 10
1182.9337497004346
 20
779.43908616188435
 11
1176.9337497004346
 21
779.43908616188435
  0
LINE
  8
_0-0_計極細
  6
CONTINUOUS
 62
    2
 10
1168.9337497004346
 20
784.43908616188583
 11
1162.9337497004346
 21
784.43908616188583
  0
LINE
  8
_0-0_計極細
  6
CONTINUOUS
 62
    2
 10
1168.9337497004346
 20
779.43908616188435
 11
1162.9337497004346
 21
779.43908616188435
  0
LINE
  8
_0-0_計極細
  6
CONTINUOUS
 62
    2
 10
1154.9337497004349
 20
784.43908616188583
 11
1148.9337497004346
 21
784.43908616188583
  0
LINE
  8
_0-0_計極細
  6
CONTINUOUS
 62
    2
 10
1154.9337497004349
 20
779.43908616188435
 11
1148.9337497004346
 21
779.43908616188435
  0
LINE
  8
_0-0_計極細
  6
CONTINUOUS
 62
    2
 10
1140.9337497004346
 20
784.43908616188583
 11
1134.9337497004349
 21
784.43908616188583
  0
LINE
  8
_0-0_計極細
  6
CONTINUOUS
 62
    2
 10
1140.9337497004346
 20
779.43908616188435
 11
1134.9337497004349
 21
779.43908616188435
  0
LINE
  8
_0-0_計極細
  6
CONTINUOUS
 62
    2
 10
1126.9337497004346
 20
784.43908616188583
 11
1120.9337497004351
 21
784.43908616188583
  0
LINE
  8
_0-0_計極細
  6
CONTINUOUS
 62
    2
 10
1126.9337497004346
 20
779.43908616188435
 11
1120.9337497004351
 21
779.43908616188435
  0
LINE
  8
_0-0_計極細
  6
CONTINUOUS
 62
    2
 10
1112.9337497004351
 20
784.43908616188583
 11
1106.9337497004353
 21
784.43908616188583
  0
LINE
  8
_0-0_計極細
  6
CONTINUOUS
 62
    2
 10
1112.9337497004351
 20
779.43908616188435
 11
1106.9337497004353
 21
779.43908616188435
  0
LINE
  8
_0-0_計極細
  6
CONTINUOUS
 62
    2
 10
1098.9337497004351
 20
784.43908616188583
 11
1092.9337497004351
 21
784.43908616188583
  0
LINE
  8
_0-0_計極細
  6
CONTINUOUS
 62
    2
 10
1098.9337497004351
 20
779.43908616188435
 11
1092.9337497004351
 21
779.43908616188435
  0
LINE
  8
_0-0_計極細
  6
CONTINUOUS
 62
    2
 10
1084.9337497004351
 20
784.43908616188583
 11
1078.9337497004351
 21
784.43908616188583
  0
LINE
  8
_0-0_計極細
  6
CONTINUOUS
 62
    2
 10
1084.9337497004351
 20
779.43908616188435
 11
1078.9337497004351
 21
779.43908616188435
  0
LINE
  8
_0-0_計極細
  6
CONTINUOUS
 62
    2
 10
1070.9337497004351
 20
784.43908616188583
 11
1064.9337497004351
 21
784.43908616188583
  0
LINE
  8
_0-0_計極細
  6
CONTINUOUS
 62
    2
 10
1070.9337497004351
 20
779.43908616188435
 11
1064.9337497004351
 21
779.43908616188435
  0
LINE
  8
_0-0_計極細
  6
CONTINUOUS
 62
    2
 10
1056.9337497004353
 20
784.43908616188583
 11
1050.9337497004351
 21
784.43908616188583
  0
LINE
  8
_0-0_計極細
  6
CONTINUOUS
 62
    2
 10
1056.9337497004353
 20
779.43908616188435
 11
1050.9337497004351
 21
779.43908616188435
  0
LINE
  8
_0-0_計極細
  6
CONTINUOUS
 62
    2
 10
1042.9337497004351
 20
784.43908616188583
 11
1036.9337497004353
 21
784.43908616188583
  0
LINE
  8
_0-0_計極細
  6
CONTINUOUS
 62
    2
 10
1042.9337497004351
 20
779.43908616188435
 11
1036.9337497004353
 21
779.43908616188435
  0
LINE
  8
_0-0_計極細
  6
CONTINUOUS
 62
    2
 10
1028.9337497004351
 20
784.43908616188583
 11
1022.9337497004351
 21
784.43908616188583
  0
LINE
  8
_0-0_計極細
  6
CONTINUOUS
 62
    2
 10
1028.9337497004351
 20
779.43908616188435
 11
1022.9337497004351
 21
779.43908616188435
  0
LINE
  8
_0-0_計極細
  6
CONTINUOUS
 62
    2
 10
1014.9337497004352
 20
784.43908616188583
 11
1008.9337497004351
 21
784.43908616188583
  0
LINE
  8
_0-0_計極細
  6
CONTINUOUS
 62
    2
 10
1014.9337497004352
 20
779.43908616188435
 11
1008.9337497004351
 21
779.43908616188435
  0
LINE
  8
_0-0_計極細
  6
CONTINUOUS
 62
    2
 10
1000.9337497004351
 20
784.43908616188583
 11
994.93374970043521
 21
784.43908616188583
  0
LINE
  8
_0-0_計極細
  6
CONTINUOUS
 62
    2
 10
1000.9337497004351
 20
779.43908616188435
 11
994.93374970043521
 21
779.43908616188435
  0
LINE
  8
_0-0_計極細
  6
CONTINUOUS
 62
    2
 10
986.93374970043521
 20
784.43908616188583
 11
980.9337497004351
 21
784.43908616188583
  0
LINE
  8
_0-0_計極細
  6
CONTINUOUS
 62
    2
 10
986.93374970043521
 20
779.43908616188435
 11
980.9337497004351
 21
779.43908616188435
  0
LINE
  8
_0-0_計極細
  6
CONTINUOUS
 62
    2
 10
972.9337497004351
 20
784.43908616188583
 11
966.93374970043521
 21
784.43908616188583
  0
LINE
  8
_0-0_計極細
  6
CONTINUOUS
 62
    2
 10
972.9337497004351
 20
779.43908616188435
 11
966.93374970043521
 21
779.43908616188435
  0
LINE
  8
_0-0_計極細
  6
CONTINUOUS
 62
    2
 10
958.9337497004351
 20
784.43908616188583
 11
952.9337497004351
 21
784.43908616188583
  0
LINE
  8
_0-0_計極細
  6
CONTINUOUS
 62
    2
 10
958.9337497004351
 20
779.43908616188435
 11
952.9337497004351
 21
779.43908616188435
  0
LINE
  8
_0-0_計極細
  6
CONTINUOUS
 62
    2
 10
944.93374970043521
 20
784.43908616188583
 11
938.9337497004351
 21
784.43908616188583
  0
LINE
  8
_0-0_計極細
  6
CONTINUOUS
 62
    2
 10
944.93374970043521
 20
779.43908616188435
 11
938.9337497004351
 21
779.43908616188435
  0
LINE
  8
_0-0_計極細
  6
CONTINUOUS
 62
    2
 10
930.9337497004351
 20
784.43908616188583
 11
924.93374970043521
 21
784.43908616188583
  0
LINE
  8
_0-0_計極細
  6
CONTINUOUS
 62
    2
 10
930.9337497004351
 20
779.43908616188435
 11
924.93374970043521
 21
779.43908616188435
  0
LINE
  8
_0-0_計極細
  6
CONTINUOUS
 62
    2
 10
916.93374970043521
 20
784.43908616188583
 11
910.9337497004351
 21
784.43908616188583
  0
LINE
  8
_0-0_計極細
  6
CONTINUOUS
 62
    2
 10
916.93374970043521
 20
779.43908616188435
 11
910.9337497004351
 21
779.43908616188435
  0
LINE
  8
_0-0_計極細
  6
CONTINUOUS
 62
    2
 10
902.9337497004351
 20
784.43908616188583
 11
896.93374970043521
 21
784.43908616188583
  0
LINE
  8
_0-0_計極細
  6
CONTINUOUS
 62
    2
 10
902.9337497004351
 20
779.43908616188435
 11
896.93374970043521
 21
779.43908616188435
  0
LINE
  8
_0-0_計極細
  6
CONTINUOUS
 62
    2
 10
888.9337497004351
 20
784.43908616188583
 11
882.9337497004351
 21
784.43908616188583
  0
LINE
  8
_0-0_計極細
  6
CONTINUOUS
 62
    2
 10
888.9337497004351
 20
779.43908616188435
 11
882.9337497004351
 21
779.43908616188435
  0
LINE
  8
_0-0_計極細
  6
CONTINUOUS
 62
    2
 10
874.93374970043521
 20
784.43908616188583
 11
868.9337497004351
 21
784.43908616188583
  0
LINE
  8
_0-0_計極細
  6
CONTINUOUS
 62
    2
 10
874.93374970043521
 20
779.43908616188435
 11
868.9337497004351
 21
779.43908616188435
  0
LINE
  8
_0-0_計極細
  6
CONTINUOUS
 62
    2
 10
860.9337497004351
 20
784.43908616188583
 11
854.93374970043521
 21
784.43908616188583
  0
LINE
  8
_0-0_計極細
  6
CONTINUOUS
 62
    2
 10
860.9337497004351
 20
779.43908616188435
 11
854.93374970043521
 21
779.43908616188435
  0
LINE
  8
_0-0_計極細
  6
CONTINUOUS
 62
    2
 10
846.93374970043521
 20
784.43908616188583
 11
840.9337497004351
 21
784.43908616188583
  0
LINE
  8
_0-0_計極細
  6
CONTINUOUS
 62
    2
 10
846.93374970043521
 20
779.43908616188435
 11
840.9337497004351
 21
779.43908616188435
  0
LINE
  8
_0-0_計極細
  6
CONTINUOUS
 62
    2
 10
832.9337497004351
 20
784.43908616188583
 11
826.93374970043521
 21
784.43908616188583
  0
LINE
  8
_0-0_計極細
  6
CONTINUOUS
 62
    2
 10
832.9337497004351
 20
779.43908616188435
 11
826.93374970043521
 21
779.43908616188435
  0
LINE
  8
_0-0_計極細
  6
CONTINUOUS
 62
    2
 10
818.9337497004351
 20
784.43908616188583
 11
812.9337497004351
 21
784.43908616188583
  0
LINE
  8
_0-0_計極細
  6
CONTINUOUS
 62
    2
 10
818.9337497004351
 20
779.43908616188435
 11
812.9337497004351
 21
779.43908616188435
  0
LINE
  8
_0-0_計極細
  6
CONTINUOUS
 62
    2
 10
804.93374970043521
 20
784.43908616188583
 11
798.9337497004351
 21
784.43908616188583
  0
LINE
  8
_0-0_計極細
  6
CONTINUOUS
 62
    2
 10
804.93374970043521
 20
779.43908616188435
 11
798.9337497004351
 21
779.43908616188435
  0
LINE
  8
_0-0_計極細
  6
CONTINUOUS
 62
    2
 10
790.9337497004351
 20
784.43908616188583
 11
784.93374970043521
 21
784.43908616188583
  0
LINE
  8
_0-0_計極細
  6
CONTINUOUS
 62
    2
 10
790.9337497004351
 20
779.43908616188435
 11
784.93374970043521
 21
779.43908616188435
  0
LINE
  8
_0-0_計極細
  6
CONTINUOUS
 62
    2
 10
776.93374970043521
 20
784.43908616188583
 11
770.9337497004351
 21
784.43908616188583
  0
LINE
  8
_0-0_計極細
  6
CONTINUOUS
 62
    2
 10
776.93374970043521
 20
779.43908616188435
 11
770.9337497004351
 21
779.43908616188435
  0
LINE
  8
_0-0_計極細
  6
CONTINUOUS
 62
    2
 10
762.9337497004351
 20
784.43908616188583
 11
756.9337497004351
 21
784.43908616188583
  0
LINE
  8
_0-0_計極細
  6
CONTINUOUS
 62
    2
 10
762.9337497004351
 20
779.43908616188435
 11
756.9337497004351
 21
779.43908616188435
  0
LINE
  8
_0-0_計極細
  6
CONTINUOUS
 62
    2
 10
748.9337497004351
 20
784.43908616188583
 11
742.9337497004351
 21
784.43908616188583
  0
LINE
  8
_0-0_計極細
  6
CONTINUOUS
 62
    2
 10
748.9337497004351
 20
779.43908616188435
 11
742.9337497004351
 21
779.43908616188435
  0
LINE
  8
_0-0_計極細
  6
CONTINUOUS
 62
    2
 10
734.93374970043521
 20
784.43908616188583
 11
728.9337497004351
 21
784.43908616188583
  0
LINE
  8
_0-0_計極細
  6
CONTINUOUS
 62
    2
 10
734.93374970043521
 20
779.43908616188435
 11
728.9337497004351
 21
779.43908616188435
  0
LINE
  8
_0-0_計極細
  6
CONTINUOUS
 62
    2
 10
720.9337497004351
 20
784.43908616188583
 11
714.93374970043521
 21
784.43908616188583
  0
LINE
  8
_0-0_計極細
  6
CONTINUOUS
 62
    2
 10
720.9337497004351
 20
779.43908616188435
 11
714.93374970043521
 21
779.43908616188435
  0
LINE
  8
_0-0_計極細
  6
CONTINUOUS
 62
    2
 10
706.9337497004351
 20
784.43908616188583
 11
700.9337497004351
 21
784.43908616188583
  0
LINE
  8
_0-0_計極細
  6
CONTINUOUS
 62
    2
 10
706.9337497004351
 20
779.43908616188435
 11
700.9337497004351
 21
779.43908616188435
  0
LINE
  8
_0-0_計極細
  6
CONTINUOUS
 62
    2
 10
692.9337497004351
 20
784.43908616188583
 11
686.9337497004351
 21
784.43908616188583
  0
LINE
  8
_0-0_計極細
  6
CONTINUOUS
 62
    2
 10
692.9337497004351
 20
779.43908616188435
 11
686.9337497004351
 21
779.43908616188435
  0
LINE
  8
_0-0_計極細
  6
CONTINUOUS
 62
    2
 10
678.9337497004351
 20
784.43908616188583
 11
672.9337497004351
 21
784.43908616188583
  0
LINE
  8
_0-0_計極細
  6
CONTINUOUS
 62
    2
 10
678.9337497004351
 20
779.43908616188435
 11
672.9337497004351
 21
779.43908616188435
  0
LINE
  8
_0-0_計極細
  6
CONTINUOUS
 62
    2
 10
664.93374970043521
 20
784.43908616188583
 11
658.9337497004351
 21
784.43908616188583
  0
LINE
  8
_0-0_計極細
  6
CONTINUOUS
 62
    2
 10
664.93374970043521
 20
779.43908616188435
 11
658.9337497004351
 21
779.43908616188435
  0
LINE
  8
_0-0_計極細
  6
CONTINUOUS
 62
    2
 10
650.9337497004351
 20
784.43908616188583
 11
644.93374970043521
 21
784.43908616188583
  0
LINE
  8
_0-0_計極細
  6
CONTINUOUS
 62
    2
 10
650.9337497004351
 20
779.43908616188435
 11
644.93374970043521
 21
779.43908616188435
  0
LINE
  8
_0-0_計極細
  6
CONTINUOUS
 62
    2
 10
636.9337497004351
 20
784.43908616188583
 11
630.9337497004351
 21
784.43908616188583
  0
LINE
  8
_0-0_計極細
  6
CONTINUOUS
 62
    2
 10
636.9337497004351
 20
779.43908616188435
 11
630.9337497004351
 21
779.43908616188435
  0
LINE
  8
_0-0_計極細
  6
CONTINUOUS
 62
    2
 10
622.9337497004351
 20
784.43908616188583
 11
616.9337497004351
 21
784.43908616188583
  0
LINE
  8
_0-0_計極細
  6
CONTINUOUS
 62
    2
 10
622.9337497004351
 20
779.43908616188435
 11
616.9337497004351
 21
779.43908616188435
  0
LINE
  8
_0-0_計極細
  6
CONTINUOUS
 62
    2
 10
608.9337497004351
 20
784.43908616188583
 11
602.9337497004351
 21
784.43908616188583
  0
LINE
  8
_0-0_計極細
  6
CONTINUOUS
 62
    2
 10
608.9337497004351
 20
779.43908616188435
 11
602.9337497004351
 21
779.43908616188435
  0
LINE
  8
_0-0_計極細
  6
CONTINUOUS
 62
    2
 10
594.9337497004351
 20
784.43908616188583
 11
588.9337497004351
 21
784.43908616188583
  0
LINE
  8
_0-0_計極細
  6
CONTINUOUS
 62
    2
 10
594.9337497004351
 20
779.43908616188435
 11
588.9337497004351
 21
779.43908616188435
  0
LINE
  8
_0-0_計極細
  6
CONTINUOUS
 62
    2
 10
580.9337497004351
 20
784.43908616188583
 11
574.9337497004351
 21
784.43908616188583
  0
LINE
  8
_0-0_計極細
  6
CONTINUOUS
 62
    2
 10
580.9337497004351
 20
779.43908616188435
 11
574.9337497004351
 21
779.43908616188435
  0
LINE
  8
_0-0_計極細
  6
CONTINUOUS
 62
    2
 10
566.9337497004351
 20
784.43908616188583
 11
560.9337497004351
 21
784.43908616188583
  0
LINE
  8
_0-0_計極細
  6
CONTINUOUS
 62
    2
 10
566.9337497004351
 20
779.43908616188435
 11
560.9337497004351
 21
779.43908616188435
  0
LINE
  8
_0-0_計極細
  6
CONTINUOUS
 62
    2
 10
552.9337497004351
 20
784.43908616188583
 11
546.9337497004351
 21
784.43908616188583
  0
LINE
  8
_0-0_計極細
  6
CONTINUOUS
 62
    2
 10
552.9337497004351
 20
779.43908616188435
 11
546.9337497004351
 21
779.43908616188435
  0
LINE
  8
_0-0_計極細
  6
CONTINUOUS
 62
    2
 10
538.9337497004351
 20
784.43908616188583
 11
532.9337497004351
 21
784.43908616188583
  0
LINE
  8
_0-0_計極細
  6
CONTINUOUS
 62
    2
 10
538.9337497004351
 20
779.43908616188435
 11
532.9337497004351
 21
779.43908616188435
  0
LINE
  8
_0-0_計極細
  6
CONTINUOUS
 62
    2
 10
524.9337497004351
 20
784.43908616188583
 11
518.9337497004351
 21
784.43908616188583
  0
LINE
  8
_0-0_計極細
  6
CONTINUOUS
 62
    2
 10
524.9337497004351
 20
779.43908616188435
 11
518.9337497004351
 21
779.43908616188435
  0
LINE
  8
_0-0_計極細
  6
CONTINUOUS
 62
    2
 10
510.9337497004351
 20
784.43908616188583
 11
504.9337497004351
 21
784.43908616188583
  0
LINE
  8
_0-0_計極細
  6
CONTINUOUS
 62
    2
 10
510.9337497004351
 20
779.43908616188435
 11
504.9337497004351
 21
779.43908616188435
  0
LINE
  8
_0-0_計極細
  6
CONTINUOUS
 62
    2
 10
496.93374970043516
 20
784.43908616188583
 11
490.9337497004351
 21
784.43908616188583
  0
LINE
  8
_0-0_計極細
  6
CONTINUOUS
 62
    2
 10
496.93374970043516
 20
779.43908616188435
 11
490.9337497004351
 21
779.43908616188435
  0
LINE
  8
_0-0_計極細
  6
CONTINUOUS
 62
    2
 10
482.93374970043516
 20
784.43908616188583
 11
476.93374970043516
 21
784.43908616188583
  0
LINE
  8
_0-0_計極細
  6
CONTINUOUS
 62
    2
 10
482.93374970043516
 20
779.43908616188435
 11
476.93374970043516
 21
779.43908616188435
  0
LINE
  8
_0-0_計極細
  6
CONTINUOUS
 62
    2
 10
468.9337497004351
 20
784.43908616188583
 11
462.93374970043516
 21
784.43908616188583
  0
LINE
  8
_0-0_計極細
  6
CONTINUOUS
 62
    2
 10
468.9337497004351
 20
779.43908616188435
 11
462.93374970043516
 21
779.43908616188435
  0
LINE
  8
_0-0_計極細
  6
CONTINUOUS
 62
    2
 10
454.9337497004351
 20
784.43908616188583
 11
448.9337497004351
 21
784.43908616188583
  0
LINE
  8
_0-0_計極細
  6
CONTINUOUS
 62
    2
 10
454.9337497004351
 20
779.43908616188435
 11
448.9337497004351
 21
779.43908616188435
  0
LINE
  8
_0-0_計極細
  6
CONTINUOUS
 62
    2
 10
440.9337497004351
 20
784.43908616188583
 11
434.9337497004351
 21
784.43908616188583
  0
LINE
  8
_0-0_計極細
  6
CONTINUOUS
 62
    2
 10
440.9337497004351
 20
779.43908616188435
 11
434.9337497004351
 21
779.43908616188435
  0
LINE
  8
_0-0_計極細
  6
CONTINUOUS
 62
    2
 10
426.93374970043516
 20
784.43908616188583
 11
420.9337497004351
 21
784.43908616188583
  0
LINE
  8
_0-0_計極細
  6
CONTINUOUS
 62
    2
 10
426.93374970043516
 20
779.43908616188435
 11
420.9337497004351
 21
779.43908616188435
  0
LINE
  8
_0-0_計極細
  6
CONTINUOUS
 62
    2
 10
412.93374970043516
 20
784.43908616188583
 11
406.93374970043516
 21
784.43908616188583
  0
LINE
  8
_0-0_計極細
  6
CONTINUOUS
 62
    2
 10
412.93374970043516
 20
779.43908616188435
 11
406.93374970043516
 21
779.43908616188435
  0
LINE
  8
_0-0_計極細
  6
CONTINUOUS
 62
    2
 10
398.9337497004351
 20
784.43908616188583
 11
392.93374970043516
 21
784.43908616188583
  0
LINE
  8
_0-0_計極細
  6
CONTINUOUS
 62
    2
 10
398.9337497004351
 20
779.43908616188435
 11
392.93374970043516
 21
779.43908616188435
  0
LINE
  8
_0-0_計極細
  6
CONTINUOUS
 62
    2
 10
384.9337497004351
 20
784.43908616188583
 11
378.9337497004351
 21
784.43908616188583
  0
LINE
  8
_0-0_計極細
  6
CONTINUOUS
 62
    2
 10
384.9337497004351
 20
779.43908616188435
 11
378.9337497004351
 21
779.43908616188435
  0
LINE
  8
_0-0_計極細
  6
CONTINUOUS
 62
    2
 10
370.9337497004351
 20
784.43908616188583
 11
364.9337497004351
 21
784.43908616188583
  0
LINE
  8
_0-0_計極細
  6
CONTINUOUS
 62
    2
 10
370.9337497004351
 20
779.43908616188435
 11
364.9337497004351
 21
779.43908616188435
  0
LINE
  8
_0-0_計極細
  6
CONTINUOUS
 62
    2
 10
356.93374970043516
 20
784.43908616188583
 11
350.9337497004351
 21
784.43908616188583
  0
LINE
  8
_0-0_計極細
  6
CONTINUOUS
 62
    2
 10
356.93374970043516
 20
779.43908616188435
 11
350.9337497004351
 21
779.43908616188435
  0
LINE
  8
_0-0_計極細
  6
CONTINUOUS
 62
    2
 10
342.9337497004351
 20
784.43908616188583
 11
336.93374970043516
 21
784.43908616188583
  0
LINE
  8
_0-0_計極細
  6
CONTINUOUS
 62
    2
 10
342.9337497004351
 20
779.43908616188435
 11
336.93374970043516
 21
779.43908616188435
  0
LINE
  8
_0-0_計極細
  6
CONTINUOUS
 62
    2
 10
328.9337497004351
 20
784.43908616188583
 11
322.9337497004351
 21
784.43908616188583
  0
LINE
  8
_0-0_計極細
  6
CONTINUOUS
 62
    2
 10
328.9337497004351
 20
779.43908616188435
 11
322.9337497004351
 21
779.43908616188435
  0
LINE
  8
_0-0_計極細
  6
CONTINUOUS
 62
    2
 10
314.9337497004351
 20
784.43908616188583
 11
308.9337497004351
 21
784.43908616188583
  0
LINE
  8
_0-0_計極細
  6
CONTINUOUS
 62
    2
 10
314.9337497004351
 20
779.43908616188435
 11
308.9337497004351
 21
779.43908616188435
  0
LINE
  8
_0-0_計極細
  6
CONTINUOUS
 62
    2
 10
300.9337497004351
 20
784.43908616188583
 11
294.9337497004351
 21
784.43908616188583
  0
LINE
  8
_0-0_計極細
  6
CONTINUOUS
 62
    2
 10
300.9337497004351
 20
779.43908616188435
 11
294.9337497004351
 21
779.43908616188435
  0
LINE
  8
_0-0_計極細
  6
CONTINUOUS
 62
    2
 10
286.9337497004351
 20
784.43908616188583
 11
280.9337497004351
 21
784.43908616188583
  0
LINE
  8
_0-0_計極細
  6
CONTINUOUS
 62
    2
 10
286.9337497004351
 20
779.43908616188435
 11
280.9337497004351
 21
779.43908616188435
  0
LINE
  8
_0-0_計極細
  6
CONTINUOUS
 62
    2
 10
272.93374970043516
 20
784.43908616188583
 11
266.9337497004351
 21
784.43908616188583
  0
LINE
  8
_0-0_計極細
  6
CONTINUOUS
 62
    2
 10
272.93374970043516
 20
779.43908616188435
 11
266.9337497004351
 21
779.43908616188435
  0
LINE
  8
_0-0_計極細
  6
CONTINUOUS
 62
    2
 10
258.9337497004351
 20
784.43908616188583
 11
252.93374970043516
 21
784.43908616188583
  0
LINE
  8
_0-0_計極細
  6
CONTINUOUS
 62
    2
 10
258.9337497004351
 20
779.43908616188435
 11
252.93374970043516
 21
779.43908616188435
  0
LINE
  8
_0-0_計極細
  6
CONTINUOUS
 62
    2
 10
244.9337497004351
 20
784.43908616188583
 11
238.9337497004351
 21
784.43908616188583
  0
LINE
  8
_0-0_計極細
  6
CONTINUOUS
 62
    2
 10
244.9337497004351
 20
779.43908616188435
 11
238.9337497004351
 21
779.43908616188435
  0
LINE
  8
_0-5_寸法線
  6
CONTINUOUS
 62
    7
 10
230.93374970043513
 20
821.93908616188583
 11
230.93374970043513
 21
866.93908616188583
  0
LINE
  8
_0-5_寸法線
  6
CONTINUOUS
 62
    7
 10
230.93374970043513
 20
861.93908616188583
 11
240.59300796332579
 21
864.5272766129109
  0
LINE
  8
_0-5_寸法線
  6
CONTINUOUS
 62
    7
 10
230.93374970043513
 20
861.93908616188583
 11
240.59300796332579
 21
859.35089571086053
  0
LINE
  8
_0-5_寸法線
  6
CONTINUOUS
 62
    7
 10
1218.9337497004351
 20
821.93908616188583
 11
1218.9337497004351
 21
866.93908616188583
  0
LINE
  8
_0-5_寸法線
  6
CONTINUOUS
 62
    7
 10
1218.9337497004351
 20
861.93908616188583
 11
1209.2744914375444
 21
859.35089571086053
  0
LINE
  8
_0-5_寸法線
  6
CONTINUOUS
 62
    7
 10
1218.9337497004351
 20
861.93908616188583
 11
1209.2744914375444
 21
864.5272766129109
  0
LINE
  8
_0-5_寸法線
  6
CONTINUOUS
 62
    7
 10
230.93374970043513
 20
861.93908616188583
 11
1218.9337497004351
 21
861.93908616188583
  0
TEXT
  8
_0-5_寸法線
 62
    7
 10
713.68374970043521
 20
861.93908616188583
 40
15
 41
1
 50
0
  1
988
  0
LINE
  8
_0-5_寸法線
  6
CONTINUOUS
 62
    7
 10
563.86406596319671
 20
553.31706851131855
 11
568.86406597432119
 21
544.65681447989687
  0
LINE
  8
_0-5_寸法線
  6
CONTINUOUS
 62
    7
 10
563.86406596319671
 20
553.31706851131855
 11
563.86406597604207
 21
543.31706851131855
  0
LINE
  8
_0-5_寸法線
  6
CONTINUOUS
 62
    7
 10
563.86406596319671
 20
553.31706851131855
 11
575.70543552066215
 21
509.12447591872603
  0
LINE
  8
_0-5_寸法線
  6
CONTINUOUS
 62
    7
 10
575.70543552066215
 20
509.12447591872603
 11
683.70543552066215
 21
509.12447591872603
  0
TEXT
  8
_0-5_寸法線
 62
    7
 10
575.70543552066215
 20
509.72447591872594
 40
15
 41
0.8000000000000001
 50
0
  1
ＳＵＳアングル受枠
  0
LINE
  8
_0-1_計細線
  6
CONTINUOUS
 62
    3
 10
230.93374970043513
 20
581.93908616188571
 11
200.93374970043513
 21
581.93908616188571
  0
LINE
  8
_0-1_計細線
  6
CONTINUOUS
 62
    3
 10
1248.9337497004346
 20
581.93908616188571
 11
1218.9337497004346
 21
581.93908616188571
  0
LINE
  8
_0-1_計細線
  6
CONTINUOUS
 62
    3
 10
202.3208668241935
 20
554.93908616188708
 11
1250.3208668241939
 21
554.93908616188583
  0
LINE
  8
_0-1_計細線
  6
CONTINUOUS
 62
    3
 10
200.93374970043513
 20
551.93908616188708
 11
1248.9337497004346
 21
551.93908616188571
  0
ARC
  8
_0-1_計細線
  6
CONTINUOUS
 62
    3
 10
188.65075445030655
 20
559.43908616188571
 40
14.391732776655759
 50
328.59175045525654
 51
31.408249544743221
  0
ARC
  8
_0-1_計細線
  6
CONTINUOUS
 62
    3
 10
213.21674495056229
 20
574.43908616188571
 40
14.391732776655743
 50
148.59175045525842
 51
211.40824954474076
  0
ARC
  8
_0-1_計細線
  6
CONTINUOUS
 62
    3
 10
1236.6507544503067
 20
559.43908616188571
 40
14.391732776655772
 50
328.59175045525654
 51
31.408249544741235
  0
ARC
  8
_0-1_計細線
  6
CONTINUOUS
 62
    3
 10
1261.2167449505625
 20
574.43908616188571
 40
14.391732776655658
 50
148.59175045525842
 51
211.40824954474121
  0
LINE
  8
_0-1_計細線
  6
CONTINUOUS
 62
    3
 10
238.9337497004351
 20
559.93908616188583
 11
230.93374970043513
 21
559.93908616188583
  0
LINE
  8
_0-1_計細線
  6
CONTINUOUS
 62
    3
 10
252.93374970043516
 20
559.93908616188583
 11
244.9337497004351
 21
559.93908616188583
  0
LINE
  8
_0-1_計細線
  6
CONTINUOUS
 62
    3
 10
266.9337497004351
 20
559.93908616188583
 11
258.9337497004351
 21
559.93908616188583
  0
LINE
  8
_0-1_計細線
  6
CONTINUOUS
 62
    3
 10
280.9337497004351
 20
559.93908616188583
 11
272.93374970043516
 21
559.93908616188583
  0
LINE
  8
_0-1_計細線
  6
CONTINUOUS
 62
    3
 10
294.9337497004351
 20
559.93908616188583
 11
286.9337497004351
 21
559.93908616188583
  0
LINE
  8
_0-1_計細線
  6
CONTINUOUS
 62
    3
 10
308.9337497004351
 20
559.93908616188583
 11
300.9337497004351
 21
559.93908616188583
  0
LINE
  8
_0-1_計細線
  6
CONTINUOUS
 62
    3
 10
322.9337497004351
 20
559.93908616188583
 11
314.9337497004351
 21
559.93908616188583
  0
LINE
  8
_0-1_計細線
  6
CONTINUOUS
 62
    3
 10
336.93374970043516
 20
559.93908616188583
 11
328.9337497004351
 21
559.93908616188583
  0
LINE
  8
_0-1_計細線
  6
CONTINUOUS
 62
    3
 10
350.9337497004351
 20
559.93908616188583
 11
342.9337497004351
 21
559.93908616188583
  0
LINE
  8
_0-1_計細線
  6
CONTINUOUS
 62
    3
 10
364.9337497004351
 20
559.93908616188583
 11
356.93374970043516
 21
559.93908616188583
  0
LINE
  8
_0-1_計細線
  6
CONTINUOUS
 62
    3
 10
378.9337497004351
 20
559.93908616188583
 11
370.9337497004351
 21
559.93908616188583
  0
LINE
  8
_0-1_計細線
  6
CONTINUOUS
 62
    3
 10
392.93374970043516
 20
559.93908616188583
 11
384.9337497004351
 21
559.93908616188583
  0
LINE
  8
_0-1_計細線
  6
CONTINUOUS
 62
    3
 10
406.93374970043516
 20
559.93908616188583
 11
398.9337497004351
 21
559.93908616188583
  0
LINE
  8
_0-1_計細線
  6
CONTINUOUS
 62
    3
 10
420.9337497004351
 20
559.93908616188583
 11
412.93374970043516
 21
559.93908616188583
  0
LINE
  8
_0-1_計細線
  6
CONTINUOUS
 62
    3
 10
434.9337497004351
 20
559.93908616188583
 11
426.93374970043516
 21
559.93908616188583
  0
LINE
  8
_0-1_計細線
  6
CONTINUOUS
 62
    3
 10
448.9337497004351
 20
559.93908616188583
 11
440.9337497004351
 21
559.93908616188583
  0
LINE
  8
_0-1_計細線
  6
CONTINUOUS
 62
    3
 10
462.93374970043516
 20
559.93908616188583
 11
454.9337497004351
 21
559.93908616188583
  0
LINE
  8
_0-1_計細線
  6
CONTINUOUS
 62
    3
 10
476.93374970043516
 20
559.93908616188583
 11
468.9337497004351
 21
559.93908616188583
  0
LINE
  8
_0-1_計細線
  6
CONTINUOUS
 62
    3
 10
490.9337497004351
 20
559.93908616188583
 11
482.93374970043516
 21
559.93908616188583
  0
LINE
  8
_0-1_計細線
  6
CONTINUOUS
 62
    3
 10
504.9337497004351
 20
559.93908616188583
 11
496.93374970043516
 21
559.93908616188583
  0
LINE
  8
_0-1_計細線
  6
CONTINUOUS
 62
    3
 10
518.9337497004351
 20
559.93908616188583
 11
510.9337497004351
 21
559.93908616188583
  0
LINE
  8
_0-1_計細線
  6
CONTINUOUS
 62
    3
 10
532.9337497004351
 20
559.93908616188583
 11
524.9337497004351
 21
559.93908616188583
  0
LINE
  8
_0-1_計細線
  6
CONTINUOUS
 62
    3
 10
546.9337497004351
 20
559.93908616188583
 11
538.9337497004351
 21
559.93908616188583
  0
LINE
  8
_0-1_計細線
  6
CONTINUOUS
 62
    3
 10
560.9337497004351
 20
559.93908616188583
 11
552.9337497004351
 21
559.93908616188583
  0
LINE
  8
_0-1_計細線
  6
CONTINUOUS
 62
    3
 10
574.9337497004351
 20
559.93908616188583
 11
566.9337497004351
 21
559.93908616188583
  0
LINE
  8
_0-1_計細線
  6
CONTINUOUS
 62
    3
 10
588.9337497004351
 20
559.93908616188583
 11
580.9337497004351
 21
559.93908616188583
  0
LINE
  8
_0-1_計細線
  6
CONTINUOUS
 62
    3
 10
602.9337497004351
 20
559.93908616188583
 11
594.9337497004351
 21
559.93908616188583
  0
LINE
  8
_0-1_計細線
  6
CONTINUOUS
 62
    3
 10
616.9337497004351
 20
559.93908616188583
 11
608.9337497004351
 21
559.93908616188583
  0
LINE
  8
_0-1_計細線
  6
CONTINUOUS
 62
    3
 10
630.9337497004351
 20
559.93908616188583
 11
622.9337497004351
 21
559.93908616188583
  0
LINE
  8
_0-1_計細線
  6
CONTINUOUS
 62
    3
 10
644.93374970043521
 20
559.93908616188583
 11
636.9337497004351
 21
559.93908616188583
  0
LINE
  8
_0-1_計細線
  6
CONTINUOUS
 62
    3
 10
658.9337497004351
 20
559.93908616188583
 11
650.9337497004351
 21
559.93908616188583
  0
LINE
  8
_0-1_計細線
  6
CONTINUOUS
 62
    3
 10
672.9337497004351
 20
559.93908616188583
 11
664.93374970043521
 21
559.93908616188583
  0
LINE
  8
_0-1_計細線
  6
CONTINUOUS
 62
    3
 10
686.9337497004351
 20
559.93908616188583
 11
678.9337497004351
 21
559.93908616188583
  0
LINE
  8
_0-1_計細線
  6
CONTINUOUS
 62
    3
 10
700.9337497004351
 20
559.93908616188583
 11
692.9337497004351
 21
559.93908616188583
  0
LINE
  8
_0-1_計細線
  6
CONTINUOUS
 62
    3
 10
714.93374970043521
 20
559.93908616188583
 11
706.9337497004351
 21
559.93908616188583
  0
LINE
  8
_0-1_計細線
  6
CONTINUOUS
 62
    3
 10
728.9337497004351
 20
559.93908616188583
 11
720.9337497004351
 21
559.93908616188583
  0
LINE
  8
_0-1_計細線
  6
CONTINUOUS
 62
    3
 10
742.9337497004351
 20
559.93908616188583
 11
734.93374970043521
 21
559.93908616188583
  0
LINE
  8
_0-1_計細線
  6
CONTINUOUS
 62
    3
 10
756.9337497004351
 20
559.93908616188583
 11
748.9337497004351
 21
559.93908616188583
  0
LINE
  8
_0-1_計細線
  6
CONTINUOUS
 62
    3
 10
770.9337497004351
 20
559.93908616188583
 11
762.9337497004351
 21
559.93908616188583
  0
LINE
  8
_0-1_計細線
  6
CONTINUOUS
 62
    3
 10
784.93374970043521
 20
559.93908616188583
 11
776.93374970043521
 21
559.93908616188583
  0
LINE
  8
_0-1_計細線
  6
CONTINUOUS
 62
    3
 10
798.9337497004351
 20
559.93908616188583
 11
790.9337497004351
 21
559.93908616188583
  0
LINE
  8
_0-1_計細線
  6
CONTINUOUS
 62
    3
 10
812.9337497004351
 20
559.93908616188583
 11
804.93374970043521
 21
559.93908616188583
  0
LINE
  8
_0-1_計細線
  6
CONTINUOUS
 62
    3
 10
826.93374970043521
 20
559.93908616188583
 11
818.9337497004351
 21
559.93908616188583
  0
LINE
  8
_0-1_計細線
  6
CONTINUOUS
 62
    3
 10
840.9337497004351
 20
559.93908616188583
 11
832.9337497004351
 21
559.93908616188583
  0
LINE
  8
_0-1_計細線
  6
CONTINUOUS
 62
    3
 10
854.93374970043521
 20
559.93908616188583
 11
846.93374970043521
 21
559.93908616188583
  0
LINE
  8
_0-1_計細線
  6
CONTINUOUS
 62
    3
 10
868.9337497004351
 20
559.93908616188583
 11
860.9337497004351
 21
559.93908616188583
  0
LINE
  8
_0-1_計細線
  6
CONTINUOUS
 62
    3
 10
882.9337497004351
 20
559.93908616188583
 11
874.93374970043521
 21
559.93908616188583
  0
LINE
  8
_0-1_計細線
  6
CONTINUOUS
 62
    3
 10
896.93374970043521
 20
559.93908616188583
 11
888.9337497004351
 21
559.93908616188583
  0
LINE
  8
_0-1_計細線
  6
CONTINUOUS
 62
    3
 10
910.9337497004351
 20
559.93908616188583
 11
902.9337497004351
 21
559.93908616188583
  0
LINE
  8
_0-1_計細線
  6
CONTINUOUS
 62
    3
 10
924.93374970043521
 20
559.93908616188583
 11
916.93374970043521
 21
559.93908616188583
  0
LINE
  8
_0-1_計細線
  6
CONTINUOUS
 62
    3
 10
938.9337497004351
 20
559.93908616188583
 11
930.9337497004351
 21
559.93908616188583
  0
LINE
  8
_0-1_計細線
  6
CONTINUOUS
 62
    3
 10
952.9337497004351
 20
559.93908616188583
 11
944.93374970043521
 21
559.93908616188583
  0
LINE
  8
_0-1_計細線
  6
CONTINUOUS
 62
    3
 10
966.93374970043521
 20
559.93908616188583
 11
958.9337497004351
 21
559.93908616188583
  0
LINE
  8
_0-1_計細線
  6
CONTINUOUS
 62
    3
 10
980.9337497004351
 20
559.93908616188583
 11
972.9337497004351
 21
559.93908616188583
  0
LINE
  8
_0-1_計細線
  6
CONTINUOUS
 62
    3
 10
994.93374970043521
 20
559.93908616188583
 11
986.93374970043521
 21
559.93908616188583
  0
LINE
  8
_0-1_計細線
  6
CONTINUOUS
 62
    3
 10
1008.9337497004351
 20
559.93908616188583
 11
1000.9337497004351
 21
559.93908616188583
  0
LINE
  8
_0-1_計細線
  6
CONTINUOUS
 62
    3
 10
1022.9337497004351
 20
559.93908616188583
 11
1014.9337497004352
 21
559.93908616188583
  0
LINE
  8
_0-1_計細線
  6
CONTINUOUS
 62
    3
 10
1036.9337497004353
 20
559.93908616188583
 11
1028.9337497004351
 21
559.93908616188583
  0
LINE
  8
_0-1_計細線
  6
CONTINUOUS
 62
    3
 10
1050.9337497004351
 20
559.93908616188583
 11
1042.9337497004351
 21
559.93908616188583
  0
LINE
  8
_0-1_計細線
  6
CONTINUOUS
 62
    3
 10
1064.9337497004351
 20
559.93908616188583
 11
1056.9337497004353
 21
559.93908616188583
  0
LINE
  8
_0-1_計細線
  6
CONTINUOUS
 62
    3
 10
1078.9337497004351
 20
559.93908616188583
 11
1070.9337497004351
 21
559.93908616188583
  0
LINE
  8
_0-1_計細線
  6
CONTINUOUS
 62
    3
 10
1092.9337497004351
 20
559.93908616188583
 11
1084.9337497004351
 21
559.93908616188583
  0
LINE
  8
_0-1_計細線
  6
CONTINUOUS
 62
    3
 10
1106.9337497004353
 20
559.93908616188583
 11
1098.9337497004351
 21
559.93908616188583
  0
LINE
  8
_0-1_計細線
  6
CONTINUOUS
 62
    3
 10
1120.9337497004351
 20
559.93908616188583
 11
1112.9337497004351
 21
559.93908616188583
  0
LINE
  8
_0-1_計細線
  6
CONTINUOUS
 62
    3
 10
1134.9337497004349
 20
559.93908616188583
 11
1126.9337497004346
 21
559.93908616188583
  0
LINE
  8
_0-1_計細線
  6
CONTINUOUS
 62
    3
 10
1148.9337497004346
 20
559.93908616188583
 11
1140.9337497004346
 21
559.93908616188583
  0
LINE
  8
_0-1_計細線
  6
CONTINUOUS
 62
    3
 10
1162.9337497004346
 20
559.93908616188583
 11
1154.9337497004349
 21
559.93908616188583
  0
LINE
  8
_0-1_計細線
  6
CONTINUOUS
 62
    3
 10
1176.9337497004346
 20
559.93908616188583
 11
1168.9337497004346
 21
559.93908616188583
  0
LINE
  8
_0-1_計細線
  6
CONTINUOUS
 62
    3
 10
1190.9337497004346
 20
559.93908616188583
 11
1182.9337497004346
 21
559.93908616188583
  0
LINE
  8
_0-1_計細線
  6
CONTINUOUS
 62
    3
 10
1204.9337497004349
 20
559.93908616188583
 11
1196.9337497004346
 21
559.93908616188583
  0
LINE
  8
_0-1_計細線
  6
CONTINUOUS
 62
    3
 10
1218.9337497004346
 20
559.93908616188583
 11
1210.9337497004346
 21
559.93908616188583
  0
LINE
  8
_0-1_計細線
  6
CONTINUOUS
 62
    3
 10
1218.9337497004346
 20
556.93908616188571
 11
1218.9337497004346
 21
559.93908616188583
  0
LINE
  8
_0-1_計細線
  6
CONTINUOUS
 62
    3
 10
230.93374970043513
 20
556.93908616188571
 11
1218.9337497004346
 21
556.93908616188571
  0
LINE
  8
_0-1_計細線
  6
CONTINUOUS
 62
    3
 10
230.93374970043513
 20
559.93908616188583
 11
230.93374970043513
 21
556.93908616188571
  0
LINE
  8
_0-1_計細線
  6
CONTINUOUS
 62
    3
 10
1218.9337497004346
 20
559.93908616188583
 11
230.93374970043513
 21
559.93908616188583
  0
LINE
  8
_0-0_計極細
  6
CONTINUOUS
 62
    2
 10
1210.9337497004346
 20
584.43908616188571
 11
1204.9337497004349
 21
584.43908616188571
  0
LINE
  8
_0-0_計極細
  6
CONTINUOUS
 62
    2
 10
1210.9337497004346
 20
579.43908616188571
 11
1204.9337497004349
 21
579.43908616188571
  0
LINE
  8
_0-0_計極細
  6
CONTINUOUS
 62
    2
 10
1196.9337497004346
 20
584.43908616188571
 11
1190.9337497004346
 21
584.43908616188571
  0
LINE
  8
_0-0_計極細
  6
CONTINUOUS
 62
    2
 10
1196.9337497004346
 20
579.43908616188571
 11
1190.9337497004346
 21
579.43908616188571
  0
LINE
  8
_0-0_計極細
  6
CONTINUOUS
 62
    2
 10
1182.9337497004346
 20
584.43908616188571
 11
1176.9337497004346
 21
584.43908616188571
  0
LINE
  8
_0-0_計極細
  6
CONTINUOUS
 62
    2
 10
1182.9337497004346
 20
579.43908616188571
 11
1176.9337497004346
 21
579.43908616188571
  0
LINE
  8
_0-0_計極細
  6
CONTINUOUS
 62
    2
 10
1168.9337497004346
 20
584.43908616188571
 11
1162.9337497004346
 21
584.43908616188571
  0
LINE
  8
_0-0_計極細
  6
CONTINUOUS
 62
    2
 10
1168.9337497004346
 20
579.43908616188571
 11
1162.9337497004346
 21
579.43908616188571
  0
LINE
  8
_0-0_計極細
  6
CONTINUOUS
 62
    2
 10
1154.9337497004349
 20
584.43908616188571
 11
1148.9337497004346
 21
584.43908616188571
  0
LINE
  8
_0-0_計極細
  6
CONTINUOUS
 62
    2
 10
1154.9337497004349
 20
579.43908616188571
 11
1148.9337497004346
 21
579.43908616188571
  0
LINE
  8
_0-0_計極細
  6
CONTINUOUS
 62
    2
 10
1140.9337497004346
 20
584.43908616188571
 11
1134.9337497004349
 21
584.43908616188571
  0
LINE
  8
_0-0_計極細
  6
CONTINUOUS
 62
    2
 10
1140.9337497004346
 20
579.43908616188571
 11
1134.9337497004349
 21
579.43908616188571
  0
LINE
  8
_0-0_計極細
  6
CONTINUOUS
 62
    2
 10
1126.9337497004346
 20
584.43908616188571
 11
1120.9337497004351
 21
584.43908616188571
  0
LINE
  8
_0-0_計極細
  6
CONTINUOUS
 62
    2
 10
1126.9337497004346
 20
579.43908616188571
 11
1120.9337497004351
 21
579.43908616188571
  0
LINE
  8
_0-0_計極細
  6
CONTINUOUS
 62
    2
 10
1112.9337497004351
 20
584.43908616188571
 11
1106.9337497004353
 21
584.43908616188571
  0
LINE
  8
_0-0_計極細
  6
CONTINUOUS
 62
    2
 10
1112.9337497004351
 20
579.43908616188571
 11
1106.9337497004353
 21
579.43908616188571
  0
LINE
  8
_0-0_計極細
  6
CONTINUOUS
 62
    2
 10
1098.9337497004351
 20
584.43908616188571
 11
1092.9337497004351
 21
584.43908616188571
  0
LINE
  8
_0-0_計極細
  6
CONTINUOUS
 62
    2
 10
1098.9337497004351
 20
579.43908616188571
 11
1092.9337497004351
 21
579.43908616188571
  0
LINE
  8
_0-0_計極細
  6
CONTINUOUS
 62
    2
 10
1084.9337497004351
 20
584.43908616188571
 11
1078.9337497004351
 21
584.43908616188571
  0
LINE
  8
_0-0_計極細
  6
CONTINUOUS
 62
    2
 10
1084.9337497004351
 20
579.43908616188571
 11
1078.9337497004351
 21
579.43908616188571
  0
LINE
  8
_0-0_計極細
  6
CONTINUOUS
 62
    2
 10
1070.9337497004351
 20
584.43908616188571
 11
1064.9337497004351
 21
584.43908616188571
  0
LINE
  8
_0-0_計極細
  6
CONTINUOUS
 62
    2
 10
1070.9337497004351
 20
579.43908616188571
 11
1064.9337497004351
 21
579.43908616188571
  0
LINE
  8
_0-0_計極細
  6
CONTINUOUS
 62
    2
 10
1056.9337497004353
 20
584.43908616188571
 11
1050.9337497004351
 21
584.43908616188571
  0
LINE
  8
_0-0_計極細
  6
CONTINUOUS
 62
    2
 10
1056.9337497004353
 20
579.43908616188571
 11
1050.9337497004351
 21
579.43908616188571
  0
LINE
  8
_0-0_計極細
  6
CONTINUOUS
 62
    2
 10
1042.9337497004351
 20
584.43908616188571
 11
1036.9337497004353
 21
584.43908616188571
  0
LINE
  8
_0-0_計極細
  6
CONTINUOUS
 62
    2
 10
1042.9337497004351
 20
579.43908616188571
 11
1036.9337497004353
 21
579.43908616188571
  0
LINE
  8
_0-0_計極細
  6
CONTINUOUS
 62
    2
 10
1028.9337497004351
 20
584.43908616188571
 11
1022.9337497004351
 21
584.43908616188571
  0
LINE
  8
_0-0_計極細
  6
CONTINUOUS
 62
    2
 10
1028.9337497004351
 20
579.43908616188571
 11
1022.9337497004351
 21
579.43908616188571
  0
LINE
  8
_0-0_計極細
  6
CONTINUOUS
 62
    2
 10
1014.9337497004352
 20
584.43908616188571
 11
1008.9337497004351
 21
584.43908616188571
  0
LINE
  8
_0-0_計極細
  6
CONTINUOUS
 62
    2
 10
1014.9337497004352
 20
579.43908616188571
 11
1008.9337497004351
 21
579.43908616188571
  0
LINE
  8
_0-0_計極細
  6
CONTINUOUS
 62
    2
 10
1000.9337497004351
 20
584.43908616188571
 11
994.93374970043521
 21
584.43908616188571
  0
LINE
  8
_0-0_計極細
  6
CONTINUOUS
 62
    2
 10
1000.9337497004351
 20
579.43908616188571
 11
994.93374970043521
 21
579.43908616188571
  0
LINE
  8
_0-0_計極細
  6
CONTINUOUS
 62
    2
 10
986.93374970043521
 20
584.43908616188571
 11
980.9337497004351
 21
584.43908616188571
  0
LINE
  8
_0-0_計極細
  6
CONTINUOUS
 62
    2
 10
986.93374970043521
 20
579.43908616188571
 11
980.9337497004351
 21
579.43908616188571
  0
LINE
  8
_0-0_計極細
  6
CONTINUOUS
 62
    2
 10
972.9337497004351
 20
584.43908616188571
 11
966.93374970043521
 21
584.43908616188571
  0
LINE
  8
_0-0_計極細
  6
CONTINUOUS
 62
    2
 10
972.9337497004351
 20
579.43908616188571
 11
966.93374970043521
 21
579.43908616188571
  0
LINE
  8
_0-0_計極細
  6
CONTINUOUS
 62
    2
 10
958.9337497004351
 20
584.43908616188571
 11
952.9337497004351
 21
584.43908616188571
  0
LINE
  8
_0-0_計極細
  6
CONTINUOUS
 62
    2
 10
958.9337497004351
 20
579.43908616188571
 11
952.9337497004351
 21
579.43908616188571
  0
LINE
  8
_0-0_計極細
  6
CONTINUOUS
 62
    2
 10
944.93374970043521
 20
584.43908616188571
 11
938.9337497004351
 21
584.43908616188571
  0
LINE
  8
_0-0_計極細
  6
CONTINUOUS
 62
    2
 10
944.93374970043521
 20
579.43908616188571
 11
938.9337497004351
 21
579.43908616188571
  0
LINE
  8
_0-0_計極細
  6
CONTINUOUS
 62
    2
 10
930.9337497004351
 20
584.43908616188571
 11
924.93374970043521
 21
584.43908616188571
  0
LINE
  8
_0-0_計極細
  6
CONTINUOUS
 62
    2
 10
930.9337497004351
 20
579.43908616188571
 11
924.93374970043521
 21
579.43908616188571
  0
LINE
  8
_0-0_計極細
  6
CONTINUOUS
 62
    2
 10
916.93374970043521
 20
584.43908616188571
 11
910.9337497004351
 21
584.43908616188571
  0
LINE
  8
_0-0_計極細
  6
CONTINUOUS
 62
    2
 10
916.93374970043521
 20
579.43908616188571
 11
910.9337497004351
 21
579.43908616188571
  0
LINE
  8
_0-0_計極細
  6
CONTINUOUS
 62
    2
 10
902.9337497004351
 20
584.43908616188571
 11
896.93374970043521
 21
584.43908616188571
  0
LINE
  8
_0-0_計極細
  6
CONTINUOUS
 62
    2
 10
902.9337497004351
 20
579.43908616188571
 11
896.93374970043521
 21
579.43908616188571
  0
LINE
  8
_0-0_計極細
  6
CONTINUOUS
 62
    2
 10
888.9337497004351
 20
584.43908616188571
 11
882.9337497004351
 21
584.43908616188571
  0
LINE
  8
_0-0_計極細
  6
CONTINUOUS
 62
    2
 10
888.9337497004351
 20
579.43908616188571
 11
882.9337497004351
 21
579.43908616188571
  0
LINE
  8
_0-0_計極細
  6
CONTINUOUS
 62
    2
 10
874.93374970043521
 20
584.43908616188571
 11
868.9337497004351
 21
584.43908616188571
  0
LINE
  8
_0-0_計極細
  6
CONTINUOUS
 62
    2
 10
874.93374970043521
 20
579.43908616188571
 11
868.9337497004351
 21
579.43908616188571
  0
LINE
  8
_0-0_計極細
  6
CONTINUOUS
 62
    2
 10
860.9337497004351
 20
584.43908616188571
 11
854.93374970043521
 21
584.43908616188571
  0
LINE
  8
_0-0_計極細
  6
CONTINUOUS
 62
    2
 10
860.9337497004351
 20
579.43908616188571
 11
854.93374970043521
 21
579.43908616188571
  0
LINE
  8
_0-0_計極細
  6
CONTINUOUS
 62
    2
 10
846.93374970043521
 20
584.43908616188571
 11
840.9337497004351
 21
584.43908616188571
  0
LINE
  8
_0-0_計極細
  6
CONTINUOUS
 62
    2
 10
846.93374970043521
 20
579.43908616188571
 11
840.9337497004351
 21
579.43908616188571
  0
LINE
  8
_0-0_計極細
  6
CONTINUOUS
 62
    2
 10
832.9337497004351
 20
584.43908616188571
 11
826.93374970043521
 21
584.43908616188571
  0
LINE
  8
_0-0_計極細
  6
CONTINUOUS
 62
    2
 10
832.9337497004351
 20
579.43908616188571
 11
826.93374970043521
 21
579.43908616188571
  0
LINE
  8
_0-0_計極細
  6
CONTINUOUS
 62
    2
 10
818.9337497004351
 20
584.43908616188571
 11
812.9337497004351
 21
584.43908616188571
  0
LINE
  8
_0-0_計極細
  6
CONTINUOUS
 62
    2
 10
818.9337497004351
 20
579.43908616188571
 11
812.9337497004351
 21
579.43908616188571
  0
LINE
  8
_0-0_計極細
  6
CONTINUOUS
 62
    2
 10
804.93374970043521
 20
584.43908616188571
 11
798.9337497004351
 21
584.43908616188571
  0
LINE
  8
_0-0_計極細
  6
CONTINUOUS
 62
    2
 10
804.93374970043521
 20
579.43908616188571
 11
798.9337497004351
 21
579.43908616188571
  0
LINE
  8
_0-0_計極細
  6
CONTINUOUS
 62
    2
 10
790.9337497004351
 20
584.43908616188571
 11
784.93374970043521
 21
584.43908616188571
  0
LINE
  8
_0-0_計極細
  6
CONTINUOUS
 62
    2
 10
790.9337497004351
 20
579.43908616188571
 11
784.93374970043521
 21
579.43908616188571
  0
LINE
  8
_0-0_計極細
  6
CONTINUOUS
 62
    2
 10
776.93374970043521
 20
584.43908616188571
 11
770.9337497004351
 21
584.43908616188571
  0
LINE
  8
_0-0_計極細
  6
CONTINUOUS
 62
    2
 10
776.93374970043521
 20
579.43908616188571
 11
770.9337497004351
 21
579.43908616188571
  0
LINE
  8
_0-0_計極細
  6
CONTINUOUS
 62
    2
 10
762.9337497004351
 20
584.43908616188571
 11
756.9337497004351
 21
584.43908616188571
  0
LINE
  8
_0-0_計極細
  6
CONTINUOUS
 62
    2
 10
762.9337497004351
 20
579.43908616188571
 11
756.9337497004351
 21
579.43908616188571
  0
LINE
  8
_0-0_計極細
  6
CONTINUOUS
 62
    2
 10
748.9337497004351
 20
584.43908616188571
 11
742.9337497004351
 21
584.43908616188571
  0
LINE
  8
_0-0_計極細
  6
CONTINUOUS
 62
    2
 10
748.9337497004351
 20
579.43908616188571
 11
742.9337497004351
 21
579.43908616188571
  0
LINE
  8
_0-0_計極細
  6
CONTINUOUS
 62
    2
 10
734.93374970043521
 20
584.43908616188571
 11
728.9337497004351
 21
584.43908616188571
  0
LINE
  8
_0-0_計極細
  6
CONTINUOUS
 62
    2
 10
734.93374970043521
 20
579.43908616188571
 11
728.9337497004351
 21
579.43908616188571
  0
LINE
  8
_0-0_計極細
  6
CONTINUOUS
 62
    2
 10
720.9337497004351
 20
584.43908616188571
 11
714.93374970043521
 21
584.43908616188571
  0
LINE
  8
_0-0_計極細
  6
CONTINUOUS
 62
    2
 10
720.9337497004351
 20
579.43908616188571
 11
714.93374970043521
 21
579.43908616188571
  0
LINE
  8
_0-0_計極細
  6
CONTINUOUS
 62
    2
 10
706.9337497004351
 20
584.43908616188571
 11
700.9337497004351
 21
584.43908616188571
  0
LINE
  8
_0-0_計極細
  6
CONTINUOUS
 62
    2
 10
706.9337497004351
 20
579.43908616188571
 11
700.9337497004351
 21
579.43908616188571
  0
LINE
  8
_0-0_計極細
  6
CONTINUOUS
 62
    2
 10
692.9337497004351
 20
584.43908616188571
 11
686.9337497004351
 21
584.43908616188571
  0
LINE
  8
_0-0_計極細
  6
CONTINUOUS
 62
    2
 10
692.9337497004351
 20
579.43908616188571
 11
686.9337497004351
 21
579.43908616188571
  0
LINE
  8
_0-0_計極細
  6
CONTINUOUS
 62
    2
 10
678.9337497004351
 20
584.43908616188571
 11
672.9337497004351
 21
584.43908616188571
  0
LINE
  8
_0-0_計極細
  6
CONTINUOUS
 62
    2
 10
678.9337497004351
 20
579.43908616188571
 11
672.9337497004351
 21
579.43908616188571
  0
LINE
  8
_0-0_計極細
  6
CONTINUOUS
 62
    2
 10
664.93374970043521
 20
584.43908616188571
 11
658.9337497004351
 21
584.43908616188571
  0
LINE
  8
_0-0_計極細
  6
CONTINUOUS
 62
    2
 10
664.93374970043521
 20
579.43908616188571
 11
658.9337497004351
 21
579.43908616188571
  0
LINE
  8
_0-0_計極細
  6
CONTINUOUS
 62
    2
 10
650.9337497004351
 20
584.43908616188571
 11
644.93374970043521
 21
584.43908616188571
  0
LINE
  8
_0-0_計極細
  6
CONTINUOUS
 62
    2
 10
650.9337497004351
 20
579.43908616188571
 11
644.93374970043521
 21
579.43908616188571
  0
LINE
  8
_0-0_計極細
  6
CONTINUOUS
 62
    2
 10
636.9337497004351
 20
584.43908616188571
 11
630.9337497004351
 21
584.43908616188571
  0
LINE
  8
_0-0_計極細
  6
CONTINUOUS
 62
    2
 10
636.9337497004351
 20
579.43908616188571
 11
630.9337497004351
 21
579.43908616188571
  0
LINE
  8
_0-0_計極細
  6
CONTINUOUS
 62
    2
 10
622.9337497004351
 20
584.43908616188571
 11
616.9337497004351
 21
584.43908616188571
  0
LINE
  8
_0-0_計極細
  6
CONTINUOUS
 62
    2
 10
622.9337497004351
 20
579.43908616188571
 11
616.9337497004351
 21
579.43908616188571
  0
LINE
  8
_0-0_計極細
  6
CONTINUOUS
 62
    2
 10
608.9337497004351
 20
584.43908616188571
 11
602.9337497004351
 21
584.43908616188571
  0
LINE
  8
_0-0_計極細
  6
CONTINUOUS
 62
    2
 10
608.9337497004351
 20
579.43908616188571
 11
602.9337497004351
 21
579.43908616188571
  0
LINE
  8
_0-0_計極細
  6
CONTINUOUS
 62
    2
 10
594.9337497004351
 20
584.43908616188571
 11
588.9337497004351
 21
584.43908616188571
  0
LINE
  8
_0-0_計極細
  6
CONTINUOUS
 62
    2
 10
594.9337497004351
 20
579.43908616188571
 11
588.9337497004351
 21
579.43908616188571
  0
LINE
  8
_0-0_計極細
  6
CONTINUOUS
 62
    2
 10
580.9337497004351
 20
584.43908616188571
 11
574.9337497004351
 21
584.43908616188571
  0
LINE
  8
_0-0_計極細
  6
CONTINUOUS
 62
    2
 10
580.9337497004351
 20
579.43908616188571
 11
574.9337497004351
 21
579.43908616188571
  0
LINE
  8
_0-0_計極細
  6
CONTINUOUS
 62
    2
 10
566.9337497004351
 20
584.43908616188571
 11
560.9337497004351
 21
584.43908616188571
  0
LINE
  8
_0-0_計極細
  6
CONTINUOUS
 62
    2
 10
566.9337497004351
 20
579.43908616188571
 11
560.9337497004351
 21
579.43908616188571
  0
LINE
  8
_0-0_計極細
  6
CONTINUOUS
 62
    2
 10
552.9337497004351
 20
584.43908616188571
 11
546.9337497004351
 21
584.43908616188571
  0
LINE
  8
_0-0_計極細
  6
CONTINUOUS
 62
    2
 10
552.9337497004351
 20
579.43908616188571
 11
546.9337497004351
 21
579.43908616188571
  0
LINE
  8
_0-0_計極細
  6
CONTINUOUS
 62
    2
 10
538.9337497004351
 20
584.43908616188571
 11
532.9337497004351
 21
584.43908616188571
  0
LINE
  8
_0-0_計極細
  6
CONTINUOUS
 62
    2
 10
538.9337497004351
 20
579.43908616188571
 11
532.9337497004351
 21
579.43908616188571
  0
LINE
  8
_0-0_計極細
  6
CONTINUOUS
 62
    2
 10
524.9337497004351
 20
584.43908616188571
 11
518.9337497004351
 21
584.43908616188571
  0
LINE
  8
_0-0_計極細
  6
CONTINUOUS
 62
    2
 10
524.9337497004351
 20
579.43908616188571
 11
518.9337497004351
 21
579.43908616188571
  0
LINE
  8
_0-0_計極細
  6
CONTINUOUS
 62
    2
 10
510.9337497004351
 20
584.43908616188571
 11
504.9337497004351
 21
584.43908616188571
  0
LINE
  8
_0-0_計極細
  6
CONTINUOUS
 62
    2
 10
510.9337497004351
 20
579.43908616188571
 11
504.9337497004351
 21
579.43908616188571
  0
LINE
  8
_0-0_計極細
  6
CONTINUOUS
 62
    2
 10
496.93374970043516
 20
584.43908616188571
 11
490.9337497004351
 21
584.43908616188571
  0
LINE
  8
_0-0_計極細
  6
CONTINUOUS
 62
    2
 10
496.93374970043516
 20
579.43908616188571
 11
490.9337497004351
 21
579.43908616188571
  0
LINE
  8
_0-0_計極細
  6
CONTINUOUS
 62
    2
 10
482.93374970043516
 20
584.43908616188571
 11
476.93374970043516
 21
584.43908616188571
  0
LINE
  8
_0-0_計極細
  6
CONTINUOUS
 62
    2
 10
482.93374970043516
 20
579.43908616188571
 11
476.93374970043516
 21
579.43908616188571
  0
LINE
  8
_0-0_計極細
  6
CONTINUOUS
 62
    2
 10
468.9337497004351
 20
584.43908616188571
 11
462.93374970043516
 21
584.43908616188571
  0
LINE
  8
_0-0_計極細
  6
CONTINUOUS
 62
    2
 10
468.9337497004351
 20
579.43908616188571
 11
462.93374970043516
 21
579.43908616188571
  0
LINE
  8
_0-0_計極細
  6
CONTINUOUS
 62
    2
 10
454.9337497004351
 20
584.43908616188571
 11
448.9337497004351
 21
584.43908616188571
  0
LINE
  8
_0-0_計極細
  6
CONTINUOUS
 62
    2
 10
454.9337497004351
 20
579.43908616188571
 11
448.9337497004351
 21
579.43908616188571
  0
LINE
  8
_0-0_計極細
  6
CONTINUOUS
 62
    2
 10
440.9337497004351
 20
584.43908616188571
 11
434.9337497004351
 21
584.43908616188571
  0
LINE
  8
_0-0_計極細
  6
CONTINUOUS
 62
    2
 10
440.9337497004351
 20
579.43908616188571
 11
434.9337497004351
 21
579.43908616188571
  0
LINE
  8
_0-0_計極細
  6
CONTINUOUS
 62
    2
 10
426.93374970043516
 20
584.43908616188571
 11
420.9337497004351
 21
584.43908616188571
  0
LINE
  8
_0-0_計極細
  6
CONTINUOUS
 62
    2
 10
426.93374970043516
 20
579.43908616188571
 11
420.9337497004351
 21
579.43908616188571
  0
LINE
  8
_0-0_計極細
  6
CONTINUOUS
 62
    2
 10
412.93374970043516
 20
584.43908616188571
 11
406.93374970043516
 21
584.43908616188571
  0
LINE
  8
_0-0_計極細
  6
CONTINUOUS
 62
    2
 10
412.93374970043516
 20
579.43908616188571
 11
406.93374970043516
 21
579.43908616188571
  0
LINE
  8
_0-0_計極細
  6
CONTINUOUS
 62
    2
 10
398.9337497004351
 20
584.43908616188571
 11
392.93374970043516
 21
584.43908616188571
  0
LINE
  8
_0-0_計極細
  6
CONTINUOUS
 62
    2
 10
398.9337497004351
 20
579.43908616188571
 11
392.93374970043516
 21
579.43908616188571
  0
LINE
  8
_0-0_計極細
  6
CONTINUOUS
 62
    2
 10
384.9337497004351
 20
584.43908616188571
 11
378.9337497004351
 21
584.43908616188571
  0
LINE
  8
_0-0_計極細
  6
CONTINUOUS
 62
    2
 10
384.9337497004351
 20
579.43908616188571
 11
378.9337497004351
 21
579.43908616188571
  0
LINE
  8
_0-0_計極細
  6
CONTINUOUS
 62
    2
 10
370.9337497004351
 20
584.43908616188571
 11
364.9337497004351
 21
584.43908616188571
  0
LINE
  8
_0-0_計極細
  6
CONTINUOUS
 62
    2
 10
370.9337497004351
 20
579.43908616188571
 11
364.9337497004351
 21
579.43908616188571
  0
LINE
  8
_0-0_計極細
  6
CONTINUOUS
 62
    2
 10
356.93374970043516
 20
584.43908616188571
 11
350.9337497004351
 21
584.43908616188571
  0
LINE
  8
_0-0_計極細
  6
CONTINUOUS
 62
    2
 10
356.93374970043516
 20
579.43908616188571
 11
350.9337497004351
 21
579.43908616188571
  0
LINE
  8
_0-0_計極細
  6
CONTINUOUS
 62
    2
 10
342.9337497004351
 20
584.43908616188571
 11
336.93374970043516
 21
584.43908616188571
  0
LINE
  8
_0-0_計極細
  6
CONTINUOUS
 62
    2
 10
342.9337497004351
 20
579.43908616188571
 11
336.93374970043516
 21
579.43908616188571
  0
LINE
  8
_0-0_計極細
  6
CONTINUOUS
 62
    2
 10
328.9337497004351
 20
584.43908616188571
 11
322.9337497004351
 21
584.43908616188571
  0
LINE
  8
_0-0_計極細
  6
CONTINUOUS
 62
    2
 10
328.9337497004351
 20
579.43908616188571
 11
322.9337497004351
 21
579.43908616188571
  0
LINE
  8
_0-0_計極細
  6
CONTINUOUS
 62
    2
 10
314.9337497004351
 20
584.43908616188571
 11
308.9337497004351
 21
584.43908616188571
  0
LINE
  8
_0-0_計極細
  6
CONTINUOUS
 62
    2
 10
314.9337497004351
 20
579.43908616188571
 11
308.9337497004351
 21
579.43908616188571
  0
LINE
  8
_0-0_計極細
  6
CONTINUOUS
 62
    2
 10
300.9337497004351
 20
584.43908616188571
 11
294.9337497004351
 21
584.43908616188571
  0
LINE
  8
_0-0_計極細
  6
CONTINUOUS
 62
    2
 10
300.9337497004351
 20
579.43908616188571
 11
294.9337497004351
 21
579.43908616188571
  0
LINE
  8
_0-0_計極細
  6
CONTINUOUS
 62
    2
 10
286.9337497004351
 20
584.43908616188571
 11
280.9337497004351
 21
584.43908616188571
  0
LINE
  8
_0-0_計極細
  6
CONTINUOUS
 62
    2
 10
286.9337497004351
 20
579.43908616188571
 11
280.9337497004351
 21
579.43908616188571
  0
LINE
  8
_0-0_計極細
  6
CONTINUOUS
 62
    2
 10
272.93374970043516
 20
584.43908616188571
 11
266.9337497004351
 21
584.43908616188571
  0
LINE
  8
_0-0_計極細
  6
CONTINUOUS
 62
    2
 10
272.93374970043516
 20
579.43908616188571
 11
266.9337497004351
 21
579.43908616188571
  0
LINE
  8
_0-0_計極細
  6
CONTINUOUS
 62
    2
 10
258.9337497004351
 20
584.43908616188571
 11
252.93374970043516
 21
584.43908616188571
  0
LINE
  8
_0-0_計極細
  6
CONTINUOUS
 62
    2
 10
258.9337497004351
 20
579.43908616188571
 11
252.93374970043516
 21
579.43908616188571
  0
LINE
  8
_0-0_計極細
  6
CONTINUOUS
 62
    2
 10
244.9337497004351
 20
584.43908616188571
 11
238.9337497004351
 21
584.43908616188571
  0
LINE
  8
_0-0_計極細
  6
CONTINUOUS
 62
    2
 10
244.9337497004351
 20
579.43908616188571
 11
238.9337497004351
 21
579.43908616188571
  0
LINE
  8
_0-5_寸法線
  6
CONTINUOUS
 62
    7
 10
779.66677896425949
 20
596.29578965970074
 11
784.66677896425949
 21
587.63553562185632
  0
LINE
  8
_0-5_寸法線
  6
CONTINUOUS
 62
    7
 10
779.66677896425949
 20
596.29578965970074
 11
779.66677896425949
 21
586.29578965970074
  0
LINE
  8
_0-5_寸法線
  6
CONTINUOUS
 62
    7
 10
779.66677896425949
 20
596.29578965970074
 11
803.02426208431359
 21
509.12447591872603
  0
LINE
  8
_0-5_寸法線
  6
CONTINUOUS
 62
    7
 10
803.02426208431359
 20
509.12447591872603
 11
937.46327429943335
 21
509.12447591872603
  0
TEXT
  8
_0-5_寸法線
 62
    7
 10
805.46327429943346
 20
509.12447591872603
 40
15
 41
0.8000000000000001
 50
0
  1
ステンレスグレーチング
  0
LINE
  8
_0-1_計細線
  6
CONTINUOUS
 62
    3
 10
238.9337497004351
 20
803.93908616188583
 11
238.9337497004351
 21
559.93908616188583
  0
LINE
  8
_0-1_計細線
  6
CONTINUOUS
 62
    3
 10
230.93374970043513
 20
559.93908616188583
 11
230.93374970043513
 21
803.93908616188583
  0
LINE
  8
_0-1_計細線
  6
CONTINUOUS
 62
    3
 10
252.93374970043516
 20
803.93908616188583
 11
252.93374970043516
 21
559.93908616188583
  0
LINE
  8
_0-1_計細線
  6
CONTINUOUS
 62
    3
 10
244.9337497004351
 20
559.93908616188583
 11
244.9337497004351
 21
803.93908616188583
  0
LINE
  8
_0-1_計細線
  6
CONTINUOUS
 62
    3
 10
266.9337497004351
 20
803.93908616188583
 11
266.9337497004351
 21
559.93908616188583
  0
LINE
  8
_0-1_計細線
  6
CONTINUOUS
 62
    3
 10
258.9337497004351
 20
559.93908616188583
 11
258.9337497004351
 21
803.93908616188583
  0
LINE
  8
_0-1_計細線
  6
CONTINUOUS
 62
    3
 10
280.9337497004351
 20
803.93908616188583
 11
280.9337497004351
 21
559.93908616188583
  0
LINE
  8
_0-1_計細線
  6
CONTINUOUS
 62
    3
 10
272.93374970043516
 20
559.93908616188583
 11
272.93374970043516
 21
803.93908616188583
  0
LINE
  8
_0-1_計細線
  6
CONTINUOUS
 62
    3
 10
294.9337497004351
 20
803.93908616188583
 11
294.9337497004351
 21
559.93908616188583
  0
LINE
  8
_0-1_計細線
  6
CONTINUOUS
 62
    3
 10
286.9337497004351
 20
559.93908616188583
 11
286.9337497004351
 21
803.93908616188583
  0
LINE
  8
_0-1_計細線
  6
CONTINUOUS
 62
    3
 10
308.9337497004351
 20
803.93908616188583
 11
308.9337497004351
 21
559.93908616188583
  0
LINE
  8
_0-1_計細線
  6
CONTINUOUS
 62
    3
 10
300.9337497004351
 20
559.93908616188583
 11
300.9337497004351
 21
803.93908616188583
  0
LINE
  8
_0-1_計細線
  6
CONTINUOUS
 62
    3
 10
322.9337497004351
 20
803.93908616188583
 11
322.9337497004351
 21
559.93908616188583
  0
LINE
  8
_0-1_計細線
  6
CONTINUOUS
 62
    3
 10
314.9337497004351
 20
559.93908616188583
 11
314.9337497004351
 21
803.93908616188583
  0
LINE
  8
_0-1_計細線
  6
CONTINUOUS
 62
    3
 10
336.93374970043516
 20
803.93908616188583
 11
336.93374970043516
 21
559.93908616188583
  0
LINE
  8
_0-1_計細線
  6
CONTINUOUS
 62
    3
 10
328.9337497004351
 20
559.93908616188583
 11
328.9337497004351
 21
803.93908616188583
  0
LINE
  8
_0-1_計細線
  6
CONTINUOUS
 62
    3
 10
350.9337497004351
 20
803.93908616188583
 11
350.9337497004351
 21
559.93908616188583
  0
LINE
  8
_0-1_計細線
  6
CONTINUOUS
 62
    3
 10
342.9337497004351
 20
559.93908616188583
 11
342.9337497004351
 21
803.93908616188583
  0
LINE
  8
_0-1_計細線
  6
CONTINUOUS
 62
    3
 10
364.9337497004351
 20
803.93908616188583
 11
364.9337497004351
 21
559.93908616188583
  0
LINE
  8
_0-1_計細線
  6
CONTINUOUS
 62
    3
 10
356.93374970043516
 20
559.93908616188583
 11
356.93374970043516
 21
803.93908616188583
  0
LINE
  8
_0-1_計細線
  6
CONTINUOUS
 62
    3
 10
378.9337497004351
 20
803.93908616188583
 11
378.9337497004351
 21
559.93908616188583
  0
LINE
  8
_0-1_計細線
  6
CONTINUOUS
 62
    3
 10
370.9337497004351
 20
559.93908616188583
 11
370.9337497004351
 21
803.93908616188583
  0
LINE
  8
_0-1_計細線
  6
CONTINUOUS
 62
    3
 10
392.93374970043516
 20
803.93908616188583
 11
392.93374970043516
 21
559.93908616188583
  0
LINE
  8
_0-1_計細線
  6
CONTINUOUS
 62
    3
 10
384.9337497004351
 20
559.93908616188583
 11
384.9337497004351
 21
803.93908616188583
  0
LINE
  8
_0-1_計細線
  6
CONTINUOUS
 62
    3
 10
406.93374970043516
 20
803.93908616188583
 11
406.93374970043516
 21
559.93908616188583
  0
LINE
  8
_0-1_計細線
  6
CONTINUOUS
 62
    3
 10
398.9337497004351
 20
559.93908616188583
 11
398.9337497004351
 21
803.93908616188583
  0
LINE
  8
_0-1_計細線
  6
CONTINUOUS
 62
    3
 10
420.9337497004351
 20
803.93908616188583
 11
420.9337497004351
 21
559.93908616188583
  0
LINE
  8
_0-1_計細線
  6
CONTINUOUS
 62
    3
 10
412.93374970043516
 20
559.93908616188583
 11
412.93374970043516
 21
803.93908616188583
  0
LINE
  8
_0-1_計細線
  6
CONTINUOUS
 62
    3
 10
434.9337497004351
 20
803.93908616188583
 11
434.9337497004351
 21
559.93908616188583
  0
LINE
  8
_0-1_計細線
  6
CONTINUOUS
 62
    3
 10
426.93374970043516
 20
559.93908616188583
 11
426.93374970043516
 21
803.93908616188583
  0
LINE
  8
_0-1_計細線
  6
CONTINUOUS
 62
    3
 10
448.9337497004351
 20
803.93908616188583
 11
448.9337497004351
 21
559.93908616188583
  0
LINE
  8
_0-1_計細線
  6
CONTINUOUS
 62
    3
 10
440.9337497004351
 20
559.93908616188583
 11
440.9337497004351
 21
803.93908616188583
  0
LINE
  8
_0-1_計細線
  6
CONTINUOUS
 62
    3
 10
462.93374970043516
 20
803.93908616188583
 11
462.93374970043516
 21
559.93908616188583
  0
LINE
  8
_0-1_計細線
  6
CONTINUOUS
 62
    3
 10
454.9337497004351
 20
559.93908616188583
 11
454.9337497004351
 21
803.93908616188583
  0
LINE
  8
_0-1_計細線
  6
CONTINUOUS
 62
    3
 10
476.93374970043516
 20
803.93908616188583
 11
476.93374970043516
 21
559.93908616188583
  0
LINE
  8
_0-1_計細線
  6
CONTINUOUS
 62
    3
 10
468.9337497004351
 20
559.93908616188583
 11
468.9337497004351
 21
803.93908616188583
  0
LINE
  8
_0-1_計細線
  6
CONTINUOUS
 62
    3
 10
490.9337497004351
 20
803.93908616188583
 11
490.9337497004351
 21
559.93908616188583
  0
LINE
  8
_0-1_計細線
  6
CONTINUOUS
 62
    3
 10
482.93374970043516
 20
559.93908616188583
 11
482.93374970043516
 21
803.93908616188583
  0
LINE
  8
_0-1_計細線
  6
CONTINUOUS
 62
    3
 10
504.9337497004351
 20
803.93908616188583
 11
504.9337497004351
 21
559.93908616188583
  0
LINE
  8
_0-1_計細線
  6
CONTINUOUS
 62
    3
 10
496.93374970043516
 20
559.93908616188583
 11
496.93374970043516
 21
803.93908616188583
  0
LINE
  8
_0-1_計細線
  6
CONTINUOUS
 62
    3
 10
518.9337497004351
 20
803.93908616188583
 11
518.9337497004351
 21
559.93908616188583
  0
LINE
  8
_0-1_計細線
  6
CONTINUOUS
 62
    3
 10
510.9337497004351
 20
559.93908616188583
 11
510.9337497004351
 21
803.93908616188583
  0
LINE
  8
_0-1_計細線
  6
CONTINUOUS
 62
    3
 10
532.9337497004351
 20
803.93908616188583
 11
532.9337497004351
 21
559.93908616188583
  0
LINE
  8
_0-1_計細線
  6
CONTINUOUS
 62
    3
 10
524.9337497004351
 20
559.93908616188583
 11
524.9337497004351
 21
803.93908616188583
  0
LINE
  8
_0-1_計細線
  6
CONTINUOUS
 62
    3
 10
546.9337497004351
 20
803.93908616188583
 11
546.9337497004351
 21
559.93908616188583
  0
LINE
  8
_0-1_計細線
  6
CONTINUOUS
 62
    3
 10
538.9337497004351
 20
559.93908616188583
 11
538.9337497004351
 21
803.93908616188583
  0
LINE
  8
_0-1_計細線
  6
CONTINUOUS
 62
    3
 10
560.9337497004351
 20
803.93908616188583
 11
560.9337497004351
 21
559.93908616188583
  0
LINE
  8
_0-1_計細線
  6
CONTINUOUS
 62
    3
 10
552.9337497004351
 20
559.93908616188583
 11
552.9337497004351
 21
803.93908616188583
  0
LINE
  8
_0-1_計細線
  6
CONTINUOUS
 62
    3
 10
574.9337497004351
 20
803.93908616188583
 11
574.9337497004351
 21
559.93908616188583
  0
LINE
  8
_0-1_計細線
  6
CONTINUOUS
 62
    3
 10
566.9337497004351
 20
559.93908616188583
 11
566.9337497004351
 21
803.93908616188583
  0
LINE
  8
_0-1_計細線
  6
CONTINUOUS
 62
    3
 10
588.9337497004351
 20
803.93908616188583
 11
588.9337497004351
 21
559.93908616188583
  0
LINE
  8
_0-1_計細線
  6
CONTINUOUS
 62
    3
 10
580.9337497004351
 20
559.93908616188583
 11
580.9337497004351
 21
803.93908616188583
  0
LINE
  8
_0-1_計細線
  6
CONTINUOUS
 62
    3
 10
602.9337497004351
 20
803.93908616188583
 11
602.9337497004351
 21
559.93908616188583
  0
LINE
  8
_0-1_計細線
  6
CONTINUOUS
 62
    3
 10
594.9337497004351
 20
559.93908616188583
 11
594.9337497004351
 21
803.93908616188583
  0
LINE
  8
_0-1_計細線
  6
CONTINUOUS
 62
    3
 10
616.9337497004351
 20
803.93908616188583
 11
616.9337497004351
 21
559.93908616188583
  0
LINE
  8
_0-1_計細線
  6
CONTINUOUS
 62
    3
 10
608.9337497004351
 20
559.93908616188583
 11
608.9337497004351
 21
803.93908616188583
  0
LINE
  8
_0-1_計細線
  6
CONTINUOUS
 62
    3
 10
630.9337497004351
 20
803.93908616188583
 11
630.9337497004351
 21
559.93908616188583
  0
LINE
  8
_0-1_計細線
  6
CONTINUOUS
 62
    3
 10
622.9337497004351
 20
559.93908616188583
 11
622.9337497004351
 21
803.93908616188583
  0
LINE
  8
_0-1_計細線
  6
CONTINUOUS
 62
    3
 10
644.93374970043521
 20
803.93908616188583
 11
644.93374970043521
 21
559.93908616188583
  0
LINE
  8
_0-1_計細線
  6
CONTINUOUS
 62
    3
 10
636.9337497004351
 20
559.93908616188583
 11
636.9337497004351
 21
803.93908616188583
  0
LINE
  8
_0-1_計細線
  6
CONTINUOUS
 62
    3
 10
658.9337497004351
 20
803.93908616188583
 11
658.9337497004351
 21
559.93908616188583
  0
LINE
  8
_0-1_計細線
  6
CONTINUOUS
 62
    3
 10
650.9337497004351
 20
559.93908616188583
 11
650.9337497004351
 21
803.93908616188583
  0
LINE
  8
_0-1_計細線
  6
CONTINUOUS
 62
    3
 10
672.9337497004351
 20
803.93908616188583
 11
672.9337497004351
 21
559.93908616188583
  0
LINE
  8
_0-1_計細線
  6
CONTINUOUS
 62
    3
 10
664.93374970043521
 20
559.93908616188583
 11
664.93374970043521
 21
803.93908616188583
  0
LINE
  8
_0-1_計細線
  6
CONTINUOUS
 62
    3
 10
686.9337497004351
 20
803.93908616188583
 11
686.9337497004351
 21
559.93908616188583
  0
LINE
  8
_0-1_計細線
  6
CONTINUOUS
 62
    3
 10
678.9337497004351
 20
559.93908616188583
 11
678.9337497004351
 21
803.93908616188583
  0
LINE
  8
_0-1_計細線
  6
CONTINUOUS
 62
    3
 10
700.9337497004351
 20
803.93908616188583
 11
700.9337497004351
 21
559.93908616188583
  0
LINE
  8
_0-1_計細線
  6
CONTINUOUS
 62
    3
 10
692.9337497004351
 20
559.93908616188583
 11
692.9337497004351
 21
803.93908616188583
  0
LINE
  8
_0-1_計細線
  6
CONTINUOUS
 62
    3
 10
714.93374970043521
 20
803.93908616188583
 11
714.93374970043521
 21
559.93908616188583
  0
LINE
  8
_0-1_計細線
  6
CONTINUOUS
 62
    3
 10
706.9337497004351
 20
559.93908616188583
 11
706.9337497004351
 21
803.93908616188583
  0
LINE
  8
_0-1_計細線
  6
CONTINUOUS
 62
    3
 10
728.9337497004351
 20
803.93908616188583
 11
728.9337497004351
 21
559.93908616188583
  0
LINE
  8
_0-1_計細線
  6
CONTINUOUS
 62
    3
 10
720.9337497004351
 20
559.93908616188583
 11
720.9337497004351
 21
803.93908616188583
  0
LINE
  8
_0-1_計細線
  6
CONTINUOUS
 62
    3
 10
742.9337497004351
 20
803.93908616188583
 11
742.9337497004351
 21
559.93908616188583
  0
LINE
  8
_0-1_計細線
  6
CONTINUOUS
 62
    3
 10
734.93374970043521
 20
559.93908616188583
 11
734.93374970043521
 21
803.93908616188583
  0
LINE
  8
_0-1_計細線
  6
CONTINUOUS
 62
    3
 10
756.9337497004351
 20
803.93908616188583
 11
756.9337497004351
 21
559.93908616188583
  0
LINE
  8
_0-1_計細線
  6
CONTINUOUS
 62
    3
 10
748.9337497004351
 20
559.93908616188583
 11
748.9337497004351
 21
803.93908616188583
  0
LINE
  8
_0-1_計細線
  6
CONTINUOUS
 62
    3
 10
770.9337497004351
 20
803.93908616188583
 11
770.9337497004351
 21
559.93908616188583
  0
LINE
  8
_0-1_計細線
  6
CONTINUOUS
 62
    3
 10
762.9337497004351
 20
559.93908616188583
 11
762.9337497004351
 21
803.93908616188583
  0
LINE
  8
_0-1_計細線
  6
CONTINUOUS
 62
    3
 10
784.93374970043521
 20
803.93908616188583
 11
784.93374970043521
 21
559.93908616188583
  0
LINE
  8
_0-1_計細線
  6
CONTINUOUS
 62
    3
 10
776.93374970043521
 20
559.93908616188583
 11
776.93374970043521
 21
803.93908616188583
  0
LINE
  8
_0-1_計細線
  6
CONTINUOUS
 62
    3
 10
798.9337497004351
 20
803.93908616188583
 11
798.9337497004351
 21
559.93908616188583
  0
LINE
  8
_0-1_計細線
  6
CONTINUOUS
 62
    3
 10
790.9337497004351
 20
559.93908616188583
 11
790.9337497004351
 21
803.93908616188583
  0
LINE
  8
_0-1_計細線
  6
CONTINUOUS
 62
    3
 10
812.9337497004351
 20
803.93908616188583
 11
812.9337497004351
 21
559.93908616188583
  0
LINE
  8
_0-1_計細線
  6
CONTINUOUS
 62
    3
 10
804.93374970043521
 20
559.93908616188583
 11
804.93374970043521
 21
803.93908616188583
  0
LINE
  8
_0-1_計細線
  6
CONTINUOUS
 62
    3
 10
826.93374970043521
 20
803.93908616188583
 11
826.93374970043521
 21
559.93908616188583
  0
LINE
  8
_0-1_計細線
  6
CONTINUOUS
 62
    3
 10
818.9337497004351
 20
559.93908616188583
 11
818.9337497004351
 21
803.93908616188583
  0
LINE
  8
_0-1_計細線
  6
CONTINUOUS
 62
    3
 10
840.9337497004351
 20
803.93908616188583
 11
840.9337497004351
 21
559.93908616188583
  0
LINE
  8
_0-1_計細線
  6
CONTINUOUS
 62
    3
 10
832.9337497004351
 20
559.93908616188583
 11
832.9337497004351
 21
803.93908616188583
  0
LINE
  8
_0-1_計細線
  6
CONTINUOUS
 62
    3
 10
854.93374970043521
 20
803.93908616188583
 11
854.93374970043521
 21
559.93908616188583
  0
LINE
  8
_0-1_計細線
  6
CONTINUOUS
 62
    3
 10
846.93374970043521
 20
559.93908616188583
 11
846.93374970043521
 21
803.93908616188583
  0
LINE
  8
_0-1_計細線
  6
CONTINUOUS
 62
    3
 10
868.9337497004351
 20
803.93908616188583
 11
868.9337497004351
 21
559.93908616188583
  0
LINE
  8
_0-1_計細線
  6
CONTINUOUS
 62
    3
 10
860.9337497004351
 20
559.93908616188583
 11
860.9337497004351
 21
803.93908616188583
  0
LINE
  8
_0-1_計細線
  6
CONTINUOUS
 62
    3
 10
882.9337497004351
 20
803.93908616188583
 11
882.9337497004351
 21
559.93908616188583
  0
LINE
  8
_0-1_計細線
  6
CONTINUOUS
 62
    3
 10
874.93374970043521
 20
559.93908616188583
 11
874.93374970043521
 21
803.93908616188583
  0
LINE
  8
_0-1_計細線
  6
CONTINUOUS
 62
    3
 10
896.93374970043521
 20
803.93908616188583
 11
896.93374970043521
 21
559.93908616188583
  0
LINE
  8
_0-1_計細線
  6
CONTINUOUS
 62
    3
 10
888.9337497004351
 20
559.93908616188583
 11
888.9337497004351
 21
803.93908616188583
  0
LINE
  8
_0-1_計細線
  6
CONTINUOUS
 62
    3
 10
910.9337497004351
 20
803.93908616188583
 11
910.9337497004351
 21
559.93908616188583
  0
LINE
  8
_0-1_計細線
  6
CONTINUOUS
 62
    3
 10
902.9337497004351
 20
559.93908616188583
 11
902.9337497004351
 21
803.93908616188583
  0
LINE
  8
_0-1_計細線
  6
CONTINUOUS
 62
    3
 10
924.93374970043521
 20
803.93908616188583
 11
924.93374970043521
 21
559.93908616188583
  0
LINE
  8
_0-1_計細線
  6
CONTINUOUS
 62
    3
 10
916.93374970043521
 20
559.93908616188583
 11
916.93374970043521
 21
803.93908616188583
  0
LINE
  8
_0-1_計細線
  6
CONTINUOUS
 62
    3
 10
938.9337497004351
 20
803.93908616188583
 11
938.9337497004351
 21
559.93908616188583
  0
LINE
  8
_0-1_計細線
  6
CONTINUOUS
 62
    3
 10
930.9337497004351
 20
559.93908616188583
 11
930.9337497004351
 21
803.93908616188583
  0
LINE
  8
_0-1_計細線
  6
CONTINUOUS
 62
    3
 10
952.9337497004351
 20
803.93908616188583
 11
952.9337497004351
 21
559.93908616188583
  0
LINE
  8
_0-1_計細線
  6
CONTINUOUS
 62
    3
 10
944.93374970043521
 20
559.93908616188583
 11
944.93374970043521
 21
803.93908616188583
  0
LINE
  8
_0-1_計細線
  6
CONTINUOUS
 62
    3
 10
966.93374970043521
 20
803.93908616188583
 11
966.93374970043521
 21
559.93908616188583
  0
LINE
  8
_0-1_計細線
  6
CONTINUOUS
 62
    3
 10
958.9337497004351
 20
559.93908616188583
 11
958.9337497004351
 21
803.93908616188583
  0
LINE
  8
_0-1_計細線
  6
CONTINUOUS
 62
    3
 10
980.9337497004351
 20
803.93908616188583
 11
980.9337497004351
 21
559.93908616188583
  0
LINE
  8
_0-1_計細線
  6
CONTINUOUS
 62
    3
 10
972.9337497004351
 20
559.93908616188583
 11
972.9337497004351
 21
803.93908616188583
  0
LINE
  8
_0-1_計細線
  6
CONTINUOUS
 62
    3
 10
994.93374970043521
 20
803.93908616188583
 11
994.93374970043521
 21
559.93908616188583
  0
LINE
  8
_0-1_計細線
  6
CONTINUOUS
 62
    3
 10
986.93374970043521
 20
559.93908616188583
 11
986.93374970043521
 21
803.93908616188583
  0
LINE
  8
_0-1_計細線
  6
CONTINUOUS
 62
    3
 10
1008.9337497004351
 20
803.93908616188583
 11
1008.9337497004351
 21
559.93908616188583
  0
LINE
  8
_0-1_計細線
  6
CONTINUOUS
 62
    3
 10
1000.9337497004351
 20
559.93908616188583
 11
1000.9337497004351
 21
803.93908616188583
  0
LINE
  8
_0-1_計細線
  6
CONTINUOUS
 62
    3
 10
1022.9337497004351
 20
803.93908616188583
 11
1022.9337497004351
 21
559.93908616188583
  0
LINE
  8
_0-1_計細線
  6
CONTINUOUS
 62
    3
 10
1014.9337497004352
 20
559.93908616188583
 11
1014.9337497004352
 21
803.93908616188583
  0
LINE
  8
_0-1_計細線
  6
CONTINUOUS
 62
    3
 10
1036.9337497004353
 20
803.93908616188583
 11
1036.9337497004353
 21
559.93908616188583
  0
LINE
  8
_0-1_計細線
  6
CONTINUOUS
 62
    3
 10
1028.9337497004351
 20
559.93908616188583
 11
1028.9337497004351
 21
803.93908616188583
  0
LINE
  8
_0-1_計細線
  6
CONTINUOUS
 62
    3
 10
1050.9337497004351
 20
803.93908616188583
 11
1050.9337497004351
 21
559.93908616188583
  0
LINE
  8
_0-1_計細線
  6
CONTINUOUS
 62
    3
 10
1042.9337497004351
 20
559.93908616188583
 11
1042.9337497004351
 21
803.93908616188583
  0
LINE
  8
_0-1_計細線
  6
CONTINUOUS
 62
    3
 10
1064.9337497004351
 20
803.93908616188583
 11
1064.9337497004351
 21
559.93908616188583
  0
LINE
  8
_0-1_計細線
  6
CONTINUOUS
 62
    3
 10
1056.9337497004353
 20
559.93908616188583
 11
1056.9337497004353
 21
803.93908616188583
  0
LINE
  8
_0-1_計細線
  6
CONTINUOUS
 62
    3
 10
1078.9337497004351
 20
803.93908616188583
 11
1078.9337497004351
 21
559.93908616188583
  0
LINE
  8
_0-1_計細線
  6
CONTINUOUS
 62
    3
 10
1070.9337497004351
 20
559.93908616188583
 11
1070.9337497004351
 21
803.93908616188583
  0
LINE
  8
_0-1_計細線
  6
CONTINUOUS
 62
    3
 10
1092.9337497004351
 20
803.93908616188583
 11
1092.9337497004351
 21
559.93908616188583
  0
LINE
  8
_0-1_計細線
  6
CONTINUOUS
 62
    3
 10
1084.9337497004351
 20
559.93908616188583
 11
1084.9337497004351
 21
803.93908616188583
  0
LINE
  8
_0-1_計細線
  6
CONTINUOUS
 62
    3
 10
1106.9337497004353
 20
803.93908616188583
 11
1106.9337497004353
 21
559.93908616188583
  0
LINE
  8
_0-1_計細線
  6
CONTINUOUS
 62
    3
 10
1098.9337497004351
 20
559.93908616188583
 11
1098.9337497004351
 21
803.93908616188583
  0
LINE
  8
_0-1_計細線
  6
CONTINUOUS
 62
    3
 10
1120.9337497004351
 20
803.93908616188583
 11
1120.9337497004351
 21
559.93908616188583
  0
LINE
  8
_0-1_計細線
  6
CONTINUOUS
 62
    3
 10
1112.9337497004351
 20
559.93908616188583
 11
1112.9337497004351
 21
803.93908616188583
  0
LINE
  8
_0-1_計細線
  6
CONTINUOUS
 62
    3
 10
1134.9337497004349
 20
803.93908616188583
 11
1134.9337497004349
 21
559.93908616188583
  0
LINE
  8
_0-1_計細線
  6
CONTINUOUS
 62
    3
 10
1126.9337497004346
 20
559.93908616188583
 11
1126.9337497004346
 21
803.93908616188583
  0
LINE
  8
_0-1_計細線
  6
CONTINUOUS
 62
    3
 10
1148.9337497004346
 20
803.93908616188583
 11
1148.9337497004346
 21
559.93908616188583
  0
LINE
  8
_0-1_計細線
  6
CONTINUOUS
 62
    3
 10
1140.9337497004346
 20
559.93908616188583
 11
1140.9337497004346
 21
803.93908616188583
  0
LINE
  8
_0-1_計細線
  6
CONTINUOUS
 62
    3
 10
1162.9337497004346
 20
803.93908616188583
 11
1162.9337497004346
 21
559.93908616188583
  0
LINE
  8
_0-1_計細線
  6
CONTINUOUS
 62
    3
 10
1154.9337497004349
 20
559.93908616188583
 11
1154.9337497004349
 21
803.93908616188583
  0
LINE
  8
_0-1_計細線
  6
CONTINUOUS
 62
    3
 10
1176.9337497004346
 20
803.93908616188583
 11
1176.9337497004346
 21
559.93908616188583
  0
LINE
  8
_0-1_計細線
  6
CONTINUOUS
 62
    3
 10
1168.9337497004346
 20
559.93908616188583
 11
1168.9337497004346
 21
803.93908616188583
  0
LINE
  8
_0-1_計細線
  6
CONTINUOUS
 62
    3
 10
1190.9337497004346
 20
803.93908616188583
 11
1190.9337497004346
 21
559.93908616188583
  0
LINE
  8
_0-1_計細線
  6
CONTINUOUS
 62
    3
 10
1182.9337497004346
 20
559.93908616188583
 11
1182.9337497004346
 21
803.93908616188583
  0
LINE
  8
_0-1_計細線
  6
CONTINUOUS
 62
    3
 10
1204.9337497004349
 20
803.93908616188583
 11
1204.9337497004349
 21
559.93908616188583
  0
LINE
  8
_0-1_計細線
  6
CONTINUOUS
 62
    3
 10
1196.9337497004346
 20
559.93908616188583
 11
1196.9337497004346
 21
803.93908616188583
  0
LINE
  8
_0-1_計細線
  6
CONTINUOUS
 62
    3
 10
1218.9337497004346
 20
803.93908616188583
 11
1218.9337497004346
 21
559.93908616188583
  0
LINE
  8
_0-1_計細線
  6
CONTINUOUS
 62
    3
 10
1210.9337497004346
 20
559.93908616188583
 11
1210.9337497004346
 21
803.93908616188583
  0
TEXT
  8
_0-5_寸法線
 62
    7
 10
575.70543552066215
 20
494.12447591872603
 40
15
 41
0.8000000000000001
 50
0
  1
ＧＳＬ－２０
  0
TEXT
  8
_0-5_寸法線
 62
    7
 10
803.02426208431359
 20
494.12447591872603
 40
15
 41
0.8000000000000001
 50
0
  1
ＧＳＴＪ－２０Ｗ２５０
  0
TEXT
  8
_0-7_枠細線
 62
    5
 10
965.50000000000011
 20
110
 40
20
 41
0.6
 50
0
  1
ＧＳＴＪ－２０Ｗ２５０
  0
TEXT
  8
_0-7_枠細線
 62
    5
 10
965.49999999999966
 20
70
 40
20.000000000000004
 41
0.5999999999999997
 50
0
  1
表面形状については記号表参照のこと
  0
LINE
  8
_0-7_枠細線
  6
CONTINUOUS
 62
    5
 10
1409.4018171150183
 20
328.47321710336223
 11
1409.4018171150183
 21
223.47321710336274
  0
TEXT
  8
_0-7_枠細線
 62
    5
 10
1318.4018171150192
 20
308.47321710336223
 40
15.000000000000002
 41
0.8
 50
0
  1
ノンスリップ
  0
TEXT
  8
_0-7_枠細線
 62
    5
 10
1330.4018171150185
 20
283.47321710336234
 40
15.000000000000002
 41
0.8
 50
0
  1
品番－Ｄ
  0
LINE
  8
_0-7_枠細線
  6
CONTINUOUS
 62
    5
 10
1299.4018171150178
 20
328.47321710336223
 11
1299.4018171150178
 21
223.47321710336274
  0
TEXT
  8
_0-7_枠細線
 62
    5
 10
1220.4018171150178
 20
308.47321710336234
 40
15.000000000000002
 41
0.8
 50
0
  1
プレーン
  0
TEXT
  8
_0-7_枠細線
 62
    5
 10
1220.4018171150185
 20
283.47321710336234
 40
15.000000000000002
 41
0.8
 50
0
  1
品番－Ｆ
  0
TEXT
  8
_0-7_枠細線
 62
    5
 10
1140.4018171150183
 20
308.47321710336223
 40
15.000000000000002
 41
0.8
 50
0
  1
タ イ プ
  0
LINE
  8
_0-7_枠細線
  6
CONTINUOUS
 62
    5
 10
1139.4018171150174
 20
278.47321710336234
 11
1409.4018171150183
 21
278.47321710336234
  0
LINE
  8
_0-7_枠細線
  6
CONTINUOUS
 62
    5
 10
1139.4018171150174
 20
303.47321710336223
 11
1409.4018171150183
 21
303.47321710336223
  0
LINE
  8
_0-7_枠細線
  6
CONTINUOUS
 62
    5
 10
1139.4018171150174
 20
328.47321710336223
 11
1409.4018171150183
 21
328.47321710336223
  0
LINE
  8
_0-7_枠細線
  6
CONTINUOUS
 62
    5
 10
1139.4018171150174
 20
223.47321710336274
 11
1409.4018171150183
 21
223.47321710336274
  0
LINE
  8
_0-7_枠細線
  6
CONTINUOUS
 62
    5
 10
1189.4018171150183
 20
328.47321710336223
 11
1189.4018171150183
 21
223.47321710336274
  0
LINE
  8
_0-7_枠細線
  6
CONTINUOUS
 62
    5
 10
1139.4018171150174
 20
328.47321710336223
 11
1139.4018171150174
 21
223.47321710336274
  0
TEXT
  8
_0-7_枠細線
 62
    5
 10
1140.4018171150183
 20
243.47321710336257
 40
15.000000000000002
 41
0.8
 50
0
  1
表面形状
  0
TEXT
  8
_0-7_枠細線
 62
    5
 10
1147.1760284558286
 20
330.9732171033624
 40
17.500000000000004
 41
0.7999999999999996
 50
0
  1
記号表
  0
TEXT
  8
_0-7_枠細線
 62
    5
 10
1140.4018171150183
 20
283.47321710336246
 40
15.000000000000002
 41
0.8
 50
0
  1
記　　号
  0
ARC
  8
_0-7_枠細線
  6
CONTINUOUS
 62
    5
 10
1282.9664605906703
 20
242.85777402966897
 40
12.026499332130607
 50
317.5616290000047
 51
42.438370999994966
  0
ARC
  8
_0-7_枠細線
  6
CONTINUOUS
 62
    5
 10
1300.7176602555628
 20
259.08866002804609
 40
12.026499332130607
 50
137.56162900000001
 51
222.43837100000297
  0
ARC
  8
_0-7_枠細線
  6
CONTINUOUS
 62
    5
 10
1188.0859738141417
 20
242.85777402966897
 40
12.026499332130607
 50
317.5616290000047
 51
42.438370999994966
  0
ARC
  8
_0-7_枠細線
  6
CONTINUOUS
 62
    5
 10
1205.8371734790342
 20
259.08866002804609
 40
12.026499332130607
 50
137.56162900000001
 51
222.43837100000297
  0
LINE
  8
_0-7_枠細線
  6
CONTINUOUS
 62
    5
 10
1194.4553061852557
 20
262.97321702885733
 11
1289.3357929617841
 21
262.97321702885733
  0
LINE
  8
_0-7_枠細線
  6
CONTINUOUS
 62
    5
 10
1294.3483278844485
 20
238.97321702885733
 11
1199.4678411079201
 21
238.97321702885733
  0
ARC
  8
_0-7_枠細線
  6
CONTINUOUS
 62
    5
 10
1392.966460590671
 20
242.85777402966897
 40
12.026499332130607
 50
317.5616290000047
 51
42.438370999994966
  0
ARC
  8
_0-7_枠細線
  6
CONTINUOUS
 62
    5
 10
1410.7176602555635
 20
259.08866002804609
 40
12.026499332130607
 50
137.56162900000001
 51
222.43837100000297
  0
ARC
  8
_0-7_枠細線
  6
CONTINUOUS
 62
    5
 10
1298.0859738141421
 20
242.85777402966897
 40
12.026499332130607
 50
317.5616290000047
 51
42.438370999994966
  0
ARC
  8
_0-7_枠細線
  6
CONTINUOUS
 62
    5
 10
1315.8371734790348
 20
259.08866002804609
 40
12.026499332130607
 50
137.56162900000001
 51
222.43837100000297
  0
LINE
  8
_0-7_枠細線
  6
CONTINUOUS
 62
    5
 10
1304.4553061852562
 20
262.97321702885733
 11
1399.3357929617846
 21
262.97321702885733
  0
LINE
  8
_0-7_枠細線
  6
CONTINUOUS
 62
    5
 10
1404.3483278844492
 20
238.97321702885733
 11
1309.4678411079208
 21
238.97321702885733
  0
LINE
  8
_0-7_枠細線
  6
CONTINUOUS
 62
    5
 10
1310.0055655050667
 20
244.4577803132122
 11
1315.4901287894213
 21
238.9732170288575
  0
LINE
  8
_0-7_枠細線
  6
CONTINUOUS
 62
    5
 10
1304.3960893257238
 20
262.79517855391305
 11
1328.218050850779
 21
238.97321702885748
  0
LINE
  8
_0-7_枠細線
  6
CONTINUOUS
 62
    5
 10
1316.9459729121372
 20
262.97321702885745
 11
1340.9459729121368
 21
238.97321702885748
  0
LINE
  8
_0-7_枠細線
  6
CONTINUOUS
 62
    5
 10
1329.6738949734947
 20
262.97321702885745
 11
1353.6738949734945
 21
238.97321702885748
  0
LINE
  8
_0-7_枠細線
  6
CONTINUOUS
 62
    5
 10
1342.4018170348527
 20
262.97321702885745
 11
1366.4018170348525
 21
238.97321702885745
  0
LINE
  8
_0-7_枠細線
  6
CONTINUOUS
 62
    5
 10
1355.1297390962102
 20
262.97321702885733
 11
1379.12973909621
 21
238.97321702885739
  0
LINE
  8
_0-7_枠細線
  6
CONTINUOUS
 62
    5
 10
1367.8576611575681
 20
262.97321702885733
 11
1391.8576611575677
 21
238.97321702885739
  0
LINE
  8
_0-7_枠細線
  6
CONTINUOUS
 62
    5
 10
1380.5855832189261
 20
262.97321702885733
 11
1404.4075447439814
 21
239.15125550380145
  0
LINE
  8
_0-7_枠細線
  6
CONTINUOUS
 62
    5
 10
1393.3135052802836
 20
262.97321702885733
 11
1398.7980685646389
 21
257.48865374450202
  0
LINE
  8
_0-7_枠細線
  6
CONTINUOUS
 62
    5
 10
1393.3135052802843
 20
238.97321702885739
 11
1403.3188705607763
 21
248.97858230934932
  0
LINE
  8
_0-7_枠細線
  6
CONTINUOUS
 62
    5
 10
1380.5855832189263
 20
238.97321702885739
 11
1398.8365633238182
 21
257.22419713374904
  0
LINE
  8
_0-7_枠細線
  6
CONTINUOUS
 62
    5
 10
1367.8576611575684
 20
238.97321702885745
 11
1391.8576611575686
 21
262.97321702885733
  0
LINE
  8
_0-7_枠細線
  6
CONTINUOUS
 62
    5
 10
1355.1297390962109
 20
238.97321702885748
 11
1379.1297390962106
 21
262.97321702885733
  0
LINE
  8
_0-7_枠細線
  6
CONTINUOUS
 62
    5
 10
1342.4018170348527
 20
238.97321702885748
 11
1366.4018170348527
 21
262.97321702885733
  0
LINE
  8
_0-7_枠細線
  6
CONTINUOUS
 62
    5
 10
1329.673894973495
 20
238.97321702885748
 11
1353.673894973495
 21
262.97321702885733
  0
LINE
  8
_0-7_枠細線
  6
CONTINUOUS
 62
    5
 10
1316.9459729121374
 20
238.9732170288575
 11
1340.9459729121372
 21
262.97321702885745
  0
LINE
  8
_0-7_枠細線
  6
CONTINUOUS
 62
    5
 10
1309.9670707458877
 20
244.72223692396568
 11
1328.2180508507793
 21
262.97321702885745
  0
LINE
  8
_0-7_枠細線
  6
CONTINUOUS
 62
    5
 10
1305.4847635089297
 20
252.96785174836555
 11
1315.4901287894218
 21
262.97321702885745
  0
LINE
  8
_0-9_枠極太
  6
CONTINUOUS
 62
    5
 10
60
 20
60
 11
60
 21
960
  0
LINE
  8
_0-9_枠極太
  6
CONTINUOUS
 62
    5
 10
60
 20
960
 11
1425
 21
960
  0
LINE
  8
_0-9_枠極太
  6
CONTINUOUS
 62
    5
 10
1425
 20
960
 11
1425
 21
60
  0
LINE
  8
_0-9_枠極太
  6
CONTINUOUS
 62
    5
 10
1425
 20
60
 11
60
 21
60
  0
LINE
  8
_0-0_計極細
  6
CENTER2
 62
    2
 10
1248.9337497004358
 20
681.93908616188662
 11
200.93374970043541
 21
681.93908616188662
  0
LINE
  8
_0-5_寸法線
  6
CONTINUOUS
 62
    7
 10
190.93374970043541
 20
551.93908616188639
 11
145.93374970043541
 21
551.93908616188651
  0
LINE
  8
_0-5_寸法線
  6
CONTINUOUS
 62
    7
 10
150.93374970043541
 20
551.93908616188651
 11
148.3455592494102
 21
561.59834442477722
  0
LINE
  8
_0-5_寸法線
  6
CONTINUOUS
 62
    7
 10
150.93374970043541
 20
551.93908616188651
 11
153.52194015146063
 21
561.59834442477722
  0
LINE
  8
_0-5_寸法線
  6
CONTINUOUS
 62
    7
 10
190.93374970043442
 20
581.93908616188583
 11
145.93374970043541
 21
581.93908616188594
  0
LINE
  8
_0-5_寸法線
  6
CONTINUOUS
 62
    7
 10
150.93374970043541
 20
581.93908616188594
 11
153.52194015146054
 21
572.27982789899534
  0
LINE
  8
_0-5_寸法線
  6
CONTINUOUS
 62
    7
 10
150.93374970043541
 20
581.93908616188594
 11
148.34555924941014
 21
572.27982789899534
  0
LINE
  8
_0-5_寸法線
  6
CONTINUOUS
 62
    7
 10
150.93374970043541
 20
551.93908616188651
 11
150.93374970043541
 21
581.93908616188594
  0
TEXT
  8
_0-5_寸法線
 62
    7
 10
150.93374970043541
 20
559.4390861618856
 40
15
 41
1
 50
90
  1
30
  0
LINE
  8
_0-5_寸法線
  6
CONTINUOUS
 62
    7
 10
150.93374970043541
 20
581.93908616188594
 11
148.3455592494102
 21
591.59834442477666
  0
LINE
  8
_0-5_寸法線
  6
CONTINUOUS
 62
    7
 10
150.93374970043541
 20
581.93908616188594
 11
153.52194015146063
 21
591.59834442477666
  0
LINE
  8
_0-5_寸法線
  6
CONTINUOUS
 62
    7
 10
190.93374970043442
 20
781.93908616188446
 11
145.93374970043541
 21
781.93908616188469
  0
LINE
  8
_0-5_寸法線
  6
CONTINUOUS
 62
    7
 10
150.93374970043541
 20
781.93908616188469
 11
153.52194015146054
 21
772.27982789899386
  0
LINE
  8
_0-5_寸法線
  6
CONTINUOUS
 62
    7
 10
150.93374970043541
 20
781.93908616188469
 11
148.34555924941014
 21
772.27982789899386
  0
LINE
  8
_0-5_寸法線
  6
CONTINUOUS
 62
    7
 10
150.93374970043541
 20
581.93908616188594
 11
150.93374970043541
 21
781.93908616188469
  0
TEXT
  8
_0-5_寸法線
 62
    7
 10
150.93374970043533
 20
670.6890861618856
 40
15
 41
1
 50
89.999999999999815
  1
200
  0
LINE
  8
_0-5_寸法線
  6
CONTINUOUS
 62
    7
 10
150.93374970043541
 20
781.93908616188469
 11
148.3455592494102
 21
791.59834442477529
  0
LINE
  8
_0-5_寸法線
  6
CONTINUOUS
 62
    7
 10
150.93374970043541
 20
781.93908616188469
 11
153.52194015146063
 21
791.59834442477529
  0
LINE
  8
_0-5_寸法線
  6
CONTINUOUS
 62
    7
 10
190.93374970043669
 20
811.93908616188924
 11
145.93374970043541
 21
811.93908616188935
  0
LINE
  8
_0-5_寸法線
  6
CONTINUOUS
 62
    7
 10
150.93374970043541
 20
811.93908616188935
 11
153.52194015146054
 21
802.27982789899852
  0
LINE
  8
_0-5_寸法線
  6
CONTINUOUS
 62
    7
 10
150.93374970043541
 20
811.93908616188935
 11
148.34555924941014
 21
802.27982789899852
  0
LINE
  8
_0-5_寸法線
  6
CONTINUOUS
 62
    7
 10
150.93374970043541
 20
781.93908616188469
 11
150.93374970043541
 21
811.93908616188935
  0
TEXT
  8
_0-5_寸法線
 62
    7
 10
150.93374970043541
 20
789.4390861618856
 40
15
 41
1
 50
90
  1
30
  0
LINE
  8
_0-5_寸法線
  6
CONTINUOUS
 62
    7
 10
1258.9337497004349
 20
551.93908616188571
 11
1338.9337497004349
 21
551.93908616188548
  0
LINE
  8
_0-5_寸法線
  6
CONTINUOUS
 62
    7
 10
1333.9337497004349
 20
551.93908616188548
 11
1331.3455592494097
 21
561.5983444247762
  0
LINE
  8
_0-5_寸法線
  6
CONTINUOUS
 62
    7
 10
1333.9337497004349
 20
551.93908616188548
 11
1336.5219401514603
 21
561.5983444247762
  0
LINE
  8
_0-5_寸法線
  6
CONTINUOUS
 62
    7
 10
1258.9337497004362
 20
811.93908616188821
 11
1338.9337497004349
 21
811.9390861618881
  0
LINE
  8
_0-5_寸法線
  6
CONTINUOUS
 62
    7
 10
1333.9337497004349
 20
811.9390861618881
 11
1336.5219401514603
 21
802.27982789899727
  0
LINE
  8
_0-5_寸法線
  6
CONTINUOUS
 62
    7
 10
1333.9337497004349
 20
811.9390861618881
 11
1331.3455592494097
 21
802.27982789899727
  0
LINE
  8
_0-5_寸法線
  6
CONTINUOUS
 62
    7
 10
1333.9337497004349
 20
551.93908616188548
 11
1333.9337497004349
 21
811.9390861618881
  0
TEXT
  8
_0-5_寸法線
 62
    7
 10
1333.9337497004349
 20
670.68908616188492
 40
15
 41
1
 50
90
  1
260
  0
LINE
  8
_0-a_極細3
  6
CONTINUOUS
 62
    7
 10
690.9306597701725
 20
251.56810565799074
 11
687.09732643683901
 21
251.56810565799074
  0
LINE
  8
_0-a_極細3
  6
CONTINUOUS
 62
    7
 10
690.9306597701725
 20
254.9014389913242
 11
687.09732643683901
 21
254.9014389913242
  0
LINE
  8
_0-a_極細3
  6
CONTINUOUS
 62
    7
 10
690.9306597701725
 20
248.23477232465748
 11
687.09732643683901
 21
248.23477232465748
  0
LINE
  8
_0-a_極細3
  6
CONTINUOUS
 62
    7
 10
690.9306597701725
 20
258.23477232465746
 11
687.09732643683901
 21
258.23477232465746
  0
LINE
  8
_0-a_極細3
  6
CONTINUOUS
 62
    7
 10
687.09732643683901
 20
224.9014389913242
 11
690.9306597701725
 21
224.9014389913242
  0
LINE
  8
_0-a_極細3
  6
CONTINUOUS
 62
    7
 10
690.9306597701725
 20
274.9014389913242
 11
687.09732643683901
 21
274.9014389913242
  0
LINE
  8
_0-b_細線3
  6
CONTINUOUS
 62
    7
 10
687.09732643683901
 20
278.23477232465746
 11
687.09732643683901
 21
219.9014389913242
  0
LINE
  8
_0-b_細線3
  6
CONTINUOUS
 62
    7
 10
687.09732643683901
 20
219.9014389913242
 11
690.9306597701725
 21
219.9014389913242
  0
LINE
  8
_0-b_細線3
  6
CONTINUOUS
 62
    7
 10
690.9306597701725
 20
219.9014389913242
 11
690.9306597701725
 21
278.23477232465746
  0
LINE
  8
_0-b_細線3
  6
CONTINUOUS
 62
    7
 10
690.9306597701725
 20
278.23477232465746
 11
687.09732643683901
 21
278.23477232465746
  0
LINE
  8
_0-7_枠細線
  6
CONTINUOUS
 62
    5
 10
710.01652786341185
 20
255.96352232081148
 11
702.51652786341185
 21
270.96352232081148
  0
LINE
  8
_0-7_枠細線
  6
CONTINUOUS
 62
    5
 10
695.01652786341185
 20
255.96352232081148
 11
710.01652786341185
 21
255.96352232081148
  0
LINE
  8
_0-7_枠細線
  6
CONTINUOUS
 62
    5
 10
702.51652786341185
 20
270.96352232081148
 11
695.01652786341185
 21
255.96352232081148
  0
TEXT
  8
_0-7_枠細線
 62
    5
 10
697.38167913156008
 20
255.65652007543093
 40
12.5
 41
0.8
 50
0
  1
１
  0
LINE
  8
_0-a_極細3
  6
CONTINUOUS
 62
    7
 10
249.93065977017159
 20
251.56810565799074
 11
253.76399310350493
 21
251.56810565799074
  0
LINE
  8
_0-a_極細3
  6
CONTINUOUS
 62
    7
 10
249.93065977017159
 20
254.9014389913242
 11
253.76399310350493
 21
254.9014389913242
  0
LINE
  8
_0-a_極細3
  6
CONTINUOUS
 62
    7
 10
249.93065977017159
 20
248.23477232465748
 11
253.76399310350493
 21
248.23477232465748
  0
LINE
  8
_0-a_極細3
  6
CONTINUOUS
 62
    7
 10
249.93065977017159
 20
258.23477232465746
 11
253.76399310350493
 21
258.23477232465746
  0
LINE
  8
_0-a_極細3
  6
CONTINUOUS
 62
    7
 10
253.76399310350493
 20
224.9014389913242
 11
249.93065977017159
 21
224.9014389913242
  0
LINE
  8
_0-a_極細3
  6
CONTINUOUS
 62
    7
 10
249.93065977017159
 20
274.9014389913242
 11
253.76399310350493
 21
274.9014389913242
  0
LINE
  8
_0-b_細線3
  6
CONTINUOUS
 62
    7
 10
253.76399310350493
 20
278.23477232465746
 11
253.76399310350493
 21
219.9014389913242
  0
LINE
  8
_0-b_細線3
  6
CONTINUOUS
 62
    7
 10
253.76399310350493
 20
219.9014389913242
 11
249.93065977017159
 21
219.9014389913242
  0
LINE
  8
_0-b_細線3
  6
CONTINUOUS
 62
    7
 10
249.93065977017159
 20
219.9014389913242
 11
249.93065977017159
 21
278.23477232465746
  0
LINE
  8
_0-b_細線3
  6
CONTINUOUS
 62
    7
 10
249.93065977017159
 20
278.23477232465746
 11
253.76399310350493
 21
278.23477232465746
  0
LINE
  8
_0-7_枠細線
  6
CONTINUOUS
 62
    5
 10
1425
 20
907.5
 11
890
 21
907.5
  0
LINE
  8
_0-7_枠細線
  6
CONTINUOUS
 62
    5
 10
915
 20
908.94233397174708
 11
907.5
 21
923.94233397174708
  0
LINE
  8
_0-7_枠細線
  6
CONTINUOUS
 62
    5
 10
900
 20
908.94233397174708
 11
915
 21
908.94233397174708
  0
LINE
  8
_0-7_枠細線
  6
CONTINUOUS
 62
    5
 10
907.5
 20
923.94233397174708
 11
900
 21
908.94233397174708
  0
TEXT
  8
_0-7_枠細線
 62
    5
 10
902.36515126814822
 20
908.63533172636653
 40
12.5
 41
0.8
 50
0
  1
１
  0
TEXT
  8
_0-7_枠細線
 62
    5
 10
1180
 20
910
 40
12.5
 41
0.7199999999999999
 50
0
  1
２０１９．０９．０１
  0
TEXT
  8
_0-7_枠細線
 62
    5
 10
938.85037037037023
 20
910
 40
12.500000000000002
 41
1
 50
0
  1
アンカー材質･厚み変更
  0
LINE
  8
_0-7_枠細線
  6
CONTINUOUS
 62
    5
 10
890
 20
907.5
 11
890
 21
959.99999999999909
  0
LINE
  8
_0-7_枠細線
  6
CONTINUOUS
 62
    5
 10
925
 20
907.5
 11
925
 21
959.99999999999943
  0
LINE
  8
_0-7_枠細線
  6
CONTINUOUS
 62
    5
 10
1175
 20
907.5
 11
1175
 21
959.99999999999943
  0
LINE
  8
_0-7_枠細線
  6
CONTINUOUS
 62
    5
 10
1275
 20
907.5
 11
1275
 21
959.99999999999943
  0
LINE
  8
_0-5_寸法線
  6
CONTINUOUS
 62
    7
 10
1258.9337497004349
 20
551.93908616188571
 11
1303.9337497004349
 21
551.9390861618856
  0
LINE
  8
_0-5_寸法線
  6
CONTINUOUS
 62
    7
 10
1298.9337497004349
 20
551.9390861618856
 11
1301.5219401514603
 21
542.27982789899488
  0
LINE
  8
_0-5_寸法線
  6
CONTINUOUS
 62
    7
 10
1298.9337497004349
 20
551.9390861618856
 11
1296.3455592494097
 21
542.27982789899488
  0
LINE
  8
_0-5_寸法線
  6
CONTINUOUS
 62
    7
 10
1258.9337497004349
 20
554.93908616188583
 11
1303.9337497004349
 21
554.9390861618856
  0
CIRCLE
  8
_0-5_寸法線
  6
CONTINUOUS
 62
    1
 10
1298.9337497004349
 20
554.9390861618856
 40
1.5000000000000002
  0
LINE
  8
_0-5_寸法線
  6
CONTINUOUS
 62
    7
 10
1298.9337497004349
 20
526.9390861618856
 11
1298.9337497004349
 21
554.9390861618856
  0
TEXT
  8
_0-5_寸法線
 62
    7
 10
1298.9337497004349
 20
530.07447939858616
 40
15
 41
1
 50
90
  1
3
  0
LINE
  8
_0-5_寸法線
  6
CONTINUOUS
 62
    7
 10
1258.9337497004349
 20
556.93908616188571
 11
1303.9337497004349
 21
556.9390861618856
  0
LINE
  8
_0-5_寸法線
  6
CONTINUOUS
 62
    7
 10
1298.9337497004349
 20
554.9390861618856
 11
1298.9337497004349
 21
556.9390861618856
  0
TEXT
  8
_0-5_寸法線
 62
    7
 10
1317.94437947291
 20
554.93908616188583
 40
15
 41
1
 50
90
  1
2
  0
LINE
  8
_0-5_寸法線
  6
CONTINUOUS
 62
    7
 10
1298.9337497004349
 20
556.9390861618856
 11
1296.3455592494097
 21
566.59834442477631
  0
LINE
  8
_0-5_寸法線
  6
CONTINUOUS
 62
    7
 10
1298.9337497004349
 20
556.9390861618856
 11
1301.5219401514603
 21
566.59834442477631
  0
LINE
  8
_0-5_寸法線
  6
CONTINUOUS
 62
    7
 10
1258.9337497004349
 20
806.93908616188594
 11
1303.9337497004349
 21
806.93908616188583
  0
LINE
  8
_0-5_寸法線
  6
CONTINUOUS
 62
    7
 10
1298.9337497004349
 20
806.93908616188583
 11
1301.5219401514603
 21
797.27982789899499
  0
LINE
  8
_0-5_寸法線
  6
CONTINUOUS
 62
    7
 10
1298.9337497004349
 20
806.93908616188583
 11
1296.3455592494097
 21
797.27982789899499
  0
LINE
  8
_0-5_寸法線
  6
CONTINUOUS
 62
    7
 10
1298.9337497004349
 20
556.9390861618856
 11
1298.9337497004349
 21
806.93908616188583
  0
TEXT
  8
_0-5_寸法線
 62
    7
 10
1298.9337497004349
 20
670.68908616188583
 40
15
 41
1
 50
90
  1
250
  0
LINE
  8
_0-5_寸法線
  6
CONTINUOUS
 62
    7
 10
1258.9337497004346
 20
808.93908616188583
 11
1303.9337497004349
 21
808.93908616188571
  0
CIRCLE
  8
_0-5_寸法線
  6
CONTINUOUS
 62
    1
 10
1298.9337497004349
 20
808.93908616188571
 40
1.5000000000000002
  0
LINE
  8
_0-5_寸法線
  6
CONTINUOUS
 62
    7
 10
1298.9337497004349
 20
806.93908616188583
 11
1298.9337497004349
 21
808.93908616188571
  0
TEXT
  8
_0-5_寸法線
 62
    7
 10
1318.0966140315684
 20
801.43908616188571
 40
15
 41
1
 50
90
  1
2
  0
LINE
  8
_0-5_寸法線
  6
CONTINUOUS
 62
    7
 10
1258.9337497004362
 20
811.93908616188821
 11
1303.9337497004349
 21
811.93908616188821
  0
LINE
  8
_0-5_寸法線
  6
CONTINUOUS
 62
    7
 10
1298.9337497004349
 20
811.93908616188821
 11
1296.3455592494097
 21
821.59834442477882
  0
LINE
  8
_0-5_寸法線
  6
CONTINUOUS
 62
    7
 10
1298.9337497004349
 20
811.93908616188821
 11
1301.5219401514603
 21
821.59834442477882
  0
LINE
  8
_0-5_寸法線
  6
CONTINUOUS
 62
    7
 10
1298.9337497004349
 20
808.93908616188571
 11
1298.9337497004349
 21
836.93908616188821
  0
TEXT
  8
_0-5_寸法線
 62
    7
 10
1298.9337497004349
 20
825.38000192468007
 40
15
 41
1
 50
90
  1
3
  0
LINE
  8
_0-d_寸法3
  6
CONTINUOUS
 62
    7
 10
253.7639931035057
 20
381.56810565799071
 11
244.10473484061498
 21
378.97991520696559
  0
LINE
  8
_0-d_寸法3
  6
CONTINUOUS
 62
    7
 10
253.7639931035057
 20
381.56810565799071
 11
244.10473484061504
 21
384.15629610901595
  0
LINE
  8
_0-d_寸法3
  6
CONTINUOUS
 62
    7
 10
258.76399310350553
 20
300.73477232465723
 11
258.7639931035057
 21
386.56810565799077
  0
CIRCLE
  8
_0-d_寸法3
  6
CONTINUOUS
 62
    1
 10
258.7639931035057
 20
381.56810565799071
 40
1.5000000000000002
  0
LINE
  8
_0-d_寸法3
  6
CONTINUOUS
 62
    7
 10
228.7639931035057
 20
381.56810565799071
 11
258.7639931035057
 21
381.56810565799071
  0
TEXT
  8
_0-d_寸法3
 62
    7
 10
232.6193251595825
 20
381.56810565799071
 40
15
 41
1
 50
0
  1
3
  0
LINE
  8
_0-d_寸法3
  6
CONTINUOUS
 62
    7
 10
262.0973264368385
 20
298.23477065631289
 11
262.09732643683878
 21
386.56810565799077
  0
LINE
  8
_0-d_寸法3
  6
CONTINUOUS
 62
    7
 10
258.7639931035057
 20
381.56810565799071
 11
262.09732643683878
 21
381.56810565799071
  0
TEXT
  8
_0-d_寸法3
 62
    7
 10
256.68065977017199
 20
381.56810565799071
 40
15
 41
1
 50
0
  1
2
  0
LINE
  8
_0-d_寸法3
  6
CONTINUOUS
 62
    7
 10
262.09732643683878
 20
381.56810565799071
 11
271.75658469972944
 21
384.1562961090159
  0
LINE
  8
_0-d_寸法3
  6
CONTINUOUS
 62
    7
 10
262.09732643683878
 20
381.56810565799071
 11
271.75658469972944
 21
378.97991520696559
  0
LINE
  8
_0-d_寸法3
  6
CONTINUOUS
 62
    7
 10
678.76399310350553
 20
298.23477065631289
 11
678.76399310350553
 21
386.56810565799077
  0
LINE
  8
_0-d_寸法3
  6
CONTINUOUS
 62
    7
 10
678.76399310350553
 20
381.56810565799071
 11
669.10473484061481
 21
378.97991520696559
  0
LINE
  8
_0-d_寸法3
  6
CONTINUOUS
 62
    7
 10
678.76399310350553
 20
381.56810565799071
 11
669.10473484061481
 21
384.15629610901595
  0
LINE
  8
_0-d_寸法3
  6
CONTINUOUS
 62
    7
 10
262.09732643683878
 20
381.56810565799071
 11
678.76399310350553
 21
381.56810565799071
  0
TEXT
  8
_0-d_寸法3
 62
    7
 10
459.18065977017199
 20
381.56810565799071
 40
15
 41
1
 50
0
  1
250
  0
LINE
  8
_0-d_寸法3
  6
CONTINUOUS
 62
    7
 10
682.09732643683867
 20
300.73477232465723
 11
682.09732643683867
 21
386.56810565799077
  0
CIRCLE
  8
_0-d_寸法3
  6
CONTINUOUS
 62
    1
 10
682.09732643683867
 20
381.56810565799071
 40
1.5000000000000002
  0
LINE
  8
_0-d_寸法3
  6
CONTINUOUS
 62
    7
 10
678.76399310350553
 20
381.56810565799071
 11
682.09732643683867
 21
381.56810565799071
  0
TEXT
  8
_0-d_寸法3
 62
    7
 10
676.68065977017204
 20
381.56810565799071
 40
15
 41
1
 50
0
  1
2
  0
LINE
  8
_0-d_寸法3
  6
CONTINUOUS
 62
    7
 10
687.09732643683867
 20
381.56810565799071
 11
696.75658469972927
 21
384.1562961090159
  0
LINE
  8
_0-d_寸法3
  6
CONTINUOUS
 62
    7
 10
687.09732643683867
 20
381.56810565799071
 11
696.75658469972927
 21
378.97991520696553
  0
LINE
  8
_0-d_寸法3
  6
CONTINUOUS
 62
    7
 10
682.09732643683867
 20
381.56810565799071
 11
712.09732643683867
 21
381.56810565799071
  0
TEXT
  8
_0-d_寸法3
 62
    7
 10
701.49427733982589
 20
381.56810565799071
 40
15
 41
1
 50
0
  1
3
  0
ENDSEC
  0
EOF
