  0
SECTION
  2
HEADER
  9
$ACADVER
  1
AC1009
  9
$INSBASE
 10
0
 20
0
 30
0
  9
$EXTMIN
 10
0
 20
0
  9
$EXTMAX
 10
1485
 20
1050
  9
$LIMMIN
 10
0
 20
0
  9
$LIMMAX
 10
1485
 20
1050
  9
$LTSCALE
 40
5
  0
ENDSEC
  0
SECTION
  2
TABLES
  0
TABLE
  2
LTYPE
 70
     9
  0
LTYPE
  2
CONTINUOUS
 70
    64
  3
実線
 72
    65
 73
     0
 40
0.0
  0
LTYPE
  2
DASHED1
 70
    64
  3
--  --  --  --  --  --  --  --  
 72
    65
 73
     2
 40
2.5
 49
1.25
 49
-1.25
  0
LTYPE
  2
DASHED2
 70
    64
  3
----    ----    ----    ----    
 72
    65
 73
     2
 40
5.0
 49
2.5
 49
-2.5
  0
LTYPE
  2
DASHED3
 70
    64
  3
------  ------  ------  ------  
 72
    65
 73
     2
 40
5.0
 49
3.75
 49
-1.25
  0
LTYPE
  2
CENTER1
 70
    64
  3
----- - ----- - ----- - ----- - 
 72
    65
 73
     4
 40
10.0
 49
6.25
 49
-1.25
 49
1.25
 49
-1.25
  0
LTYPE
  2
CENTER2
 70
    64
  3
----------  --  ----------  --  
 72
    65
 73
     4
 40
20.0
 49
12.5
 49
-2.5
 49
2.5
 49
-2.5
  0
LTYPE
  2
PHANTOM1
 70
    64
  3
--- - - --- - - --- - - --- - - 
 72
    65
 73
     6
 40
10.0
 49
3.25
 49
-1.25
 49
1.25
 49
-1.25
 49
1.25
 49
-1.25
  0
LTYPE
  2
PHANTOM2
 70
    64
  3
--------  -  -  --------  -  -  
 72
    65
 73
     6
 40
20.0
 49
10.0
 49
-2.5
 49
1.25
 49
-2.5
 49
1.25
 49
-2.5
  0
LTYPE
  2
DOT
 70
    64
  3
-   -   -   -   -   -   -   -   
 72
    65
 73
     2
 40
2.5
 49
0.625
 49
-1.875
  0
LTYPE
  2
DUMMY
 70
    64
  3
ダミー
 72
    65
 73
     0
 40
0.0
  0
LTYPE
  2
RAND1
 70
    64
  3
ランダム線1
 72
    65
 73
     4
 40
10.0
 49
1.0
 49
-2.0
 49
3.0
 49
-4.0
  0
LTYPE
  2
RAND2
 70
    64
  3
ランダム線2
 72
    65
 73
     4
 40
14.0
 49
2.0
 49
-3.0
 49
4.0
 49
-5.0
  0
LTYPE
  2
RAND3
 70
    64
  3
ランダム線3
 72
    65
 73
     4
 40
18.0
 49
3.0
 49
-4.0
 49
5.0
 49
-6.0
  0
LTYPE
  2
RAND4
 70
    64
  3
ランダム線4
 72
    65
 73
     4
 40
22.0
 49
4.0
 49
-5.0
 49
6.0
 49
-7.0
  0
LTYPE
  2
RAND5
 70
    64
  3
ランダム線5
 72
    65
 73
     4
 40
26.0
 49
5.0
 49
-6.0
 49
7.0
 49
-8.0
  0
LTYPE
  2
LONG1
 70
    64
  3
----------  --  ----------  --  
 72
    65
 73
     4
 40
40.0
 49
32.5
 49
-2.5
 49
2.5
 49
-2.5
  0
LTYPE
  2
LONG2
 70
    64
  3
--------  -  -  --------  -  -  
 72
    65
 73
     6
 40
40.0
 49
30.0
 49
-2.5
 49
1.25
 49
-2.5
 49
1.25
 49
-2.5
  0
LTYPE
  2
LONG3
 70
    64
  3
+++++++++++++++..+++++++++++++++
 72
    65
 73
     2
 40
40.0
 49
37.5
 49
-2.5
  0
LTYPE
  2
LONG4
 70
    64
  3
+++++++++++++++..+++++++++++++++
 72
    65
 73
     2
 40
80.0
 49
75.0
 49
-5.0
  0
LTYPE
  2
LONG5
 70
    64
  3
----------  --  ----------  --  
 72
    65
 73
     4
 40
60.0
 49
37.5
 49
-7.5
 49
7.5
 49
-7.5
  0
LTYPE
  2
dashed
 70
   64
  3
-------   -------------   ------
 72
   65
 73
    2
 40
7.5
 49
6
 49
-1.5
  0
LTYPE
  2
dashed_spaced
 70
   64
  3
----        --------        ----
 72
   65
 73
    2
 40
12
 49
6
 49
-6
  0
LTYPE
  2
long_dashed_dotted
 70
   64
  3
------------- --- --------------
 72
   65
 73
    4
 40
15.25
 49
12
 49
-1.5
 49
0.25
 49
-1.5
  0
LTYPE
  2
long_dashed_double-dotted
 70
   64
  3
----------- --- --- ------------
 72
   65
 73
    6
 40
17
 49
12
 49
-1.5
 49
0.25
 49
-1.5
 49
0.25
 49
-1.5
  0
LTYPE
  2
long_dashed_triplicate-dotted
 70
   64
  3
--------- --- --- --- ----------
 72
   65
 73
    8
 40
18.75
 49
12
 49
-1.5
 49
0.25
 49
-1.5
 49
0.25
 49
-1.5
 49
0.25
 49
-1.5
  0
LTYPE
  2
dotted
 70
   64
  3
   -       -       -       -    
 72
   65
 73
    2
 40
1.75
 49
0.25
 49
-1.5
  0
LTYPE
  2
chain
 70
   64
  3
-------------- -- --------------
 72
   65
 73
    4
 40
18.5
 49
12
 49
-1.5
 49
3.5
 49
-1.5
  0
LTYPE
  2
chain_double_dash
 70
   64
  3
------------ -- -- -------------
 72
   65
 73
    6
 40
23.5
 49
12
 49
-1.5
 49
3.5
 49
-1.5
 49
3.5
 49
-1.5
  0
LTYPE
  2
dashed_dotted
 70
   64
  3
-----------     -     ----------
 72
   65
 73
    4
 40
9.25
 49
6
 49
-1.5
 49
0.25
 49
-1.5
  0
LTYPE
  2
double-dashed_dotted
 70
   64
  3
------   -----------   -   -----
 72
   65
 73
    6
 40
16.75
 49
6
 49
-1.5
 49
6
 49
-1.5
 49
0.25
 49
-1.5
  0
LTYPE
  2
dashed_double-dotted
 70
   64
  3
---------    -    -    ---------
 72
   65
 73
    6
 40
11
 49
6
 49
-1.5
 49
0.25
 49
-1.5
 49
0.25
 49
-1.5
  0
LTYPE
  2
double-dashed_double-dotted
 70
   64
  3
-----   ---------   -   -   ----
 72
   65
 73
    8
 40
18.5
 49
6
 49
-1.5
 49
6
 49
-1.5
 49
0.25
 49
-1.5
 49
0.25
 49
-1.5
  0
LTYPE
  2
dashed_triplicate-dotted
 70
   64
  3
-------    -    -    -    ------
 72
   65
 73
    8
 40
12.75
 49
6
 49
-1.5
 49
0.25
 49
-1.5
 49
0.25
 49
-1.5
 49
0.25
 49
-1.5
  0
LTYPE
  2
double-dashed_triplicate-dotted
 70
   64
  3
-----  ---------  -  -  -  -----
 72
   65
 73
   10
 40
20.25
 49
6
 49
-1.5
 49
6
 49
-1.5
 49
0.25
 49
-1.5
 49
0.25
 49
-1.5
 49
0.25
 49
-1.5
  0
LTYPE
  2
undefined
 70
   64
  3
--------------------------------
 72
   65
 73
    0
 40
0
  0
ENDTAB
  0
TABLE
  2
STYLE
  5
3
100
AcDbSymbolTable
 70
     1
  0
STYLE
  5
10
100
AcDbSymbolTableRecord
100
AcDbTextStyleTableRecord
  2
STANDARD
 70
     0
 40
0.0
 41
1.0
 50
0.0
 71
     0
 42
0.2
  3
txt
  4
bigfont.shx
  0
STYLE
  5
26
100
AcDbSymbolTableRecord
100
AcDbTextStyleTableRecord
  2
TATEGAKI
 70
    68
 40
0.0
 41
1.0
 50
0.0
 71
     0
 42
1.0
  3
txt
  4
bigfont.shx
  0
ENDTAB
  0
TABLE
  2
LAYER
 70
   10
  0
LAYER
  2
_0-0_計極細
 70
   64
 62
    7
  6
CONTINUOUS
  0
LAYER
  2
_0-1_計細線
 70
   64
 62
    7
  6
CONTINUOUS
  0
LAYER
  2
_0-5_寸法線
 70
   64
 62
    7
  6
CONTINUOUS
  0
LAYER
  2
_0-7_枠細線
 70
   64
 62
    7
  6
CONTINUOUS
  0
LAYER
  2
_0-8_枠中線
 70
   64
 62
    7
  6
CONTINUOUS
  0
LAYER
  2
_0-9_枠極太
 70
   64
 62
    7
  6
CONTINUOUS
  0
LAYER
  2
_0-a_極細3
 70
   64
 62
    7
  6
CONTINUOUS
  0
LAYER
  2
_0-b_細線3
 70
   64
 62
    7
  6
CONTINUOUS
  0
LAYER
  2
_0-d_寸法3
 70
   64
 62
    7
  6
CONTINUOUS
  0
LAYER
  2
ADD_LINE
 70
   64
 62
    7
  6
CONTINUOUS
  0
ENDTAB
  0
ENDSEC
  0
SECTION
  2
BLOCKS
  0
ENDSEC
  0
SECTION
  2
ENTITIES
  0
LINE
  8
_0-7_枠細線
  6
CONTINUOUS
 62
    5
 10
1425
 20
942.5
 11
890
 21
942.5
  0
TEXT
  8
_0-7_枠細線
 62
    5
 10
895
 20
945
 40
12.5
 41
1
 50
0
  1
記号
  0
TEXT
  8
_0-7_枠細線
 62
    5
 10
996.875
 20
945
 40
12.5
 41
1
 50
0
  1
訂　 正　 記　 事
  0
TEXT
  8
_0-7_枠細線
 62
    5
 10
1181.25
 20
945
 40
12.5
 41
1
 50
0
  1
訂 正 年 月 日
  0
TEXT
  8
_0-7_枠細線
 62
    5
 10
1306.25
 20
945
 40
12.5
 41
1
 50
0
  1
備　　　　　考
  0
LINE
  8
_0-7_枠細線
  6
CONTINUOUS
 62
    5
 10
1185
 20
180
 11
1185
 21
100
  0
TEXT
  8
_0-7_枠細線
 62
    5
 10
937.5
 20
97.5
 40
17.5
 41
1
 50
0
  1
備考
  7
TATEGAKI
  0
TEXT
  8
_0-7_枠細線
 62
    5
 10
937.5
 20
137.5
 40
17.5
 41
1
 50
0
  1
品番
  7
TATEGAKI
  0
TEXT
  8
_0-7_枠細線
 62
    5
 10
937.5
 20
177.5
 40
17.5
 41
1
 50
0
  1
品名
  7
TATEGAKI
  0
LINE
  8
_0-7_枠細線
  6
CONTINUOUS
 62
    5
 10
1185
 20
140
 11
925
 21
140
  0
LINE
  8
_0-7_枠細線
  6
CONTINUOUS
 62
    5
 10
950
 20
180
 11
950
 21
60
  0
LINE
  8
_0-8_枠中線
  6
CONTINUOUS
 62
    5
 10
1425
 20
180
 11
925
 21
180
  0
LINE
  8
_0-8_枠中線
  6
CONTINUOUS
 62
    5
 10
925
 20
180
 11
925
 21
60
  0
LINE
  8
_0-7_枠細線
  6
CONTINUOUS
 62
    5
 10
1245
 20
180
 11
1245
 21
60
  0
TEXT
  8
_0-7_枠細線
 62
    5
 10
1192.5
 20
160
 40
15
 41
1
 50
0
  1
縮　尺
  0
TEXT
  8
_0-7_枠細線
 62
    5
 10
1194
 20
117.5
 40
20
 41
0.7000000000000001
 50
0
  1
１：５
  0
LINE
  8
_0-7_枠細線
  6
CONTINUOUS
 62
    5
 10
1185
 20
155
 11
1245
 21
155
  0
LINE
  8
_0-7_枠細線
  6
CONTINUOUS
 62
    5
 10
1245
 20
100
 11
925
 21
100
  0
LINE
  8
_0-7_枠細線
  6
CONTINUOUS
 62
    5
 10
1425
 20
90
 11
1245
 21
90
  0
LINE
  8
_0-7_枠細線
  6
CONTINUOUS
 62
    5
 10
1245
 20
120
 11
1425
 21
120
  0
LINE
  8
_0-7_枠細線
  6
CONTINUOUS
 62
    5
 10
1425
 20
140
 11
1245
 21
140
  0
TEXT
  8
_0-7_枠細線
 62
    5
 10
1255
 20
147.5
 40
25
 41
0.8
 50
0
  1
株式会社シマブン
  0
TEXT
  8
_0-7_枠細線
 62
    5
 10
1252.5
 20
60
 40
15
 41
1
 50
0
  1
年月日
  0
TEXT
  8
_0-7_枠細線
 62
    5
 10
1252.5
 20
75
 40
15
 41
1
 50
0
  1
作　成
  0
TEXT
  8
_0-7_枠細線
 62
    5
 10
1256.25
 20
122.5
 40
15
 41
1
 50
0
  1
承 認
  0
LINE
  8
_0-7_枠細線
  6
CONTINUOUS
 62
    5
 10
1305
 20
140
 11
1305
 21
60
  0
TEXT
  8
_0-7_枠細線
 62
    5
 10
1316.25
 20
122.5
 40
15
 41
1
 50
0
  1
検 図
  0
LINE
  8
_0-7_枠細線
  6
CONTINUOUS
 62
    5
 10
1365
 20
140
 11
1365
 21
90
  0
TEXT
  8
_0-7_枠細線
 62
    5
 10
1375
 20
95
 40
20
 41
1
 50
0
  1
藤戸
  0
TEXT
  8
_0-7_枠細線
 62
    5
 10
1376.25
 20
122.5
 40
15
 41
1
 50
0
  1
設 計
  0
TEXT
  8
_0-7_枠細線
 62
    5
 10
1255
 20
95
 40
20
 41
1
 50
0
  1
隠塚
  0
TEXT
  8
_0-7_枠細線
 62
    5
 10
1315
 20
95
 40
20
 41
1
 50
0
  1
渋田
  0
TEXT
  8
_0-7_枠細線
 62
    5
 10
965.50000000000011
 20
150
 40
20
 41
0.5
 50
0
  1
Ｔバー ステンレスグレーチング Ｈ２０タイプ
  0
TEXT
  8
_0-7_枠細線
 62
    5
 10
1310
 20
67.5
 40
15
 41
0.6666666666666666
 50
0
  1
２０１２年０２月２９日
  0
LINE
  8
_0-7_枠細線
  6
CONTINUOUS
 62
    5
 10
1425
 20
925
 11
890
 21
925
  0
TEXT
  8
_0-7_枠細線
 62
    5
 10
938.85037037037023
 20
927.5
 40
12.500000000000002
 41
1
 50
0
  1
品番変更
  0
TEXT
  8
_0-7_枠細線
 62
    5
 10
965.50000000000011
 20
110
 40
20
 41
0.6
 50
0
  1
ＧＳＴＪ－２０Ｗ３５０
  0
TEXT
  8
_0-7_枠細線
 62
    5
 10
1180
 20
927.5
 40
12.5
 41
0.7199999999999999
 50
0
  1
２０１５．０４．０１
  0
TEXT
  8
_0-7_枠細線
 62
    5
 10
965.49999999999966
 20
70
 40
20.000000000000004
 41
0.5999999999999997
 50
0
  1
表面形状については記号表参照のこと
  0
LINE
  8
_0-9_枠極太
  6
CONTINUOUS
 62
    5
 10
60
 20
60
 11
60
 21
960
  0
LINE
  8
_0-9_枠極太
  6
CONTINUOUS
 62
    5
 10
60
 20
960
 11
1425
 21
960
  0
LINE
  8
_0-9_枠極太
  6
CONTINUOUS
 62
    5
 10
1425
 20
960
 11
1425
 21
60
  0
LINE
  8
_0-9_枠極太
  6
CONTINUOUS
 62
    5
 10
1425
 20
60
 11
60
 21
60
  0
LINE
  8
_0-7_枠細線
  6
CONTINUOUS
 62
    5
 10
1409.4018171150183
 20
301.83825872048476
 11
1409.4018171150183
 21
196.83825872048521
  0
TEXT
  8
_0-7_枠細線
 62
    5
 10
1318.4018171150192
 20
281.83825872048476
 40
15.000000000000002
 41
0.8
 50
0
  1
ノンスリップ
  0
TEXT
  8
_0-7_枠細線
 62
    5
 10
1330.4018171150185
 20
256.83825872048482
 40
15.000000000000002
 41
0.8
 50
0
  1
品番－Ｄ
  0
LINE
  8
_0-7_枠細線
  6
CONTINUOUS
 62
    5
 10
1299.4018171150178
 20
301.83825872048476
 11
1299.4018171150178
 21
196.83825872048521
  0
TEXT
  8
_0-7_枠細線
 62
    5
 10
1220.4018171150178
 20
281.83825872048482
 40
15.000000000000002
 41
0.8
 50
0
  1
プレーン
  0
TEXT
  8
_0-7_枠細線
 62
    5
 10
1220.4018171150185
 20
256.83825872048482
 40
15.000000000000002
 41
0.8
 50
0
  1
品番－Ｆ
  0
TEXT
  8
_0-7_枠細線
 62
    5
 10
1140.4018171150183
 20
281.83825872048476
 40
15.000000000000002
 41
0.8
 50
0
  1
タ イ プ
  0
LINE
  8
_0-7_枠細線
  6
CONTINUOUS
 62
    5
 10
1139.4018171150174
 20
251.83825872048484
 11
1409.4018171150183
 21
251.83825872048484
  0
LINE
  8
_0-7_枠細線
  6
CONTINUOUS
 62
    5
 10
1139.4018171150174
 20
276.83825872048476
 11
1409.4018171150183
 21
276.83825872048476
  0
LINE
  8
_0-7_枠細線
  6
CONTINUOUS
 62
    5
 10
1139.4018171150174
 20
301.83825872048476
 11
1409.4018171150183
 21
301.83825872048476
  0
LINE
  8
_0-7_枠細線
  6
CONTINUOUS
 62
    5
 10
1139.4018171150174
 20
196.83825872048521
 11
1409.4018171150183
 21
196.83825872048521
  0
LINE
  8
_0-7_枠細線
  6
CONTINUOUS
 62
    5
 10
1189.4018171150183
 20
301.83825872048476
 11
1189.4018171150183
 21
196.83825872048521
  0
LINE
  8
_0-7_枠細線
  6
CONTINUOUS
 62
    5
 10
1139.4018171150174
 20
301.83825872048476
 11
1139.4018171150174
 21
196.83825872048521
  0
TEXT
  8
_0-7_枠細線
 62
    5
 10
1140.4018171150183
 20
216.83825872048502
 40
15.000000000000002
 41
0.8
 50
0
  1
表面形状
  0
TEXT
  8
_0-7_枠細線
 62
    5
 10
1147.1760284558286
 20
304.33825872048482
 40
17.500000000000004
 41
0.7999999999999996
 50
0
  1
記号表
  0
TEXT
  8
_0-7_枠細線
 62
    5
 10
1140.4018171150183
 20
256.83825872048493
 40
15.000000000000002
 41
0.8
 50
0
  1
記　　号
  0
ARC
  8
_0-7_枠細線
  6
CONTINUOUS
 62
    5
 10
1282.9664605906703
 20
216.22281564679142
 40
12.026499332130607
 50
317.5616290000047
 51
42.438370999994966
  0
ARC
  8
_0-7_枠細線
  6
CONTINUOUS
 62
    5
 10
1300.7176602555628
 20
232.45370164516856
 40
12.026499332130607
 50
137.56162900000001
 51
222.43837100000297
  0
ARC
  8
_0-7_枠細線
  6
CONTINUOUS
 62
    5
 10
1188.0859738141417
 20
216.22281564679142
 40
12.026499332130607
 50
317.5616290000047
 51
42.438370999994966
  0
ARC
  8
_0-7_枠細線
  6
CONTINUOUS
 62
    5
 10
1205.8371734790342
 20
232.45370164516856
 40
12.026499332130607
 50
137.56162900000001
 51
222.43837100000297
  0
LINE
  8
_0-7_枠細線
  6
CONTINUOUS
 62
    5
 10
1194.4553061852557
 20
236.33825864597981
 11
1289.3357929617841
 21
236.33825864597981
  0
LINE
  8
_0-7_枠細線
  6
CONTINUOUS
 62
    5
 10
1294.3483278844485
 20
212.33825864597981
 11
1199.4678411079201
 21
212.33825864597981
  0
ARC
  8
_0-7_枠細線
  6
CONTINUOUS
 62
    5
 10
1392.966460590671
 20
216.22281564679142
 40
12.026499332130607
 50
317.5616290000047
 51
42.438370999994966
  0
ARC
  8
_0-7_枠細線
  6
CONTINUOUS
 62
    5
 10
1410.7176602555635
 20
232.45370164516856
 40
12.026499332130607
 50
137.56162900000001
 51
222.43837100000297
  0
ARC
  8
_0-7_枠細線
  6
CONTINUOUS
 62
    5
 10
1298.0859738141421
 20
216.22281564679142
 40
12.026499332130607
 50
317.5616290000047
 51
42.438370999994966
  0
ARC
  8
_0-7_枠細線
  6
CONTINUOUS
 62
    5
 10
1315.8371734790348
 20
232.45370164516856
 40
12.026499332130607
 50
137.56162900000001
 51
222.43837100000297
  0
LINE
  8
_0-7_枠細線
  6
CONTINUOUS
 62
    5
 10
1304.4553061852562
 20
236.33825864597981
 11
1399.3357929617846
 21
236.33825864597981
  0
LINE
  8
_0-7_枠細線
  6
CONTINUOUS
 62
    5
 10
1404.3483278844492
 20
212.33825864597981
 11
1309.4678411079208
 21
212.33825864597981
  0
LINE
  8
_0-7_枠細線
  6
CONTINUOUS
 62
    5
 10
1310.0055655050667
 20
217.82282193033467
 11
1315.4901287894213
 21
212.33825864598001
  0
LINE
  8
_0-7_枠細線
  6
CONTINUOUS
 62
    5
 10
1304.3960893257238
 20
236.16022017103552
 11
1328.218050850779
 21
212.33825864597998
  0
LINE
  8
_0-7_枠細線
  6
CONTINUOUS
 62
    5
 10
1316.9459729121372
 20
236.33825864597995
 11
1340.9459729121368
 21
212.33825864597992
  0
LINE
  8
_0-7_枠細線
  6
CONTINUOUS
 62
    5
 10
1329.6738949734947
 20
236.33825864597995
 11
1353.6738949734945
 21
212.33825864597992
  0
LINE
  8
_0-7_枠細線
  6
CONTINUOUS
 62
    5
 10
1342.4018170348527
 20
236.33825864597995
 11
1366.4018170348525
 21
212.33825864597989
  0
LINE
  8
_0-7_枠細線
  6
CONTINUOUS
 62
    5
 10
1355.1297390962102
 20
236.33825864597981
 11
1379.12973909621
 21
212.33825864597989
  0
LINE
  8
_0-7_枠細線
  6
CONTINUOUS
 62
    5
 10
1367.8576611575681
 20
236.33825864597981
 11
1391.8576611575677
 21
212.33825864597989
  0
LINE
  8
_0-7_枠細線
  6
CONTINUOUS
 62
    5
 10
1380.5855832189261
 20
236.33825864597981
 11
1404.4075447439814
 21
212.51629712092395
  0
LINE
  8
_0-7_枠細線
  6
CONTINUOUS
 62
    5
 10
1393.3135052802836
 20
236.33825864597981
 11
1398.7980685646389
 21
230.85369536162449
  0
LINE
  8
_0-7_枠細線
  6
CONTINUOUS
 62
    5
 10
1393.3135052802843
 20
212.33825864597989
 11
1403.3188705607763
 21
222.34362392647182
  0
LINE
  8
_0-7_枠細線
  6
CONTINUOUS
 62
    5
 10
1380.5855832189263
 20
212.33825864597989
 11
1398.8365633238182
 21
230.58923875087152
  0
LINE
  8
_0-7_枠細線
  6
CONTINUOUS
 62
    5
 10
1367.8576611575684
 20
212.33825864597989
 11
1391.8576611575686
 21
236.33825864597981
  0
LINE
  8
_0-7_枠細線
  6
CONTINUOUS
 62
    5
 10
1355.1297390962109
 20
212.33825864597992
 11
1379.1297390962106
 21
236.33825864597981
  0
LINE
  8
_0-7_枠細線
  6
CONTINUOUS
 62
    5
 10
1342.4018170348527
 20
212.33825864597992
 11
1366.4018170348527
 21
236.33825864597981
  0
LINE
  8
_0-7_枠細線
  6
CONTINUOUS
 62
    5
 10
1329.673894973495
 20
212.33825864597998
 11
1353.673894973495
 21
236.33825864597981
  0
LINE
  8
_0-7_枠細線
  6
CONTINUOUS
 62
    5
 10
1316.9459729121374
 20
212.33825864598001
 11
1340.9459729121372
 21
236.33825864597995
  0
LINE
  8
_0-7_枠細線
  6
CONTINUOUS
 62
    5
 10
1309.9670707458877
 20
218.08727854108812
 11
1328.2180508507793
 21
236.33825864597995
  0
LINE
  8
_0-7_枠細線
  6
CONTINUOUS
 62
    5
 10
1305.4847635089297
 20
226.33289336548799
 11
1315.4901287894218
 21
236.33825864597995
  0
LINE
  8
_0-7_枠細線
  6
CONTINUOUS
 62
    5
 10
1139.4018171150183
 20
338.47045712540739
 11
1139.4018171150183
 21
418.47045712540751
  0
LINE
  8
_0-7_枠細線
  6
CONTINUOUS
 62
    5
 10
1229.4018171150183
 20
338.47045712540739
 11
1229.4018171150183
 21
418.47045712540751
  0
TEXT
  8
_0-7_枠細線
 62
    5
 10
1251.9018171150183
 20
395.97045712540751
 40
15
 41
1
 50
0
  1
蓋重量
  0
LINE
  8
_0-7_枠細線
  6
CONTINUOUS
 62
    5
 10
1319.4018171150183
 20
338.47045712540739
 11
1319.4018171150183
 21
418.47045712540751
  0
TEXT
  8
_0-7_枠細線
 62
    5
 10
1341.9018171150183
 20
395.97045712540751
 40
15
 41
1
 50
0
  1
枠重量
  0
LINE
  8
_0-7_枠細線
  6
CONTINUOUS
 62
    5
 10
1139.4018171150183
 20
388.47045712540751
 11
1409.4018171150183
 21
388.47045712540751
  0
LINE
  8
_0-7_枠細線
  6
CONTINUOUS
 62
    5
 10
1139.4018171150183
 20
418.47045712540751
 11
1409.4018171150183
 21
418.47045712540751
  0
LINE
  8
_0-7_枠細線
  6
CONTINUOUS
 62
    5
 10
1139.4018171150183
 20
338.47045712540739
 11
1409.4018171150183
 21
338.47045712540739
  0
LINE
  8
_0-7_枠細線
  6
CONTINUOUS
 62
    5
 10
1409.4018171150183
 20
338.47045712540739
 11
1409.4018171150183
 21
418.47045712540751
  0
TEXT
  8
_0-7_枠細線
 62
    5
 10
1154.4018171150183
 20
395.97045712540751
 40
15
 41
1
 50
0
  1
適用荷重
  0
TEXT
  8
_0-7_枠細線
 62
    5
 10
1161.9018171150183
 20
365.97045712540751
 40
15
 41
1
 50
0
  1
歩道用
  0
TEXT
  8
_0-7_枠細線
 62
    5
 10
1139.4018171150183
 20
345.97045712540739
 40
15
 41
1
 50
0
  1
（5.0kN/㎡）
  0
TEXT
  8
_0-7_枠細線
 62
    5
 10
1250.4018171150185
 20
357.22045712540739
 40
15
 41
0.8000000000000001
 50
0
  1
7.7kg/枚
  0
TEXT
  8
_0-7_枠細線
 62
    5
 10
1334.4018171150183
 20
357.22045712540739
 40
15
 41
0.8000000000000001
 50
0
  1
2.4kg/ｍ組
  0
LINE
  8
_0-7_枠細線
  6
CONTINUOUS
 62
    5
 10
1425
 20
907.5
 11
890
 21
907.5
  0
LINE
  8
_0-7_枠細線
  6
CONTINUOUS
 62
    5
 10
915
 20
908.94233397174708
 11
907.5
 21
923.94233397174708
  0
LINE
  8
_0-7_枠細線
  6
CONTINUOUS
 62
    5
 10
900
 20
908.94233397174708
 11
915
 21
908.94233397174708
  0
LINE
  8
_0-7_枠細線
  6
CONTINUOUS
 62
    5
 10
907.5
 20
923.94233397174708
 11
900
 21
908.94233397174708
  0
TEXT
  8
_0-7_枠細線
 62
    5
 10
902.36515126814822
 20
908.63533172636653
 40
12.5
 41
0.8
 50
0
  1
１
  0
TEXT
  8
_0-7_枠細線
 62
    5
 10
1180
 20
910
 40
12.5
 41
0.7199999999999999
 50
0
  1
２０１９．０９．０１
  0
TEXT
  8
_0-7_枠細線
 62
    5
 10
938.85037037037023
 20
910
 40
12.500000000000002
 41
1
 50
0
  1
アンカー材質･厚み変更
  0
LINE
  8
_0-7_枠細線
  6
CONTINUOUS
 62
    5
 10
890
 20
907.5
 11
890
 21
959.99999999999909
  0
LINE
  8
_0-7_枠細線
  6
CONTINUOUS
 62
    5
 10
925
 20
907.5
 11
925
 21
959.99999999999943
  0
LINE
  8
_0-7_枠細線
  6
CONTINUOUS
 62
    5
 10
1175
 20
907.5
 11
1175
 21
959.99999999999943
  0
LINE
  8
_0-7_枠細線
  6
CONTINUOUS
 62
    5
 10
1275
 20
907.5
 11
1275
 21
959.99999999999943
  0
LINE
  8
_0-a_極細3
  6
CENTER1
 62
    7
 10
470.43065977017204
 20
242.15065975809196
 11
470.43065977017204
 21
305.60065975809812
  0
LINE
  8
_0-d_寸法3
  6
CONTINUOUS
 62
    7
 10
462.23913932728215
 20
264.07225360705218
 11
426.88679760159658
 21
288.82622977674305
  0
LINE
  8
_0-d_寸法3
  6
CONTINUOUS
 62
    7
 10
430.98255782304147
 20
285.95834759498774
 11
428.39436737201629
 21
295.6176058578784
  0
LINE
  8
_0-d_寸法3
  6
CONTINUOUS
 62
    7
 10
430.98255782304147
 20
285.95834759498774
 11
433.57074827406677
 21
295.6176058578784
  0
LINE
  8
_0-d_寸法3
  6
CONTINUOUS
 62
    7
 10
462.23913932728215
 20
297.40558694038549
 11
426.88679760159658
 21
322.15956311007631
  0
LINE
  8
_0-d_寸法3
  6
CONTINUOUS
 62
    7
 10
430.98255782304147
 20
319.29168092832106
 11
433.57074827406672
 21
309.63242266543034
  0
LINE
  8
_0-d_寸法3
  6
CONTINUOUS
 62
    7
 10
430.98255782304147
 20
319.29168092832106
 11
428.39436737201623
 21
309.6324226654304
  0
LINE
  8
_0-d_寸法3
  6
CONTINUOUS
 62
    7
 10
430.98255782304147
 20
285.95834759498774
 11
430.98255782304147
 21
319.29168092832106
  0
TEXT
  8
_0-d_寸法3
 62
    7
 10
430.98255782304147
 20
295.1250142616542
 40
15
 41
1
 50
90
  1
20
  0
TEXT
  8
_0-7_枠細線
 62
    5
 10
420.50861213093822
 20
108.33612424186363
 40
25
 41
0.8
 50
0
  1
断面詳細図
  0
TEXT
  8
_0-7_枠細線
 62
    5
 10
535.45758188010609
 20
108.33612424186363
 40
20
 41
0.6
 50
0
  1
Ｓ＝１：３
  0
ARC
  8
_0-b_細線3
  6
CONTINUOUS
 62
    7
 10
470.43065977017204
 20
275.00315591020853
 40
8.75
 50
294.03943363457506
 51
65.960566365424228
  0
ARC
  8
_0-b_細線3
  6
CONTINUOUS
 62
    7
 10
470.43065977017204
 20
275.00315591020853
 40
8.75
 50
114.03943363457542
 51
245.96056636541877
  0
ARC
  8
_0-b_細線3
  6
CONTINUOUS
 62
    7
 10
470.43065977016482
 20
269.16982257681775
 40
2.4999999999928004
 50
179.99999999999983
 51
359.99999999999966
  0
LINE
  8
_0-b_細線3
  6
CONTINUOUS
 62
    7
 10
467.93065977017204
 20
280.83648924354202
 11
467.93065977017204
 21
269.16982257687528
  0
ARC
  8
_0-b_細線3
  6
CONTINUOUS
 62
    7
 10
470.43065977016482
 20
280.83648924361387
 40
2.5000000000072005
 50
0
 51
179.99999999999983
  0
LINE
  8
_0-b_細線3
  6
CONTINUOUS
 62
    7
 10
472.93065977017204
 20
269.16982257687528
 11
472.93065977017204
 21
280.83648924354202
  0
ARC
  8
_0-b_細線3
  6
CONTINUOUS
 62
    7
 10
470.43065977017756
 20
269.1698225768564
 40
4.1666666666723522
 50
179.99999999999983
 51
359.99999999999966
  0
LINE
  8
_0-b_細線3
  6
CONTINUOUS
 62
    7
 10
466.26399310350598
 20
280.83648924354202
 11
466.26399310350598
 21
269.16982257687528
  0
ARC
  8
_0-b_細線3
  6
CONTINUOUS
 62
    7
 10
470.4306597701393
 20
280.83648924363979
 40
4.1666666667000154
 50
0
 51
179.99999999999983
  0
LINE
  8
_0-b_細線3
  6
CONTINUOUS
 62
    7
 10
474.59732643683907
 20
269.16982257687528
 11
474.59732643683907
 21
280.83648924354202
  0
CIRCLE
  8
_0-a_極細3
  6
CONTINUOUS
 62
    7
 10
157.04756590032252
 20
276.62878854909036
 40
0.5530864197530718
  0
LINE
  8
_0-a_極細3
  6
CONTINUOUS
 62
    7
 10
162.09732643683836
 20
291.66982257687505
 11
162.09732643683836
 21
280.00315591020808
  0
LINE
  8
_0-a_極細3
  6
CONTINUOUS
 62
    7
 10
162.09732643683836
 20
291.66982257687505
 11
72.919579291723693
 21
291.66982257687505
  0
LINE
  8
_0-a_極細3
  6
CONTINUOUS
 62
    7
 10
170.43065977017179
 20
280.00315591020808
 11
72.919579291723693
 21
280.00315591020808
  0
LINE
  8
_0-a_極細3
  6
CONTINUOUS
 62
    7
 10
170.43065977017179
 20
291.66982257687505
 11
162.09732643683836
 21
291.66982257687505
  0
LINE
  8
_0-a_極細3
  6
CONTINUOUS
 62
    7
 10
170.43065977017179
 20
290.83648924354156
 11
170.43065977017179
 21
291.66982257687505
  0
LINE
  8
_0-a_極細3
  6
CONTINUOUS
 62
    7
 10
170.23256951381228
 20
280.00315591020808
 11
170.43065977017136
 21
280.20124616656767
  0
LINE
  8
_0-a_極細3
  6
CONTINUOUS
 62
    7
 10
165.98992882669313
 20
280.00315591020808
 11
170.43065977017179
 21
284.44388685368676
  0
LINE
  8
_0-a_極細3
  6
CONTINUOUS
 62
    7
 10
162.09732643683836
 20
280.35319420747282
 11
170.43065977017179
 21
288.68652754080608
  0
LINE
  8
_0-a_極細3
  6
CONTINUOUS
 62
    7
 10
162.09732643683836
 20
284.59583489459192
 11
169.17131411912101
 21
291.66982257687505
  0
LINE
  8
_0-a_極細3
  6
CONTINUOUS
 62
    7
 10
162.09732643683836
 20
288.83847558171146
 11
164.92867343200189
 21
291.66982257687505
  0
LINE
  8
_0-a_極細3
  6
CONTINUOUS
 62
    7
 10
170.43065977017179
 20
289.38885570461639
 11
168.14969289791335
 21
291.66982257687505
  0
LINE
  8
_0-a_極細3
  6
CONTINUOUS
 62
    7
 10
170.43065977017179
 20
285.14621501749707
 11
163.90705221079386
 21
291.66982257687505
  0
LINE
  8
_0-a_極細3
  6
CONTINUOUS
 62
    7
 10
162.09732643683836
 20
289.23690766371124
 11
170.43065977017179
 21
280.90357433037798
  0
LINE
  8
_0-a_極細3
  6
CONTINUOUS
 62
    7
 10
162.09732643683836
 20
284.99426697659192
 11
167.08843750322174
 21
280.00315591020808
  0
LINE
  8
_0-a_極細3
  6
CONTINUOUS
 62
    7
 10
162.09732643683836
 20
280.7516262894726
 11
162.84579681610268
 21
280.00315591020808
  0
LINE
  8
_0-a_極細3
  6
CONTINUOUS
 62
    7
 10
153.26200675920768
 20
280.00315590408081
 11
162.09732643683836
 21
288.83847558171146
  0
LINE
  8
_0-a_極細3
  6
CONTINUOUS
 62
    7
 10
132.0488033089002
 20
280.00315588936974
 11
143.71546999640557
 21
291.66982257687482
  0
LINE
  8
_0-a_極細3
  6
CONTINUOUS
 62
    7
 10
110.83559985859232
 20
280.0031558746582
 11
122.50226656080869
 21
291.66982257687505
  0
LINE
  8
_0-a_極細3
  6
CONTINUOUS
 62
    7
 10
89.62239640828443
 20
280.00315585994713
 11
101.28906312521238
 21
291.66982257687505
  0
LINE
  8
_0-a_極細3
  6
CONTINUOUS
 62
    7
 10
72.919579291723693
 20
284.51354217898233
 11
80.075859689615925
 21
291.66982257687482
  0
LINE
  8
_0-a_極細3
  6
DASHED2
 62
    7
 10
142.65540503405396
 20
280.00315589672527
 11
154.32207171420373
 21
291.66982257687505
  0
LINE
  8
_0-a_極細3
  6
DASHED2
 62
    7
 10
121.44220158374608
 20
280.00315588201397
 11
133.10886827860736
 21
291.66982257687505
  0
LINE
  8
_0-a_極細3
  6
DASHED2
 62
    7
 10
100.22899813343855
 20
280.00315586730267
 11
111.89566484301054
 21
291.66982257687505
  0
LINE
  8
_0-a_極細3
  6
DASHED2
 62
    7
 10
79.015794683130736
 20
280.00315585259159
 11
90.682461407414223
 21
291.66982257687505
  0
LINE
  8
_0-a_極細3
  6
CONTINUOUS
 62
    7
 10
103.76399310350486
 20
246.66982257687499
 11
103.76399310350486
 21
178.33648924354179
  0
LINE
  8
_0-a_極細3
  6
CONTINUOUS
 62
    7
 10
187.09732643683836
 20
178.33648924354179
 11
103.76399310350486
 21
178.33648924354179
  0
LINE
  8
_0-a_極細3
  6
CONTINUOUS
 62
    7
 10
103.76399310350486
 20
246.66982257687499
 11
72.919579291723693
 21
246.66982257687499
  0
LINE
  8
_0-a_極細3
  6
CONTINUOUS
 62
    7
 10
187.09732643683836
 20
178.33648924354179
 11
187.09732643683836
 21
152.09488894876259
  0
LINE
  8
_0-a_極細3
  6
CONTINUOUS
 62
    7
 10
149.67535187184851
 20
152.09488906519951
 11
175.91695205019121
 21
178.33648924354179
  0
LINE
  8
_0-a_極細3
  6
CONTINUOUS
 62
    7
 10
78.964673973207198
 20
152.09488928521267
 11
105.20627393153632
 21
178.33648924354179
  0
LINE
  8
_0-a_極細3
  6
CONTINUOUS
 62
    7
 10
72.919579291723693
 20
216.76047272238404
 11
102.82892914621492
 21
246.66982257687499
  0
LINE
  8
_0-a_極細3
  6
CONTINUOUS
 62
    7
 10
142.60428408198436
 20
152.0948890872009
 11
168.8458842383254
 21
178.33648924354179
  0
LINE
  8
_0-a_極細3
  6
CONTINUOUS
 62
    7
 10
72.919579291723693
 20
153.1208624155947
 11
103.76399310350486
 21
183.96527622737608
  0
LINE
  8
_0-a_極細3
  6
CONTINUOUS
 62
    7
 10
72.919579291723693
 20
223.83154053424957
 11
95.757861334349172
 21
246.66982257687499
  0
LINE
  8
_0-a_極細3
  6
CONTINUOUS
 62
    7
 10
135.53321629212064
 20
152.09488910920228
 11
161.77481642646015
 21
178.33648924354179
  0
LINE
  8
_0-a_極細3
  6
CONTINUOUS
 62
    7
 10
72.919579291723693
 20
160.19193022746023
 11
103.76399310350486
 21
191.03634403924161
  0
LINE
  8
_0-a_極細3
  6
CONTINUOUS
 62
    7
 10
72.919579291723693
 20
230.90260834611485
 11
88.686793522483924
 21
246.66982257687499
  0
CIRCLE
  8
_0-a_極細3
  6
CONTINUOUS
 62
    7
 10
90.815467134890895
 20
261.87323299353511
 40
0.5530864197530718
  0
CIRCLE
  8
_0-a_極細3
  6
CONTINUOUS
 62
    7
 10
80.484602937360421
 20
251.91767743797953
 40
0.5530864197530718
  0
CIRCLE
  8
_0-a_極細3
  6
CONTINUOUS
 62
    7
 10
91.092010344767687
 20
252.98434410464614
 40
0.5530864197530718
  0
CIRCLE
  8
_0-a_極細3
  6
CONTINUOUS
 62
    7
 10
103.71423256698996
 20
254.93989966020166
 40
0.5530864197530718
  0
CIRCLE
  8
_0-a_極細3
  6
CONTINUOUS
 62
    7
 10
132.15867701143381
 20
266.67323299353501
 40
0.5530864197530718
  0
CIRCLE
  8
_0-a_極細3
  6
CONTINUOUS
 62
    7
 10
162.73645478921139
 20
260.45101077131284
 40
0.5530864197530718
  0
CIRCLE
  8
_0-a_極細3
  6
CONTINUOUS
 62
    7
 10
137.84756590032273
 20
259.91767743797953
 40
0.5530864197530718
  0
CIRCLE
  8
_0-a_極細3
  6
CONTINUOUS
 62
    7
 10
110.65867701143432
 20
247.68434410464621
 40
0.5530864197530718
  0
CIRCLE
  8
_0-a_極細3
  6
CONTINUOUS
 62
    7
 10
131.10312145587818
 20
246.43989966020169
 40
0.5530864197530718
  0
CIRCLE
  8
_0-a_極細3
  6
CONTINUOUS
 62
    7
 10
156.16978812254479
 20
242.70656632686854
 40
0.5530864197530718
  0
CIRCLE
  8
_0-a_極細3
  6
CONTINUOUS
 62
    7
 10
143.54756590032252
 20
237.0176774379797
 40
0.5530864197530718
  0
CIRCLE
  8
_0-a_極細3
  6
CONTINUOUS
 62
    7
 10
128.7920103447675
 20
223.50656632686849
 40
0.5530864197530718
  0
CIRCLE
  8
_0-a_極細3
  6
CONTINUOUS
 62
    7
 10
156.16978812254479
 20
230.79545521575753
 40
0.5530864197530718
  0
CIRCLE
  8
_0-a_極細3
  6
CONTINUOUS
 62
    7
 10
115.05867701143394
 20
203.68434410464664
 40
0.5530864197530718
  0
CIRCLE
  8
_0-a_極細3
  6
CONTINUOUS
 62
    7
 10
109.36978812254509
 20
185.72878854909112
 40
0.5530864197530718
  0
CIRCLE
  8
_0-a_極細3
  6
CONTINUOUS
 62
    7
 10
118.08089923365628
 20
192.4843441046466
 40
0.5530864197530718
  0
CIRCLE
  8
_0-a_極細3
  6
CONTINUOUS
 62
    7
 10
124.30312145587848
 20
183.95101077131329
 40
0.5530864197530718
  0
CIRCLE
  8
_0-a_極細3
  6
CONTINUOUS
 62
    7
 10
163.60312145587818
 20
201.83989966020221
 40
0.5530864197530718
  0
CIRCLE
  8
_0-a_極細3
  6
CONTINUOUS
 62
    7
 10
152.40312145587836
 20
196.32878854909109
 40
0.5530864197530718
  0
CIRCLE
  8
_0-a_極細3
  6
CONTINUOUS
 62
    7
 10
158.62534367810056
 20
193.83989966020224
 40
0.5530864197530718
  0
CIRCLE
  8
_0-a_極細3
  6
CONTINUOUS
 62
    7
 10
155.06978812254488
 20
184.59545521575791
 40
0.5530864197530718
  0
CIRCLE
  8
_0-a_極細3
  6
CONTINUOUS
 62
    7
 10
174.98089923365598
 20
185.66212188242451
 40
0.5530864197530718
  0
CIRCLE
  8
_0-a_極細3
  6
CONTINUOUS
 62
    7
 10
187.95867701143356
 20
188.86212188242453
 40
0.5530864197530718
  0
CIRCLE
  8
_0-a_極細3
  6
CONTINUOUS
 62
    7
 10
201.64756590032241
 20
173.92878854909142
 40
0.5530864197530718
  0
CIRCLE
  8
_0-a_極細3
  6
CONTINUOUS
 62
    7
 10
194.71423256698904
 20
158.99545521575803
 40
0.5530864197530718
  0
CIRCLE
  8
_0-a_極細3
  6
CONTINUOUS
 62
    7
 10
178.04756590032255
 20
202.61027003057251
 40
0.5530864197530718
  0
CIRCLE
  8
_0-a_極細3
  6
CONTINUOUS
 62
    7
 10
192.803121455878
 20
236.74360336390575
 40
0.5530864197530718
  0
CIRCLE
  8
_0-a_極細3
  6
CONTINUOUS
 62
    7
 10
207.91423256698891
 20
226.78804780835023
 40
0.5530864197530718
  0
CIRCLE
  8
_0-a_極細3
  6
CONTINUOUS
 62
    7
 10
208.44756590032219
 20
208.83249225279471
 40
0.5530864197530718
  0
CIRCLE
  8
_0-a_極細3
  6
CONTINUOUS
 62
    7
 10
173.20312145587806
 20
238.56582558612783
 40
0.5530864197530718
  0
CIRCLE
  8
_0-a_極細3
  6
CONTINUOUS
 62
    7
 10
152.91423256698934
 20
260.54977620341168
 40
1.825531472681392
  0
CIRCLE
  8
_0-a_極細3
  6
CONTINUOUS
 62
    7
 10
101.15211286555422
 20
267.47939047810945
 40
1.825531472681392
  0
CIRCLE
  8
_0-a_極細3
  6
CONTINUOUS
 62
    7
 10
127.69201034476716
 20
237.74977620341176
 40
1.825531472681392
  0
CIRCLE
  8
_0-a_極細3
  6
CONTINUOUS
 62
    7
 10
108.09201034476722
 20
199.74977620341221
 40
1.825531472681392
  0
CIRCLE
  8
_0-a_極細3
  6
CONTINUOUS
 62
    7
 10
161.29201034476665
 20
186.94977620341248
 40
1.825531472681392
  0
CIRCLE
  8
_0-a_極細3
  6
CONTINUOUS
 62
    7
 10
197.2697881225443
 20
183.34977620341255
 40
1.825531472681392
  0
CIRCLE
  8
_0-a_極細3
  6
CONTINUOUS
 62
    7
 10
202.06978812254397
 20
164.68310953674603
 40
1.825531472681392
  0
CIRCLE
  8
_0-a_極細3
  6
CONTINUOUS
 62
    7
 10
80.955033324474925
 20
268.37199842563382
 40
1.825531472681392
  0
LINE
  8
_0-a_極細3
  6
CONTINUOUS
 62
    7
 10
219.59732643683836
 20
253.33648924354176
 11
220.43065977017179
 21
253.33648924354176
  0
LINE
  8
_0-a_極細3
  6
CONTINUOUS
 62
    7
 10
220.43065977017179
 20
253.33648924354176
 11
220.43065977017179
 21
152.09488894876259
  0
CIRCLE
  8
_0-a_極細3
  6
CONTINUOUS
 62
    7
 10
213.54322562254288
 20
237.3497762034124
 40
1.825531472681392
  0
CIRCLE
  8
_0-a_極細3
  6
CONTINUOUS
 62
    7
 10
212.55126960402578
 20
182.63989966020239
 40
0.5530864197530718
  0
CIRCLE
  8
_0-a_極細3
  6
CONTINUOUS
 62
    7
 10
213.88460293735966
 20
159.98382862703252
 40
0.5530864197530718
  0
CIRCLE
  8
_0-a_極細3
  6
CONTINUOUS
 62
    7
 10
201.51423256698465
 20
218.23866509230146
 40
1.825531472681392
  0
LINE
  8
_0-a_極細3
  6
CONTINUOUS
 62
    7
 10
126.79059154968648
 20
203.21819040604524
 11
121.6602893998013
 21
217.31357971783379
  0
LINE
  8
_0-a_極細3
  6
CONTINUOUS
 62
    7
 10
176.78463422348301
 20
237.37720041707999
 11
181.91493637336777
 21
223.28181110529155
  0
LINE
  8
_0-a_極細3
  6
CONTINUOUS
 62
    7
 10
121.6602893998013
 20
217.31357971783379
 11
176.78463422348301
 21
237.37720041707999
  0
LINE
  8
_0-a_極細3
  6
CONTINUOUS
 62
    7
 10
126.79059154968648
 20
203.21819040604524
 11
181.91493637336777
 21
223.28181110529155
  0
LINE
  8
_0-a_極細3
  6
CENTER1
 62
    7
 10
119.27000708275116
 20
208.46225502190961
 11
183.30102756531687
 21
231.76764050694504
  0
LINE
  8
_0-a_極細3
  6
CONTINUOUS
 62
    7
 10
145.43065977017179
 20
178.33648924354179
 11
145.43065977017179
 21
222.4220505918579
  0
LINE
  8
_0-a_極細3
  6
CONTINUOUS
 62
    7
 10
145.43065977017179
 20
222.4220505918579
 11
130.43065977017179
 21
222.4220505918579
  0
LINE
  8
_0-a_極細3
  6
CONTINUOUS
 62
    7
 10
130.43065977017179
 20
222.4220505918579
 11
130.43065977017179
 21
178.33648924354179
  0
CIRCLE
  8
_0-a_極細3
  6
CONTINUOUS
 62
    7
 10
159.81052886328575
 20
208.25841817872058
 40
1.825531472681392
  0
CIRCLE
  8
_0-a_極細3
  6
CONTINUOUS
 62
    7
 10
181.51917083859445
 20
214.48064040094295
 40
1.825531472681392
  0
LINE
  8
_0-a_極細3
  6
CENTER1
 62
    7
 10
137.93065977017179
 20
170.05974895908884
 11
137.93065977017179
 21
226.69777075646738
  0
LINE
  8
_0-d_寸法3
  6
CONTINUOUS
 62
    7
 10
160.43065977017179
 20
291.66982257687511
 11
114.48062869158228
 21
291.66982257687505
  0
LINE
  8
_0-d_寸法3
  6
CONTINUOUS
 62
    7
 10
119.48062869158228
 20
291.66982257687505
 11
122.06881914260748
 21
282.01056431398433
  0
LINE
  8
_0-d_寸法3
  6
CONTINUOUS
 62
    7
 10
119.48062869158228
 20
291.66982257687505
 11
116.89243824055708
 21
282.01056431398445
  0
LINE
  8
_0-d_寸法3
  6
CONTINUOUS
 62
    7
 10
158.43065977017181
 20
253.33648924354179
 11
114.4806286915825
 21
253.33648924354179
  0
LINE
  8
_0-d_寸法3
  6
CONTINUOUS
 62
    7
 10
119.4806286915825
 20
253.33648924354176
 11
116.8924382405573
 21
262.99574750643239
  0
LINE
  8
_0-d_寸法3
  6
CONTINUOUS
 62
    7
 10
119.4806286915825
 20
253.33648924354176
 11
122.06881914260769
 21
262.99574750643245
  0
LINE
  8
_0-d_寸法3
  6
CONTINUOUS
 62
    7
 10
119.48062869158228
 20
291.66982257687505
 11
119.4806286915825
 21
253.33648924354176
  0
TEXT
  8
_0-d_寸法3
 62
    7
 10
119.4806286915825
 20
265.00315591020836
 40
15
 41
1
 50
90
  1
23
  0
LINE
  8
_0-d_寸法3
  6
CONTINUOUS
 62
    7
 10
160.43065977017179
 20
253.33648924354154
 11
114.4806286915825
 21
253.33648924354154
  0
LINE
  8
_0-d_寸法3
  6
CONTINUOUS
 62
    7
 10
119.4806286915825
 20
253.33648924354151
 11
122.06881914260769
 21
243.67723098065085
  0
LINE
  8
_0-d_寸法3
  6
CONTINUOUS
 62
    7
 10
119.4806286915825
 20
253.33648924354151
 11
116.8924382405573
 21
243.67723098065085
  0
LINE
  8
_0-d_寸法3
  6
CONTINUOUS
 62
    7
 10
158.43065977017181
 20
215.00315591020831
 11
114.4806286915825
 21
215.00315591020831
  0
LINE
  8
_0-d_寸法3
  6
CONTINUOUS
 62
    7
 10
119.4806286915825
 20
215.00315591020825
 11
116.8924382405573
 21
224.66241417309897
  0
LINE
  8
_0-d_寸法3
  6
CONTINUOUS
 62
    7
 10
119.4806286915825
 20
215.00315591020825
 11
122.06881914260769
 21
224.66241417309897
  0
LINE
  8
_0-d_寸法3
  6
CONTINUOUS
 62
    7
 10
119.4806286915825
 20
253.33648924354151
 11
119.4806286915825
 21
215.00315591020825
  0
TEXT
  8
_0-d_寸法3
 62
    7
 10
119.4806286915825
 20
226.66982257687505
 40
15
 41
1
 50
90
  1
23
  0
LINE
  8
_0-d_寸法3
  6
CONTINUOUS
 62
    7
 10
170.4306597701717
 20
205.00315591020851
 11
170.4306597701715
 21
187.85846400930311
  0
LINE
  8
_0-d_寸法3
  6
CONTINUOUS
 62
    7
 10
170.43065977017164
 20
192.85846400930311
 11
180.0899180330623
 21
195.44665446032832
  0
LINE
  8
_0-d_寸法3
  6
CONTINUOUS
 62
    7
 10
170.43065977017164
 20
192.85846400930311
 11
180.0899180330623
 21
190.27027355827784
  0
LINE
  8
_0-d_寸法3
  6
CONTINUOUS
 62
    7
 10
220.4306597701717
 20
243.33648924354176
 11
220.43065977017108
 21
187.85846400930311
  0
LINE
  8
_0-d_寸法3
  6
CONTINUOUS
 62
    7
 10
220.43065977017113
 20
192.85846400930311
 11
210.77140150728042
 21
190.27027355827789
  0
LINE
  8
_0-d_寸法3
  6
CONTINUOUS
 62
    7
 10
220.43065977017113
 20
192.85846400930311
 11
210.77140150728047
 21
195.44665446032838
  0
LINE
  8
_0-d_寸法3
  6
CONTINUOUS
 62
    7
 10
170.43065977017164
 20
192.85846400930311
 11
220.43065977017113
 21
192.85846400930311
  0
TEXT
  8
_0-d_寸法3
 62
    7
 10
187.93065977017136
 20
192.85846400930311
 40
15
 41
1
 50
0
  1
30
  0
ARC
  8
_0-b_細線3
  6
CONTINUOUS
 62
    7
 10
175.43065977017179
 20
258.33648924354173
 40
5
 50
179.99999999999983
 51
269.99999999999977
  0
LINE
  8
_0-b_細線3
  6
CONTINUOUS
 62
    7
 10
170.43065977017179
 20
258.33648924354173
 11
170.43065977017179
 21
290.83648924354156
  0
LINE
  8
_0-b_細線3
  6
CONTINUOUS
 62
    7
 10
175.43065977017179
 20
253.33648924354176
 11
219.59732643683836
 21
253.33648924354176
  0
LINE
  8
_0-b_細線3
  6
CONTINUOUS
 62
    7
 10
220.43065977017179
 20
254.16982257687499
 11
219.59732643683836
 21
253.33648924354176
  0
LINE
  8
_0-b_細線3
  6
CONTINUOUS
 62
    7
 10
220.43065977017179
 20
257.50315591020853
 11
220.43065977017179
 21
254.16982257687499
  0
LINE
  8
_0-b_細線3
  6
CONTINUOUS
 62
    7
 10
219.59732643683836
 20
258.33648924354173
 11
220.43065977017179
 21
257.50315591020853
  0
LINE
  8
_0-b_細線3
  6
CONTINUOUS
 62
    7
 10
175.43065977017179
 20
258.33648924354173
 11
219.59732643683836
 21
258.33648924354173
  0
LINE
  8
_0-b_細線3
  6
CONTINUOUS
 62
    7
 10
171.26399310350484
 20
291.66982257687505
 11
170.43065977017179
 21
290.83648924354156
  0
LINE
  8
_0-b_細線3
  6
CONTINUOUS
 62
    7
 10
174.59732643683836
 20
291.66982257687505
 11
171.26399310350484
 21
291.66982257687505
  0
LINE
  8
_0-b_細線3
  6
CONTINUOUS
 62
    7
 10
175.43065977017179
 20
290.83648924354156
 11
174.59732643683836
 21
291.66982257687505
  0
LINE
  8
_0-b_細線3
  6
CONTINUOUS
 62
    7
 10
175.43065977017179
 20
258.33648924354173
 11
175.43065977017179
 21
290.83648924354156
  0
LINE
  8
_0-b_細線3
  6
CONTINUOUS
 62
    7
 10
183.76399310350484
 20
258.33648924354128
 11
183.76399310350484
 21
291.66982257687437
  0
LINE
  8
_0-b_細線3
  6
CONTINUOUS
 62
    7
 10
183.76399310350484
 20
291.66982257687437
 11
178.76399310350484
 21
291.66982257687437
  0
LINE
  8
_0-b_細線3
  6
CONTINUOUS
 62
    7
 10
178.76399310350484
 20
291.66982257687437
 11
178.76399310350484
 21
258.33648924354128
  0
LINE
  8
_0-b_細線3
  6
CONTINUOUS
 62
    7
 10
178.76399310350484
 20
258.33648924354128
 11
183.76399310350484
 21
258.33648924354128
  0
ARC
  8
_0-b_細線3
  6
CONTINUOUS
 62
    7
 10
220.43065977017164
 20
275.00315591020853
 40
8.75
 50
294.03943363457506
 51
65.960566365424228
  0
ARC
  8
_0-b_細線3
  6
CONTINUOUS
 62
    7
 10
220.43065977017164
 20
275.00315591020853
 40
8.75
 50
114.03943363457542
 51
245.96056636541877
  0
ARC
  8
_0-b_細線3
  6
CONTINUOUS
 62
    7
 10
220.43065977016431
 20
269.16982257681775
 40
2.4999999999928004
 50
179.99999999999983
 51
359.99999999999966
  0
LINE
  8
_0-b_細線3
  6
CONTINUOUS
 62
    7
 10
217.93065977017164
 20
280.83648924354202
 11
217.93065977017164
 21
269.16982257687528
  0
ARC
  8
_0-b_細線3
  6
CONTINUOUS
 62
    7
 10
220.43065977016431
 20
280.83648924361387
 40
2.5000000000072005
 50
0
 51
179.99999999999983
  0
LINE
  8
_0-b_細線3
  6
CONTINUOUS
 62
    7
 10
222.93065977017164
 20
269.16982257687528
 11
222.93065977017164
 21
280.83648924354202
  0
ARC
  8
_0-b_細線3
  6
CONTINUOUS
 62
    7
 10
220.43065977017704
 20
269.1698225768564
 40
4.1666666666723522
 50
179.99999999999983
 51
359.99999999999966
  0
LINE
  8
_0-b_細線3
  6
CONTINUOUS
 62
    7
 10
216.2639931035055
 20
280.83648924354202
 11
216.2639931035055
 21
269.16982257687528
  0
ARC
  8
_0-b_細線3
  6
CONTINUOUS
 62
    7
 10
220.43065977013882
 20
280.83648924363979
 40
4.1666666667000154
 50
0
 51
179.99999999999983
  0
LINE
  8
_0-b_細線3
  6
CONTINUOUS
 62
    7
 10
224.59732643683856
 20
269.16982257687528
 11
224.59732643683856
 21
280.83648924354202
  0
CIRCLE
  8
_0-a_極細3
  6
CONTINUOUS
 62
    7
 10
842.42534367809697
 20
276.9352700305717
 40
0.5530864197530718
  0
CIRCLE
  8
_0-a_極細3
  6
CONTINUOUS
 62
    7
 10
790.42534367809753
 20
277.86860336390509
 40
0.5530864197530718
  0
LINE
  8
_0-a_極細3
  6
CONTINUOUS
 62
    7
 10
778.76399310350519
 20
291.66982257687505
 11
778.76399310350519
 21
280.00315591020808
  0
LINE
  8
_0-a_極細3
  6
CONTINUOUS
 62
    7
 10
778.76399310350519
 20
291.66982257687505
 11
867.94174024861991
 21
291.66982257687505
  0
LINE
  8
_0-a_極細3
  6
CONTINUOUS
 62
    7
 10
770.43065977017181
 20
280.00315591020808
 11
867.94174024861991
 21
280.00315591020808
  0
LINE
  8
_0-a_極細3
  6
CONTINUOUS
 62
    7
 10
770.43065977017181
 20
291.66982257687505
 11
778.76399310350519
 21
291.66982257687505
  0
LINE
  8
_0-a_極細3
  6
CONTINUOUS
 62
    7
 10
770.43065977017181
 20
290.83648924354156
 11
770.43065977017181
 21
291.66982257687505
  0
LINE
  8
_0-a_極細3
  6
CONTINUOUS
 62
    7
 10
778.76399310350519
 20
283.67224219093305
 11
775.09490682278033
 21
280.00315591020808
  0
LINE
  8
_0-a_極細3
  6
CONTINUOUS
 62
    7
 10
778.76399310350519
 20
287.91488287805214
 11
770.85226613566124
 21
280.00315591020808
  0
LINE
  8
_0-a_極細3
  6
CONTINUOUS
 62
    7
 10
770.43065977017181
 20
283.8241902318382
 11
778.27629211520855
 21
291.66982257687505
  0
LINE
  8
_0-a_極細3
  6
CONTINUOUS
 62
    7
 10
770.43065977017181
 20
288.06683091895752
 11
774.03365142808912
 21
291.66982257687482
  0
LINE
  8
_0-a_極細3
  6
CONTINUOUS
 62
    7
 10
778.76399310350519
 20
290.16050036736942
 11
777.25467089399956
 21
291.66982257687505
  0
LINE
  8
_0-a_極細3
  6
CONTINUOUS
 62
    7
 10
778.76399310350519
 20
285.9178596802501
 11
773.01203020688047
 21
291.66982257687505
  0
LINE
  8
_0-a_極細3
  6
CONTINUOUS
 62
    7
 10
778.76399310350519
 20
281.67521899313078
 11
770.43065977017181
 21
290.00855232646427
  0
LINE
  8
_0-a_極細3
  6
CONTINUOUS
 62
    7
 10
776.19341549930834
 20
280.00315591020808
 11
770.43065977017181
 21
285.76591163934495
  0
LINE
  8
_0-a_極細3
  6
CONTINUOUS
 62
    7
 10
771.95077481218937
 20
280.00315591020808
 11
770.43065977017181
 21
281.52327095222563
  0
LINE
  8
_0-a_極細3
  6
CONTINUOUS
 62
    7
 10
847.21979850380808
 20
280.00315591020808
 11
858.88646454368586
 21
291.66982195008586
  0
LINE
  8
_0-a_極細3
  6
CONTINUOUS
 62
    7
 10
826.0065950682116
 20
280.00315591020831
 11
837.67326127403805
 21
291.66982211603454
  0
LINE
  8
_0-a_極細3
  6
CONTINUOUS
 62
    7
 10
804.79339163261534
 20
280.00315591020808
 11
816.46005800439002
 21
291.66982228198276
  0
LINE
  8
_0-a_極細3
  6
CONTINUOUS
 62
    7
 10
783.58018819701897
 20
280.00315591020808
 11
795.24685473474221
 21
291.66982244793144
  0
LINE
  8
_0-a_極細3
  6
DASHED2
 62
    7
 10
857.8264002216066
 20
280.00315591020831
 11
867.94174024861991
 21
290.11849593722172
  0
LINE
  8
_0-a_極細3
  6
DASHED2
 62
    7
 10
836.61319678600989
 20
280.00315591020808
 11
848.27986290886179
 21
291.66982203305997
  0
LINE
  8
_0-a_極細3
  6
DASHED2
 62
    7
 10
815.39999335041341
 20
280.00315591020808
 11
827.06665963921409
 21
291.66982219900865
  0
LINE
  8
_0-a_極細3
  6
DASHED2
 62
    7
 10
794.18678991481715
 20
280.00315591020808
 11
805.85345636956595
 21
291.6698223649571
  0
LINE
  8
_0-a_極細3
  6
DASHED2
 62
    7
 10
778.76399310350519
 20
285.79356253449259
 11
784.64025309991825
 21
291.66982253090555
  0
CIRCLE
  8
_0-a_極細3
  6
CONTINUOUS
 62
    7
 10
850.42534367809651
 20
277.30533175896699
 40
1.825531472681392
  0
LINE
  8
_0-a_極細3
  6
CONTINUOUS
 62
    7
 10
837.09732643683822
 20
246.66982257687499
 11
837.09732643683822
 21
178.33648924354179
  0
LINE
  8
_0-a_極細3
  6
CONTINUOUS
 62
    7
 10
753.76399310350519
 20
178.33648924354179
 11
837.09732643683822
 21
178.33648924354179
  0
LINE
  8
_0-a_極細3
  6
CONTINUOUS
 62
    7
 10
837.09732643683822
 20
246.66982257687499
 11
867.94174024861991
 21
246.66982257687499
  0
LINE
  8
_0-a_極細3
  6
CONTINUOUS
 62
    7
 10
753.76399310350519
 20
178.33648924354179
 11
753.76399310350519
 21
152.09488894876259
  0
LINE
  8
_0-a_極細3
  6
CONTINUOUS
 62
    7
 10
845.38732885143168
 20
152.09488894876259
 11
867.94174029016062
 21
174.64930038749159
  0
LINE
  8
_0-a_極細3
  6
CONTINUOUS
 62
    7
 10
774.67665073277669
 20
152.09488894876259
 11
800.9182510275557
 21
178.33648924354179
  0
LINE
  8
_0-a_極細3
  6
CONTINUOUS
 62
    7
 10
837.09732643683822
 20
214.51556465282437
 11
867.94174024937524
 21
245.35997846536131
  0
LINE
  8
_0-a_極細3
  6
CONTINUOUS
 62
    7
 10
838.3162610395658
 20
152.09488894876259
 11
867.94174028608199
 21
181.72036819527875
  0
LINE
  8
_0-a_極細3
  6
CONTINUOUS
 62
    7
 10
767.60558292091093
 20
152.09488894876259
 11
793.84718321569039
 21
178.33648924354179
  0
LINE
  8
_0-a_極細3
  6
CONTINUOUS
 62
    7
 10
837.09732643683822
 20
221.5866324646899
 11
862.18051636947325
 21
246.66982239732462
  0
LINE
  8
_0-a_極細3
  6
CONTINUOUS
 62
    7
 10
831.24519322770061
 20
152.09488894876259
 11
867.94174028200337
 21
188.79143600306563
  0
LINE
  8
_0-a_極細3
  6
CONTINUOUS
 62
    7
 10
760.53451510904563
 20
152.09488894876259
 11
786.77611540382497
 21
178.33648924354179
  0
LINE
  8
_0-a_極細3
  6
CONTINUOUS
 62
    7
 10
837.09732643683822
 20
228.65770027655543
 11
855.10944860822406
 21
246.6698224479407
  0
CIRCLE
  8
_0-a_極細3
  6
CONTINUOUS
 62
    7
 10
740.1697881225424
 20
237.19082558612783
 40
0.5530864197530718
  0
CIRCLE
  8
_0-a_極細3
  6
CONTINUOUS
 62
    7
 10
750.12534367809781
 20
241.99082558612776
 40
0.5530864197530718
  0
CIRCLE
  8
_0-a_極細3
  6
CONTINUOUS
 62
    7
 10
746.0364547892093
 20
217.01304780835034
 40
0.5530864197530718
  0
CIRCLE
  8
_0-a_極細3
  6
CONTINUOUS
 62
    7
 10
763.5697881225426
 20
199.99082558612827
 40
0.5530864197530718
  0
CIRCLE
  8
_0-a_極細3
  6
CONTINUOUS
 62
    7
 10
745.73645478920912
 20
176.69082558612848
 40
0.5530864197530718
  0
CIRCLE
  8
_0-a_極細3
  6
CONTINUOUS
 62
    7
 10
736.40312145587598
 20
158.82415891946195
 40
0.5530864197530718
  0
CIRCLE
  8
_0-a_極細3
  6
CONTINUOUS
 62
    7
 10
747.86978812254222
 20
188.69082558612831
 40
0.5530864197530718
  0
CIRCLE
  8
_0-a_極細3
  6
CONTINUOUS
 62
    7
 10
761.73645478920901
 20
183.89082558612827
 40
0.5530864197530718
  0
CIRCLE
  8
_0-a_極細3
  6
CONTINUOUS
 62
    7
 10
788.66978812254251
 20
184.15749225279498
 40
0.5530864197530718
  0
CIRCLE
  8
_0-a_極細3
  6
CONTINUOUS
 62
    7
 10
776.6697881225424
 20
193.22415891946156
 40
0.5530864197530718
  0
CIRCLE
  8
_0-a_極細3
  6
CONTINUOUS
 62
    7
 10
787.86978812254233
 20
198.82415891946152
 40
0.5530864197530718
  0
CIRCLE
  8
_0-a_極細3
  6
CONTINUOUS
 62
    7
 10
775.89201034476423
 20
253.11304780834979
 40
0.5530864197530718
  0
CIRCLE
  8
_0-a_極細3
  6
CONTINUOUS
 62
    7
 10
796.42534367809742
 20
252.4019366972388
 40
0.5530864197530718
  0
CIRCLE
  8
_0-a_極細3
  6
CONTINUOUS
 62
    7
 10
784.82534367809762
 20
238.40193669723888
 40
0.5530864197530718
  0
CIRCLE
  8
_0-a_極細3
  6
CONTINUOUS
 62
    7
 10
824.02534367809733
 20
185.20193669723943
 40
0.5530864197530718
  0
CIRCLE
  8
_0-a_極細3
  6
CONTINUOUS
 62
    7
 10
831.22534367809726
 20
199.20193669723943
 40
0.5530864197530718
  0
CIRCLE
  8
_0-a_極細3
  6
CONTINUOUS
 62
    7
 10
829.62534367809678
 20
220.00193669723916
 40
0.5530864197530718
  0
CIRCLE
  8
_0-a_極細3
  6
CONTINUOUS
 62
    7
 10
811.62534367809724
 20
241.20193669723901
 40
0.5530864197530718
  0
CIRCLE
  8
_0-a_極細3
  6
CONTINUOUS
 62
    7
 10
828.42534367809708
 20
260.80193669723872
 40
0.5530864197530718
  0
CIRCLE
  8
_0-a_極細3
  6
CONTINUOUS
 62
    7
 10
825.6253436780969
 20
234.00193669723893
 40
0.5530864197530718
  0
CIRCLE
  8
_0-a_極細3
  6
CONTINUOUS
 62
    7
 10
855.22534367809669
 20
255.20193669723878
 40
0.5530864197530718
  0
CIRCLE
  8
_0-a_極細3
  6
CONTINUOUS
 62
    7
 10
834.78089923365246
 20
253.5053317589672
 40
1.825531472681392
  0
CIRCLE
  8
_0-a_極細3
  6
CONTINUOUS
 62
    7
 10
779.35867701143081
 20
260.08310953674498
 40
1.825531472681392
  0
CIRCLE
  8
_0-a_極細3
  6
CONTINUOUS
 62
    7
 10
811.35867701143047
 20
228.08310953674521
 40
1.825531472681392
  0
CIRCLE
  8
_0-a_極細3
  6
CONTINUOUS
 62
    7
 10
740.96423256698711
 20
183.53310953674571
 40
1.825531472681392
  0
CIRCLE
  8
_0-a_極細3
  6
CONTINUOUS
 62
    7
 10
751.18645478920882
 20
213.3997762034123
 40
1.825531472681392
  0
CIRCLE
  8
_0-a_極細3
  6
CONTINUOUS
 62
    7
 10
786.38645478920864
 20
190.99977620341241
 40
1.825531472681392
  0
CIRCLE
  8
_0-a_極細3
  6
CONTINUOUS
 62
    7
 10
832.65164742449247
 20
180.81272381144294
 40
1.825531472681392
  0
CIRCLE
  8
_0-a_極細3
  6
CONTINUOUS
 62
    7
 10
781.98645478920866
 20
234.19977620341197
 40
1.825531472681392
  0
CIRCLE
  8
_0-a_極細3
  6
CONTINUOUS
 62
    7
 10
734.52040540649307
 20
228.77657079637558
 40
0.5530864197530718
  0
CIRCLE
  8
_0-a_極細3
  6
CONTINUOUS
 62
    7
 10
734.72040540649391
 20
204.82101524082026
 40
0.5530864197530718
  0
CIRCLE
  8
_0-a_極細3
  6
CONTINUOUS
 62
    7
 10
811.75867701143045
 20
265.54977620341168
 40
1.825531472681392
  0
LINE
  8
_0-a_極細3
  6
CONTINUOUS
 62
    7
 10
721.26399310350439
 20
253.33648924354176
 11
720.43065977017125
 21
253.33648924354176
  0
LINE
  8
_0-a_極細3
  6
CONTINUOUS
 62
    7
 10
720.43065977017125
 20
253.33648924354176
 11
720.43065977017125
 21
152.09488894876259
  0
CIRCLE
  8
_0-a_極細3
  6
CONTINUOUS
 62
    7
 10
726.4150556122546
 20
213.27971447501699
 40
0.5530864197530718
  0
CIRCLE
  8
_0-a_極細3
  6
CONTINUOUS
 62
    7
 10
727.72163997439452
 20
174.02415891946177
 40
0.5530864197530718
  0
CIRCLE
  8
_0-a_極細3
  6
CONTINUOUS
 62
    7
 10
727.08275108550481
 20
239.97755398119028
 40
1.825531472681392
  0
CIRCLE
  8
_0-a_極細3
  6
CONTINUOUS
 62
    7
 10
730.0308992336528
 20
167.35533175896776
 40
1.825531472681392
  0
LINE
  8
_0-a_極細3
  6
CONTINUOUS
 62
    7
 10
814.07072799065702
 20
203.21819040604524
 11
819.20103014054234
 21
217.31357971783379
  0
LINE
  8
_0-a_極細3
  6
CONTINUOUS
 62
    7
 10
764.0766853168609
 20
237.37720041707999
 11
758.94638316697615
 21
223.28181110529155
  0
LINE
  8
_0-a_極細3
  6
CONTINUOUS
 62
    7
 10
819.20103014054234
 20
217.31357971783379
 11
764.0766853168609
 21
237.37720041707999
  0
LINE
  8
_0-a_極細3
  6
CONTINUOUS
 62
    7
 10
814.07072799065702
 20
203.21819040604524
 11
758.94638316697615
 21
223.28181110529155
  0
LINE
  8
_0-a_極細3
  6
CENTER1
 62
    7
 10
821.59131245759238
 20
208.46225502190961
 11
757.56029197502687
 21
231.76764050694504
  0
LINE
  8
_0-a_極細3
  6
CONTINUOUS
 62
    7
 10
795.43065977017181
 20
178.33648924354179
 11
795.43065977017181
 21
222.4220505918579
  0
LINE
  8
_0-a_極細3
  6
CONTINUOUS
 62
    7
 10
795.43065977017181
 20
222.4220505918579
 11
810.43065977017181
 21
222.4220505918579
  0
LINE
  8
_0-a_極細3
  6
CONTINUOUS
 62
    7
 10
810.43065977017181
 20
222.4220505918579
 11
810.43065977017181
 21
178.33648924354179
  0
LINE
  8
_0-a_極細3
  6
CENTER1
 62
    7
 10
802.93065977017181
 20
170.05974895908884
 11
802.93065977017181
 21
226.69777075646738
  0
CIRCLE
  8
_0-a_極細3
  6
CONTINUOUS
 62
    7
 10
797.04756590032025
 20
235.49823299353531
 40
0.5530864197530718
  0
CIRCLE
  8
_0-a_極細3
  6
CONTINUOUS
 62
    7
 10
819.26375245724716
 20
222.1550231169924
 40
0.5530864197530718
  0
LINE
  8
_0-d_寸法3
  6
CONTINUOUS
 62
    7
 10
770.43065977017227
 20
205.00315591020851
 11
770.43065977017227
 21
187.85846400930311
  0
LINE
  8
_0-d_寸法3
  6
CONTINUOUS
 62
    7
 10
770.43065977017227
 20
192.85846400930311
 11
760.77140150728144
 21
190.27027355827784
  0
LINE
  8
_0-d_寸法3
  6
CONTINUOUS
 62
    7
 10
770.43065977017227
 20
192.85846400930311
 11
760.77140150728144
 21
195.44665446032832
  0
LINE
  8
_0-d_寸法3
  6
CONTINUOUS
 62
    7
 10
720.43065977017227
 20
243.33648924354176
 11
720.43065977017227
 21
187.85846400930311
  0
LINE
  8
_0-d_寸法3
  6
CONTINUOUS
 62
    7
 10
720.43065977017227
 20
192.85846400930311
 11
730.08991803306287
 21
195.44665446032838
  0
LINE
  8
_0-d_寸法3
  6
CONTINUOUS
 62
    7
 10
720.43065977017227
 20
192.85846400930311
 11
730.08991803306287
 21
190.27027355827789
  0
LINE
  8
_0-d_寸法3
  6
CONTINUOUS
 62
    7
 10
770.43065977017227
 20
192.85846400930311
 11
720.43065977017227
 21
192.85846400930311
  0
TEXT
  8
_0-d_寸法3
 62
    7
 10
737.93065977017227
 20
192.85846400930311
 40
15
 41
1
 50
0
  1
30
  0
ARC
  8
_0-b_細線3
  6
CONTINUOUS
 62
    7
 10
765.43065977017181
 20
258.33648924354173
 40
5
 50
269.99999999999977
 51
359.99999999999966
  0
LINE
  8
_0-b_細線3
  6
CONTINUOUS
 62
    7
 10
770.43065977017181
 20
258.33648924354173
 11
770.43065977017181
 21
290.83648924354156
  0
LINE
  8
_0-b_細線3
  6
CONTINUOUS
 62
    7
 10
765.43065977017181
 20
253.33648924354176
 11
721.26399310350439
 21
253.33648924354176
  0
LINE
  8
_0-b_細線3
  6
CONTINUOUS
 62
    7
 10
720.43065977017125
 20
254.16982257687499
 11
721.26399310350439
 21
253.33648924354176
  0
LINE
  8
_0-b_細線3
  6
CONTINUOUS
 62
    7
 10
720.43065977017125
 20
257.50315591020853
 11
720.43065977017125
 21
254.16982257687499
  0
LINE
  8
_0-b_細線3
  6
CONTINUOUS
 62
    7
 10
721.26399310350439
 20
258.33648924354173
 11
720.43065977017125
 21
257.50315591020853
  0
LINE
  8
_0-b_細線3
  6
CONTINUOUS
 62
    7
 10
765.43065977017181
 20
258.33648924354173
 11
721.26399310350439
 21
258.33648924354173
  0
LINE
  8
_0-b_細線3
  6
CONTINUOUS
 62
    7
 10
769.59732643683878
 20
291.66982257687505
 11
770.43065977017181
 21
290.83648924354156
  0
LINE
  8
_0-b_細線3
  6
CONTINUOUS
 62
    7
 10
766.26399310350519
 20
291.66982257687505
 11
769.59732643683878
 21
291.66982257687505
  0
LINE
  8
_0-b_細線3
  6
CONTINUOUS
 62
    7
 10
765.43065977017181
 20
290.83648924354156
 11
766.26399310350519
 21
291.66982257687505
  0
LINE
  8
_0-b_細線3
  6
CONTINUOUS
 62
    7
 10
765.43065977017181
 20
258.33648924354173
 11
765.43065977017181
 21
290.83648924354156
  0
LINE
  8
_0-b_細線3
  6
CONTINUOUS
 62
    7
 10
757.09732643683867
 20
258.33648924354196
 11
757.09732643683867
 21
291.66982257687505
  0
LINE
  8
_0-b_細線3
  6
CONTINUOUS
 62
    7
 10
757.09732643683867
 20
291.66982257687505
 11
762.09732643683867
 21
291.66982257687505
  0
LINE
  8
_0-b_細線3
  6
CONTINUOUS
 62
    7
 10
762.09732643683867
 20
291.66982257687505
 11
762.09732643683867
 21
258.33648924354196
  0
LINE
  8
_0-b_細線3
  6
CONTINUOUS
 62
    7
 10
762.09732643683867
 20
258.33648924354196
 11
757.09732643683867
 21
258.33648924354196
  0
ARC
  8
_0-b_細線3
  6
CONTINUOUS
 62
    7
 10
720.43065977017193
 20
275.00315591020853
 40
8.75
 50
294.03943363457506
 51
65.960566365424228
  0
ARC
  8
_0-b_細線3
  6
CONTINUOUS
 62
    7
 10
720.43065977017193
 20
275.00315591020853
 40
8.75
 50
114.03943363457542
 51
245.96056636541877
  0
ARC
  8
_0-b_細線3
  6
CONTINUOUS
 62
    7
 10
720.43065977016465
 20
269.16982257681775
 40
2.4999999999928004
 50
179.99999999999983
 51
359.99999999999966
  0
LINE
  8
_0-b_細線3
  6
CONTINUOUS
 62
    7
 10
717.93065977017193
 20
280.83648924354202
 11
717.93065977017193
 21
269.16982257687528
  0
ARC
  8
_0-b_細線3
  6
CONTINUOUS
 62
    7
 10
720.43065977016465
 20
280.83648924361387
 40
2.5000000000072005
 50
0
 51
179.99999999999983
  0
LINE
  8
_0-b_細線3
  6
CONTINUOUS
 62
    7
 10
722.93065977017193
 20
269.16982257687528
 11
722.93065977017193
 21
280.83648924354202
  0
ARC
  8
_0-b_細線3
  6
CONTINUOUS
 62
    7
 10
720.4306597701775
 20
269.1698225768564
 40
4.1666666666723522
 50
179.99999999999983
 51
359.99999999999966
  0
LINE
  8
_0-b_細線3
  6
CONTINUOUS
 62
    7
 10
716.26399310350598
 20
280.83648924354202
 11
716.26399310350598
 21
269.16982257687528
  0
ARC
  8
_0-b_細線3
  6
CONTINUOUS
 62
    7
 10
720.4306597701393
 20
280.83648924363979
 40
4.1666666667000154
 50
0
 51
179.99999999999983
  0
LINE
  8
_0-b_細線3
  6
CONTINUOUS
 62
    7
 10
724.5973264368389
 20
269.16982257687528
 11
724.5973264368389
 21
280.83648924354202
  0
LINE
  8
_0-b_細線3
  6
CONTINUOUS
 62
    7
 10
757.09732643683867
 20
291.66982257687505
 11
183.76399310350484
 21
291.66982257687437
  0
LINE
  8
_0-d_寸法3
  6
CONTINUOUS
 62
    7
 10
220.43065977017179
 20
248.33648924354176
 11
220.43065977017179
 21
187.85846400930311
  0
LINE
  8
_0-d_寸法3
  6
CONTINUOUS
 62
    7
 10
220.43065977017179
 20
192.85846400930311
 11
230.08991803306253
 21
195.44665446032832
  0
LINE
  8
_0-d_寸法3
  6
CONTINUOUS
 62
    7
 10
220.43065977017179
 20
192.85846400930311
 11
230.08991803306253
 21
190.27027355827784
  0
LINE
  8
_0-d_寸法3
  6
CONTINUOUS
 62
    7
 10
720.43065977017125
 20
248.33648924354176
 11
720.43065977017125
 21
187.85846400930311
  0
LINE
  8
_0-d_寸法3
  6
CONTINUOUS
 62
    7
 10
720.43065977017125
 20
192.85846400930311
 11
710.77140150728053
 21
190.27027355827789
  0
LINE
  8
_0-d_寸法3
  6
CONTINUOUS
 62
    7
 10
720.43065977017125
 20
192.85846400930311
 11
710.77140150728053
 21
195.44665446032838
  0
LINE
  8
_0-d_寸法3
  6
CONTINUOUS
 62
    7
 10
220.43065977017179
 20
192.85846400930311
 11
720.43065977017125
 21
192.85846400930311
  0
TEXT
  8
_0-d_寸法3
 62
    7
 10
459.18065977017187
 20
192.85846400930311
 40
15
 41
1
 50
0
  1
300
  0
LINE
  8
_0-b_細線3
  6
CONTINUOUS
 62
    7
 10
757.09732643683867
 20
258.33648924354196
 11
183.76399310350484
 21
258.33648924354128
  0
LINE
  8
_0-a_極細3
  6
CENTER1
 62
    7
 10
773.09741483799382
 20
275.00315591020853
 11
168.77666732563128
 21
275.00315591020853
  0
LINE
  8
_0-d_寸法3
  6
CONTINUOUS
 62
    7
 10
170.43065977017207
 20
296.66982257687505
 11
170.4306597701725
 21
416.66982257687505
  0
LINE
  8
_0-d_寸法3
  6
CONTINUOUS
 62
    7
 10
170.4306597701725
 20
411.66982257687505
 11
180.08991803306316
 21
414.25801302790029
  0
LINE
  8
_0-d_寸法3
  6
CONTINUOUS
 62
    7
 10
170.4306597701725
 20
411.66982257687505
 11
180.08991803306316
 21
409.08163212584986
  0
LINE
  8
_0-d_寸法3
  6
CONTINUOUS
 62
    7
 10
770.43065977017181
 20
296.66982257687505
 11
770.43065977017193
 21
416.66982257687505
  0
LINE
  8
_0-d_寸法3
  6
CONTINUOUS
 62
    7
 10
770.43065977017193
 20
411.66982257687505
 11
760.77140150728133
 21
409.08163212584986
  0
LINE
  8
_0-d_寸法3
  6
CONTINUOUS
 62
    7
 10
770.43065977017193
 20
411.66982257687505
 11
760.77140150728133
 21
414.25801302790035
  0
LINE
  8
_0-d_寸法3
  6
CONTINUOUS
 62
    7
 10
170.4306597701725
 20
411.66982257687505
 11
770.43065977017193
 21
411.66982257687505
  0
TEXT
  8
_0-d_寸法3
 62
    7
 10
459.18065977017193
 20
411.66982257687505
 40
15
 41
1
 50
0
  1
360
  0
LINE
  8
_0-d_寸法3
  6
CONTINUOUS
 62
    7
 10
178.76399310350513
 20
301.66982257687505
 11
178.76399310350536
 21
346.66982257687505
  0
LINE
  8
_0-d_寸法3
  6
CONTINUOUS
 62
    7
 10
178.76399310350536
 20
341.66982257687505
 11
188.42325136639602
 21
344.25801302790029
  0
LINE
  8
_0-d_寸法3
  6
CONTINUOUS
 62
    7
 10
178.76399310350536
 20
341.66982257687505
 11
188.42325136639602
 21
339.08163212584986
  0
LINE
  8
_0-d_寸法3
  6
CONTINUOUS
 62
    7
 10
220.43065977017207
 20
301.66982257687471
 11
220.43065977017207
 21
346.66982257687505
  0
LINE
  8
_0-d_寸法3
  6
CONTINUOUS
 62
    7
 10
220.43065977017207
 20
341.66982257687505
 11
210.77140150728141
 21
339.08163212584986
  0
LINE
  8
_0-d_寸法3
  6
CONTINUOUS
 62
    7
 10
220.43065977017207
 20
341.66982257687505
 11
210.77140150728141
 21
344.25801302790029
  0
LINE
  8
_0-d_寸法3
  6
CONTINUOUS
 62
    7
 10
178.76399310350536
 20
341.66982257687505
 11
220.43065977017207
 21
341.66982257687505
  0
TEXT
  8
_0-d_寸法3
 62
    7
 10
192.09732643683856
 20
341.66982257687505
 40
15
 41
1
 50
0
  1
25
  0
LINE
  8
_0-d_寸法3
  6
CONTINUOUS
 62
    7
 10
220.43065977017207
 20
341.66982257687505
 11
230.08991803306273
 21
344.25801302790023
  0
LINE
  8
_0-d_寸法3
  6
CONTINUOUS
 62
    7
 10
220.43065977017207
 20
341.66982257687505
 11
230.08991803306273
 21
339.08163212584981
  0
LINE
  8
_0-d_寸法3
  6
CONTINUOUS
 62
    7
 10
470.43065977017204
 20
301.66982257687471
 11
470.43065977017204
 21
346.66982257687505
  0
LINE
  8
_0-d_寸法3
  6
CONTINUOUS
 62
    7
 10
470.43065977017204
 20
341.66982257687505
 11
460.77140150728133
 21
339.08163212584986
  0
LINE
  8
_0-d_寸法3
  6
CONTINUOUS
 62
    7
 10
470.43065977017204
 20
341.66982257687505
 11
460.77140150728144
 21
344.25801302790029
  0
LINE
  8
_0-d_寸法3
  6
CONTINUOUS
 62
    7
 10
220.43065977017207
 20
341.66982257687505
 11
470.43065977017204
 21
341.66982257687505
  0
TEXT
  8
_0-d_寸法3
 62
    7
 10
334.18065977017204
 20
341.66982257687505
 40
15
 41
1
 50
0
  1
150
  0
LINE
  8
_0-d_寸法3
  6
CONTINUOUS
 62
    7
 10
470.43065977017204
 20
341.66982257687505
 11
480.08991803306282
 21
344.25801302790023
  0
LINE
  8
_0-d_寸法3
  6
CONTINUOUS
 62
    7
 10
470.43065977017204
 20
341.66982257687505
 11
480.08991803306276
 21
339.08163212584981
  0
LINE
  8
_0-d_寸法3
  6
CONTINUOUS
 62
    7
 10
720.43065977017125
 20
301.66982257687471
 11
720.43065977017136
 21
346.66982257687505
  0
LINE
  8
_0-d_寸法3
  6
CONTINUOUS
 62
    7
 10
720.43065977017136
 20
341.66982257687505
 11
710.77140150728064
 21
339.08163212584986
  0
LINE
  8
_0-d_寸法3
  6
CONTINUOUS
 62
    7
 10
720.43065977017136
 20
341.66982257687505
 11
710.77140150728064
 21
344.25801302790029
  0
LINE
  8
_0-d_寸法3
  6
CONTINUOUS
 62
    7
 10
470.43065977017204
 20
341.66982257687505
 11
720.43065977017136
 21
341.66982257687505
  0
TEXT
  8
_0-d_寸法3
 62
    7
 10
584.1806597701717
 20
341.66982257687505
 40
15
 41
1
 50
0
  1
150
  0
LINE
  8
_0-d_寸法3
  6
CONTINUOUS
 62
    7
 10
720.43065977017136
 20
341.66982257687505
 11
730.08991803306219
 21
344.25801302790023
  0
LINE
  8
_0-d_寸法3
  6
CONTINUOUS
 62
    7
 10
720.43065977017136
 20
341.66982257687505
 11
730.08991803306219
 21
339.08163212584981
  0
LINE
  8
_0-d_寸法3
  6
CONTINUOUS
 62
    7
 10
762.09732643683867
 20
301.66982257687505
 11
762.09732643683878
 21
346.66982257687505
  0
LINE
  8
_0-d_寸法3
  6
CONTINUOUS
 62
    7
 10
762.09732643683878
 20
341.66982257687505
 11
752.43806817394807
 21
339.08163212584986
  0
LINE
  8
_0-d_寸法3
  6
CONTINUOUS
 62
    7
 10
762.09732643683878
 20
341.66982257687505
 11
752.43806817394807
 21
344.25801302790029
  0
LINE
  8
_0-d_寸法3
  6
CONTINUOUS
 62
    7
 10
720.43065977017136
 20
341.66982257687505
 11
762.09732643683878
 21
341.66982257687505
  0
TEXT
  8
_0-d_寸法3
 62
    7
 10
733.76399310350507
 20
341.66982257687505
 40
15
 41
1
 50
0
  1
25
  0
LINE
  8
_0-b_細線3
  6
CONTINUOUS
 62
    7
 10
953.15211640940788
 20
291.66982257687505
 11
939.81878307607474
 21
291.66982257687505
  0
LINE
  8
_0-b_細線3
  6
CONTINUOUS
 62
    7
 10
976.48544974274137
 20
291.66982257687505
 11
963.15211640940788
 21
291.66982257687505
  0
LINE
  8
_0-b_細線3
  6
CONTINUOUS
 62
    7
 10
999.81878307607428
 20
291.66982257687505
 11
986.48544974274091
 21
291.66982257687505
  0
LINE
  8
_0-b_細線3
  6
CONTINUOUS
 62
    7
 10
1023.1521164094079
 20
291.66982257687505
 11
1009.8187830760747
 21
291.66982257687505
  0
LINE
  8
_0-d_寸法3
  6
CONTINUOUS
 62
    7
 10
939.81878307607474
 20
301.66982257687505
 11
939.81878307607474
 21
346.66982257687505
  0
LINE
  8
_0-d_寸法3
  6
CONTINUOUS
 62
    7
 10
939.81878307607474
 20
341.66982257687505
 11
930.15952481318413
 21
339.08163212584986
  0
LINE
  8
_0-d_寸法3
  6
CONTINUOUS
 62
    7
 10
939.81878307607474
 20
341.66982257687505
 11
930.15952481318413
 21
344.25801302790029
  0
LINE
  8
_0-d_寸法3
  6
CONTINUOUS
 62
    7
 10
953.15211640940834
 20
301.66982257687505
 11
953.15211640940834
 21
346.66982257687505
  0
CIRCLE
  8
_0-d_寸法3
  6
CONTINUOUS
 62
    1
 10
953.15211640940834
 20
341.66982257687505
 40
1.5000000000000002
  0
LINE
  8
_0-d_寸法3
  6
CONTINUOUS
 62
    7
 10
914.81878307607474
 20
341.66982257687505
 11
953.15211640940834
 21
341.66982257687505
  0
TEXT
  8
_0-d_寸法3
 62
    7
 10
922.31334902649394
 20
341.66982257687505
 40
15
 41
1
 50
0
  1
8
  0
LINE
  8
_0-d_寸法3
  6
CONTINUOUS
 62
    7
 10
963.15211640940834
 20
301.66982257687505
 11
963.15211640940834
 21
346.66982257687505
  0
LINE
  8
_0-d_寸法3
  6
CONTINUOUS
 62
    7
 10
963.15211640940834
 20
341.66982257687505
 11
972.81137467229894
 21
344.25801302790023
  0
LINE
  8
_0-d_寸法3
  6
CONTINUOUS
 62
    7
 10
963.15211640940834
 20
341.66982257687505
 11
972.81137467229894
 21
339.08163212584981
  0
LINE
  8
_0-d_寸法3
  6
CONTINUOUS
 62
    7
 10
953.15211640940834
 20
341.66982257687505
 11
988.15211640940834
 21
341.66982257687505
  0
TEXT
  8
_0-d_寸法3
 62
    7
 10
972.87285519933346
 20
341.66982257687505
 40
15
 41
1
 50
0
  1
6
  0
LINE
  8
_0-b_細線3
  6
CONTINUOUS
 62
    7
 10
1046.4854497427409
 20
291.66982257687505
 11
1033.1521164094079
 21
291.66982257687505
  0
LINE
  8
_0-b_細線3
  6
CONTINUOUS
 62
    7
 10
1069.8187830760739
 20
291.66982257687505
 11
1056.4854497427409
 21
291.66982257687505
  0
LINE
  8
_0-d_寸法3
  6
CONTINUOUS
 62
    7
 10
1016.4854497427414
 20
301.66982257687516
 11
1016.4854497427414
 21
346.66982257687505
  0
LINE
  8
_0-d_寸法3
  6
CONTINUOUS
 62
    7
 10
1016.4854497427414
 20
341.66982257687505
 11
1026.1447080056319
 21
344.25801302790029
  0
LINE
  8
_0-d_寸法3
  6
CONTINUOUS
 62
    7
 10
1016.4854497427414
 20
341.66982257687505
 11
1026.1447080056319
 21
339.08163212584986
  0
LINE
  8
_0-d_寸法3
  6
CONTINUOUS
 62
    7
 10
1039.8187830760749
 20
301.66982257687505
 11
1039.8187830760749
 21
346.66982257687505
  0
LINE
  8
_0-d_寸法3
  6
CONTINUOUS
 62
    7
 10
1039.8187830760749
 20
341.66982257687505
 11
1030.1595248131841
 21
339.08163212584986
  0
LINE
  8
_0-d_寸法3
  6
CONTINUOUS
 62
    7
 10
1039.8187830760749
 20
341.66982257687505
 11
1030.1595248131841
 21
344.25801302790029
  0
LINE
  8
_0-d_寸法3
  6
CONTINUOUS
 62
    7
 10
1016.4854497427414
 20
341.66982257687505
 11
1039.8187830760749
 21
341.66982257687505
  0
TEXT
  8
_0-d_寸法3
 62
    7
 10
1020.6521164094079
 20
341.66982257687505
 40
15
 41
1
 50
0
  1
14
  0
LINE
  8
_0-d_寸法3
  6
CONTINUOUS
 62
    7
 10
1039.8187830760749
 20
341.66982257687505
 11
1049.4780413389658
 21
344.25801302790023
  0
LINE
  8
_0-d_寸法3
  6
CONTINUOUS
 62
    7
 10
1039.8187830760749
 20
341.66982257687505
 11
1049.4780413389658
 21
339.08163212584981
  0
LINE
  8
_0-d_寸法3
  6
CONTINUOUS
 62
    7
 10
1063.1521164094079
 20
301.66982257687505
 11
1063.1521164094079
 21
346.66982257687505
  0
LINE
  8
_0-d_寸法3
  6
CONTINUOUS
 62
    7
 10
1063.1521164094079
 20
341.66982257687505
 11
1053.4928581465172
 21
339.08163212584986
  0
LINE
  8
_0-d_寸法3
  6
CONTINUOUS
 62
    7
 10
1063.1521164094079
 20
341.66982257687505
 11
1053.4928581465172
 21
344.25801302790029
  0
LINE
  8
_0-d_寸法3
  6
CONTINUOUS
 62
    7
 10
1039.8187830760749
 20
341.66982257687505
 11
1063.1521164094079
 21
341.66982257687505
  0
TEXT
  8
_0-d_寸法3
 62
    7
 10
1043.9854497427414
 20
341.66982257687505
 40
15
 41
1
 50
0
  1
14
  0
LINE
  8
_0-d_寸法3
  6
CONTINUOUS
 62
    7
 10
922.26314135259918
 20
291.66982257687511
 11
893.92980801926569
 21
291.66982257687516
  0
LINE
  8
_0-d_寸法3
  6
CONTINUOUS
 62
    7
 10
898.92980801926569
 20
291.66982257687516
 11
901.51799847029088
 21
282.0105643139845
  0
LINE
  8
_0-d_寸法3
  6
CONTINUOUS
 62
    7
 10
898.92980801926569
 20
291.66982257687516
 11
896.34161756824039
 21
282.0105643139845
  0
LINE
  8
_0-d_寸法3
  6
CONTINUOUS
 62
    7
 10
922.26314135259918
 20
258.33648924354185
 11
893.92980801926569
 21
258.33648924354191
  0
LINE
  8
_0-d_寸法3
  6
CONTINUOUS
 62
    7
 10
898.92980801926569
 20
258.33648924354191
 11
896.34161756824039
 21
267.99574750643262
  0
LINE
  8
_0-d_寸法3
  6
CONTINUOUS
 62
    7
 10
898.92980801926569
 20
258.33648924354191
 11
901.51799847029088
 21
267.99574750643262
  0
LINE
  8
_0-d_寸法3
  6
CONTINUOUS
 62
    7
 10
898.92980801926569
 20
291.66982257687516
 11
898.92980801926569
 21
258.33648924354191
  0
TEXT
  8
_0-d_寸法3
 62
    7
 10
898.92980801926569
 20
267.50315591020853
 40
15
 41
1
 50
90
  1
20
  0
LINE
  8
_0-b_細線3
  6
CONTINUOUS
 62
    7
 10
945.48544974274137
 20
258.33648924354179
 11
947.48544974274125
 21
258.33648924354179
  0
LINE
  8
_0-b_細線3
  6
CONTINUOUS
 62
    7
 10
968.81878307607485
 20
258.33648924354179
 11
970.81878307607485
 21
258.33648924354179
  0
LINE
  8
_0-b_細線3
  6
CONTINUOUS
 62
    7
 10
992.15211640940777
 20
258.33648924354179
 11
994.15211640940788
 21
258.33648924354179
  0
LINE
  8
_0-b_細線3
  6
CONTINUOUS
 62
    7
 10
1015.4854497427414
 20
258.33648924354179
 11
1017.4854497427409
 21
258.33648924354179
  0
LINE
  8
_0-b_細線3
  6
CONTINUOUS
 62
    7
 10
1038.8187830760744
 20
258.33648924354179
 11
1040.8187830760739
 21
258.33648924354179
  0
LINE
  8
_0-b_細線3
  6
CONTINUOUS
 62
    7
 10
1062.1521164094074
 20
258.33648924354179
 11
1064.152116409407
 21
258.33648924354179
  0
ARC
  8
_0-a_極細3
  6
CONTINUOUS
 62
    7
 10
951.58512460882491
 20
283.98726143778629
 40
21.070607518177617
 50
150.03871396148139
 51
205.2381040238788
  0
ARC
  8
_0-a_極細3
  6
CONTINUOUS
 62
    7
 10
913.46655438094729
 20
266.01905038262942
 40
21.070607518177617
 50
330.03871396148219
 51
25.238104023878272
  0
LINE
  8
_0-b_細線3
  6
CONTINUOUS
 62
    7
 10
931.96501361196169
 20
291.66982257687505
 11
1075.3920453877322
 21
291.66982257687505
  0
ARC
  8
_0-a_極細3
  6
CONTINUOUS
 62
    7
 10
1094.9758023633772
 20
283.98726143778629
 40
21.070607518177617
 50
150.03871396148139
 51
205.2381040238788
  0
ARC
  8
_0-a_極細3
  6
CONTINUOUS
 62
    7
 10
1056.8572321354995
 20
266.01905038262942
 40
21.070607518177617
 50
330.03871396148219
 51
25.238104023878019
  0
LINE
  8
_0-a_極細3
  6
CENTER1
 62
    7
 10
914.128534257296
 20
275.00315591020808
 11
1087.6337554753186
 21
275.00315591020808
  0
LINE
  8
_0-b_細線3
  6
CONTINUOUS
 62
    7
 10
933.08666537781107
 20
258.336489243541
 11
1076.4773431323633
 21
258.33648924354088
  0
ARC
  8
_0-b_細線3
  6
CONTINUOUS
 62
    7
 10
958.15211640940834
 20
312.805933687986
 40
46.136111111111042
 50
256.63227178393157
 51
283.36772821606712
  0
ARC
  8
_0-b_細線3
  6
CONTINUOUS
 62
    7
 10
958.15211640940834
 20
237.20037813243084
 40
46.136111111111042
 50
76.632271783932524
 51
103.36772821606807
  0
ARC
  8
_0-b_細線3
  6
CONTINUOUS
 62
    7
 10
981.48544974274137
 20
312.805933687986
 40
46.136111111111042
 50
256.63227178393157
 51
283.36772821606712
  0
ARC
  8
_0-b_細線3
  6
CONTINUOUS
 62
    7
 10
981.48544974274137
 20
237.20037813243084
 40
46.136111111111042
 50
76.632271783932524
 51
103.36772821606779
  0
ARC
  8
_0-b_細線3
  6
CONTINUOUS
 62
    7
 10
1004.8187830760747
 20
312.805933687986
 40
46.136111111111042
 50
256.63227178393186
 51
283.36772821606712
  0
ARC
  8
_0-b_細線3
  6
CONTINUOUS
 62
    7
 10
1004.8187830760747
 20
237.20037813243084
 40
46.136111111111042
 50
76.632271783932524
 51
103.36772821606753
  0
LINE
  8
_0-b_細線3
  6
CONTINUOUS
 62
    7
 10
953.15211640940834
 20
289.66982257687505
 11
953.15211640940834
 21
291.66982257687505
  0
LINE
  8
_0-b_細線3
  6
CONTINUOUS
 62
    7
 10
947.48544974274125
 20
289.66982257687505
 11
953.15211640940834
 21
289.66982257687505
  0
LINE
  8
_0-b_細線3
  6
CONTINUOUS
 62
    7
 10
947.48544974274125
 20
258.33648924354179
 11
947.48544974274125
 21
289.66982257687505
  0
LINE
  8
_0-b_細線3
  6
CONTINUOUS
 62
    7
 10
945.48544974274137
 20
258.33648924354179
 11
947.48544974274125
 21
258.33648924354179
  0
LINE
  8
_0-b_細線3
  6
CONTINUOUS
 62
    7
 10
945.48544974274137
 20
289.66982257687505
 11
945.48544974274137
 21
258.33648924354179
  0
LINE
  8
_0-b_細線3
  6
CONTINUOUS
 62
    7
 10
939.81878307607474
 20
289.66982257687505
 11
945.48544974274137
 21
289.66982257687505
  0
LINE
  8
_0-b_細線3
  6
CONTINUOUS
 62
    7
 10
939.81878307607474
 20
291.66982257687505
 11
939.81878307607474
 21
289.66982257687505
  0
LINE
  8
_0-b_細線3
  6
CONTINUOUS
 62
    7
 10
953.15211640940834
 20
291.66982257687505
 11
939.81878307607474
 21
291.66982257687505
  0
LINE
  8
_0-b_細線3
  6
CONTINUOUS
 62
    7
 10
976.48544974274159
 20
289.66982257687505
 11
976.48544974274159
 21
291.66982257687505
  0
LINE
  8
_0-b_細線3
  6
CONTINUOUS
 62
    7
 10
970.81878307607485
 20
289.66982257687505
 11
976.48544974274159
 21
289.66982257687505
  0
LINE
  8
_0-b_細線3
  6
CONTINUOUS
 62
    7
 10
970.81878307607485
 20
258.33648924354179
 11
970.81878307607485
 21
289.66982257687505
  0
LINE
  8
_0-b_細線3
  6
CONTINUOUS
 62
    7
 10
968.81878307607485
 20
258.33648924354179
 11
970.81878307607485
 21
258.33648924354179
  0
LINE
  8
_0-b_細線3
  6
CONTINUOUS
 62
    7
 10
968.81878307607485
 20
289.66982257687505
 11
968.81878307607485
 21
258.33648924354179
  0
LINE
  8
_0-b_細線3
  6
CONTINUOUS
 62
    7
 10
963.15211640940834
 20
289.66982257687505
 11
968.81878307607485
 21
289.66982257687505
  0
LINE
  8
_0-b_細線3
  6
CONTINUOUS
 62
    7
 10
963.15211640940834
 20
291.66982257687505
 11
963.15211640940834
 21
289.66982257687505
  0
LINE
  8
_0-b_細線3
  6
CONTINUOUS
 62
    7
 10
976.48544974274159
 20
291.66982257687505
 11
963.15211640940834
 21
291.66982257687505
  0
LINE
  8
_0-b_細線3
  6
CONTINUOUS
 62
    7
 10
999.81878307607462
 20
289.66982257687505
 11
999.81878307607462
 21
291.66982257687505
  0
LINE
  8
_0-b_細線3
  6
CONTINUOUS
 62
    7
 10
994.15211640940822
 20
289.66982257687505
 11
999.81878307607462
 21
289.66982257687505
  0
LINE
  8
_0-b_細線3
  6
CONTINUOUS
 62
    7
 10
994.15211640940822
 20
258.33648924354179
 11
994.15211640940822
 21
289.66982257687505
  0
LINE
  8
_0-b_細線3
  6
CONTINUOUS
 62
    7
 10
992.15211640940822
 20
258.33648924354179
 11
994.15211640940822
 21
258.33648924354179
  0
LINE
  8
_0-b_細線3
  6
CONTINUOUS
 62
    7
 10
992.15211640940822
 20
289.66982257687505
 11
992.15211640940822
 21
258.33648924354179
  0
LINE
  8
_0-b_細線3
  6
CONTINUOUS
 62
    7
 10
986.48544974274137
 20
289.66982257687505
 11
992.15211640940822
 21
289.66982257687505
  0
LINE
  8
_0-b_細線3
  6
CONTINUOUS
 62
    7
 10
986.48544974274137
 20
291.66982257687505
 11
986.48544974274137
 21
289.66982257687505
  0
LINE
  8
_0-b_細線3
  6
CONTINUOUS
 62
    7
 10
999.81878307607462
 20
291.66982257687505
 11
986.48544974274137
 21
291.66982257687505
  0
LINE
  8
_0-b_細線3
  6
CONTINUOUS
 62
    7
 10
1023.1521164094084
 20
289.66982257687505
 11
1023.1521164094084
 21
291.66982257687505
  0
LINE
  8
_0-b_細線3
  6
CONTINUOUS
 62
    7
 10
1017.4854497427414
 20
289.66982257687505
 11
1023.1521164094084
 21
289.66982257687505
  0
LINE
  8
_0-b_細線3
  6
CONTINUOUS
 62
    7
 10
1017.4854497427414
 20
258.33648924354179
 11
1017.4854497427414
 21
289.66982257687505
  0
LINE
  8
_0-b_細線3
  6
CONTINUOUS
 62
    7
 10
1015.4854497427415
 20
258.33648924354179
 11
1017.4854497427414
 21
258.33648924354179
  0
LINE
  8
_0-b_細線3
  6
CONTINUOUS
 62
    7
 10
1015.4854497427415
 20
289.66982257687505
 11
1015.4854497427415
 21
258.33648924354179
  0
LINE
  8
_0-b_細線3
  6
CONTINUOUS
 62
    7
 10
1009.8187830760747
 20
289.66982257687505
 11
1015.4854497427415
 21
289.66982257687505
  0
LINE
  8
_0-b_細線3
  6
CONTINUOUS
 62
    7
 10
1009.8187830760747
 20
291.66982257687505
 11
1009.8187830760747
 21
289.66982257687505
  0
LINE
  8
_0-b_細線3
  6
CONTINUOUS
 62
    7
 10
1023.1521164094084
 20
291.66982257687505
 11
1009.8187830760747
 21
291.66982257687505
  0
ARC
  8
_0-b_細線3
  6
CONTINUOUS
 62
    7
 10
1028.1521164094083
 20
312.805933687986
 40
46.136111111111042
 50
256.63227178393214
 51
283.36772821606712
  0
ARC
  8
_0-b_細線3
  6
CONTINUOUS
 62
    7
 10
1028.1521164094083
 20
237.20037813243084
 40
46.136111111111042
 50
76.632271783932524
 51
103.36772821606753
  0
LINE
  8
_0-b_細線3
  6
CONTINUOUS
 62
    7
 10
1046.4854497427418
 20
289.66982257687505
 11
1046.4854497427418
 21
291.66982257687505
  0
LINE
  8
_0-b_細線3
  6
CONTINUOUS
 62
    7
 10
1040.8187830760749
 20
289.66982257687505
 11
1046.4854497427418
 21
289.66982257687505
  0
LINE
  8
_0-b_細線3
  6
CONTINUOUS
 62
    7
 10
1040.8187830760749
 20
258.33648924354179
 11
1040.8187830760749
 21
289.66982257687505
  0
LINE
  8
_0-b_細線3
  6
CONTINUOUS
 62
    7
 10
1038.8187830760753
 20
289.66982257687505
 11
1038.8187830760753
 21
258.33648924354179
  0
LINE
  8
_0-b_細線3
  6
CONTINUOUS
 62
    7
 10
1033.1521164094083
 20
289.66982257687505
 11
1038.8187830760753
 21
289.66982257687505
  0
LINE
  8
_0-b_細線3
  6
CONTINUOUS
 62
    7
 10
1033.1521164094083
 20
291.66982257687505
 11
1033.1521164094083
 21
289.66982257687505
  0
ARC
  8
_0-b_細線3
  6
CONTINUOUS
 62
    7
 10
1051.4854497427418
 20
312.805933687986
 40
46.136111111111042
 50
256.63227178393214
 51
283.36772821606712
  0
ARC
  8
_0-b_細線3
  6
CONTINUOUS
 62
    7
 10
1051.4854497427418
 20
237.20037813243084
 40
46.136111111111042
 50
76.632271783932524
 51
103.36772821606753
  0
LINE
  8
_0-b_細線3
  6
CONTINUOUS
 62
    7
 10
1069.8187830760753
 20
289.66982257687505
 11
1069.8187830760753
 21
291.66982257687505
  0
LINE
  8
_0-b_細線3
  6
CONTINUOUS
 62
    7
 10
1064.1521164094083
 20
289.66982257687505
 11
1069.8187830760753
 21
289.66982257687505
  0
LINE
  8
_0-b_細線3
  6
CONTINUOUS
 62
    7
 10
1064.1521164094083
 20
258.33648924354179
 11
1064.1521164094083
 21
289.66982257687505
  0
LINE
  8
_0-b_細線3
  6
CONTINUOUS
 62
    7
 10
1062.1521164094088
 20
289.66982257687505
 11
1062.1521164094088
 21
258.33648924354179
  0
LINE
  8
_0-b_細線3
  6
CONTINUOUS
 62
    7
 10
1056.4854497427418
 20
289.66982257687505
 11
1062.1521164094088
 21
289.66982257687505
  0
LINE
  8
_0-b_細線3
  6
CONTINUOUS
 62
    7
 10
1056.4854497427418
 20
291.66982257687505
 11
1056.4854497427418
 21
289.66982257687505
  0
ARC
  8
_0-b_細線3
  6
CONTINUOUS
 62
    7
 10
934.81878307607474
 20
237.20037813243084
 40
46.136111111111042
 50
76.632271783932524
 51
95.331778543219158
  0
ARC
  8
_0-b_細線3
  6
CONTINUOUS
 62
    7
 10
934.81878307607474
 20
312.805933687986
 40
46.136111111111042
 50
269.63773734898541
 51
283.36772821606655
  0
ARC
  8
_0-b_細線3
  6
CONTINUOUS
 62
    7
 10
1074.8187830760758
 20
312.805933687986
 40
46.136111111111042
 50
256.63227178393157
 51
273.84719120855112
  0
ARC
  8
_0-b_細線3
  6
CONTINUOUS
 62
    7
 10
1074.8187830760758
 20
237.20037813243084
 40
46.136111111111042
 50
91.121818745999931
 51
103.36772821606807
  0
TEXT
  8
_0-7_枠細線
 62
    5
 10
956.55807915457694
 20
213.58449870880861
 40
25
 41
0.8
 50
0
  1
側面詳細図
  0
LINE
  8
_0-a_極細3
  6
CONTINUOUS
 62
    7
 10
774.26399310350564
 20
246.66982257687499
 11
770.43065977017227
 21
246.66982257687499
  0
LINE
  8
_0-a_極細3
  6
CONTINUOUS
 62
    7
 10
774.26399310350564
 20
250.00315591020851
 11
770.43065977017227
 21
250.00315591020851
  0
LINE
  8
_0-a_極細3
  6
CONTINUOUS
 62
    7
 10
774.26399310350564
 20
243.33648924354176
 11
770.43065977017227
 21
243.33648924354176
  0
LINE
  8
_0-a_極細3
  6
CONTINUOUS
 62
    7
 10
774.26399310350564
 20
253.33648924354176
 11
770.43065977017227
 21
253.33648924354176
  0
LINE
  8
_0-a_極細3
  6
CONTINUOUS
 62
    7
 10
770.43065977017227
 20
220.00315591020851
 11
774.26399310350564
 21
220.00315591020851
  0
LINE
  8
_0-a_極細3
  6
CONTINUOUS
 62
    7
 10
774.26399310350564
 20
270.00315591020853
 11
770.43065977017227
 21
270.00315591020853
  0
LINE
  8
_0-b_細線3
  6
CONTINUOUS
 62
    7
 10
770.43065977017227
 20
273.33648924354173
 11
770.43065977017227
 21
215.00315591020851
  0
LINE
  8
_0-b_細線3
  6
CONTINUOUS
 62
    7
 10
770.43065977017227
 20
215.00315591020851
 11
774.26399310350564
 21
215.00315591020851
  0
LINE
  8
_0-b_細線3
  6
CONTINUOUS
 62
    7
 10
774.26399310350564
 20
215.00315591020851
 11
774.26399310350564
 21
273.33648924354173
  0
LINE
  8
_0-b_細線3
  6
CONTINUOUS
 62
    7
 10
774.26399310350564
 20
273.33648924354173
 11
770.43065977017227
 21
273.33648924354173
  0
LINE
  8
_0-7_枠細線
  6
CONTINUOUS
 62
    5
 10
793.34986119674511
 20
251.06523923969576
 11
785.84986119674511
 21
266.06523923969576
  0
LINE
  8
_0-7_枠細線
  6
CONTINUOUS
 62
    5
 10
778.34986119674511
 20
251.06523923969576
 11
793.34986119674511
 21
251.06523923969576
  0
LINE
  8
_0-7_枠細線
  6
CONTINUOUS
 62
    5
 10
785.84986119674511
 20
266.06523923969576
 11
778.34986119674511
 21
251.06523923969576
  0
TEXT
  8
_0-7_枠細線
 62
    5
 10
780.71501246489322
 20
250.75823699431524
 40
12.5
 41
0.8
 50
0
  1
１
  0
LINE
  8
_0-a_極細3
  6
CONTINUOUS
 62
    7
 10
166.59732643683853
 20
246.66982257687499
 11
170.43065977017179
 21
246.66982257687499
  0
LINE
  8
_0-a_極細3
  6
CONTINUOUS
 62
    7
 10
166.59732643683853
 20
250.00315591020851
 11
170.43065977017179
 21
250.00315591020851
  0
LINE
  8
_0-a_極細3
  6
CONTINUOUS
 62
    7
 10
166.59732643683853
 20
243.33648924354176
 11
170.43065977017179
 21
243.33648924354176
  0
LINE
  8
_0-a_極細3
  6
CONTINUOUS
 62
    7
 10
166.59732643683853
 20
253.33648924354176
 11
170.43065977017179
 21
253.33648924354176
  0
LINE
  8
_0-a_極細3
  6
CONTINUOUS
 62
    7
 10
170.43065977017179
 20
220.00315591020851
 11
166.59732643683853
 21
220.00315591020851
  0
LINE
  8
_0-a_極細3
  6
CONTINUOUS
 62
    7
 10
166.59732643683853
 20
270.00315591020853
 11
170.43065977017179
 21
270.00315591020853
  0
LINE
  8
_0-b_細線3
  6
CONTINUOUS
 62
    7
 10
170.43065977017179
 20
273.33648924354173
 11
170.43065977017179
 21
215.00315591020851
  0
LINE
  8
_0-b_細線3
  6
CONTINUOUS
 62
    7
 10
170.43065977017179
 20
215.00315591020851
 11
166.59732643683853
 21
215.00315591020851
  0
LINE
  8
_0-b_細線3
  6
CONTINUOUS
 62
    7
 10
166.59732643683853
 20
215.00315591020851
 11
166.59732643683853
 21
273.33648924354173
  0
LINE
  8
_0-b_細線3
  6
CONTINUOUS
 62
    7
 10
166.59732643683853
 20
273.33648924354173
 11
170.43065977017179
 21
273.33648924354173
  0
TEXT
  8
_0-7_枠細線
 62
    5
 10
1027.2366688631309
 20
190.04243182222197
 40
20
 41
0.6
 50
0
  1
Ｓ＝１：３
  0
LINE
  8
_0-0_計極細
  6
CONTINUOUS
 62
    2
 10
1210.9337497959757
 20
664.46286737472724
 11
1204.9337497959757
 21
664.46286737472724
  0
LINE
  8
_0-0_計極細
  6
CONTINUOUS
 62
    2
 10
1210.9337497959757
 20
659.46286737472724
 11
1204.9337497959757
 21
659.46286737472724
  0
LINE
  8
_0-0_計極細
  6
CONTINUOUS
 62
    2
 10
1196.9337497959757
 20
664.46286737472724
 11
1190.9337497959757
 21
664.46286737472724
  0
LINE
  8
_0-0_計極細
  6
CONTINUOUS
 62
    2
 10
1196.9337497959757
 20
659.46286737472724
 11
1190.9337497959757
 21
659.46286737472724
  0
LINE
  8
_0-0_計極細
  6
CONTINUOUS
 62
    2
 10
1182.9337497959757
 20
664.46286737472724
 11
1176.9337497959757
 21
664.46286737472724
  0
LINE
  8
_0-0_計極細
  6
CONTINUOUS
 62
    2
 10
1182.9337497959757
 20
659.46286737472724
 11
1176.9337497959757
 21
659.46286737472724
  0
LINE
  8
_0-0_計極細
  6
CONTINUOUS
 62
    2
 10
1168.9337497959759
 20
664.46286737472724
 11
1162.9337497959757
 21
664.46286737472724
  0
LINE
  8
_0-0_計極細
  6
CONTINUOUS
 62
    2
 10
1168.9337497959759
 20
659.46286737472724
 11
1162.9337497959757
 21
659.46286737472724
  0
LINE
  8
_0-0_計極細
  6
CONTINUOUS
 62
    2
 10
1154.9337497959757
 20
664.46286737472724
 11
1148.9337497959759
 21
664.46286737472724
  0
LINE
  8
_0-0_計極細
  6
CONTINUOUS
 62
    2
 10
1154.9337497959757
 20
659.46286737472724
 11
1148.9337497959759
 21
659.46286737472724
  0
LINE
  8
_0-0_計極細
  6
CONTINUOUS
 62
    2
 10
1140.9337497959757
 20
664.46286737472724
 11
1134.9337497959757
 21
664.46286737472724
  0
LINE
  8
_0-0_計極細
  6
CONTINUOUS
 62
    2
 10
1140.9337497959757
 20
659.46286737472724
 11
1134.9337497959757
 21
659.46286737472724
  0
LINE
  8
_0-0_計極細
  6
CONTINUOUS
 62
    2
 10
1126.9337497959757
 20
664.46286737472724
 11
1120.9337497959764
 21
664.46286737472724
  0
LINE
  8
_0-0_計極細
  6
CONTINUOUS
 62
    2
 10
1126.9337497959757
 20
659.46286737472724
 11
1120.9337497959764
 21
659.46286737472724
  0
LINE
  8
_0-0_計極細
  6
CONTINUOUS
 62
    2
 10
1112.9337497959762
 20
664.46286737472724
 11
1106.9337497959762
 21
664.46286737472724
  0
LINE
  8
_0-0_計極細
  6
CONTINUOUS
 62
    2
 10
1112.9337497959762
 20
659.46286737472724
 11
1106.9337497959762
 21
659.46286737472724
  0
LINE
  8
_0-0_計極細
  6
CONTINUOUS
 62
    2
 10
1098.9337497959762
 20
664.46286737472724
 11
1092.9337497959762
 21
664.46286737472724
  0
LINE
  8
_0-0_計極細
  6
CONTINUOUS
 62
    2
 10
1098.9337497959762
 20
659.46286737472724
 11
1092.9337497959762
 21
659.46286737472724
  0
LINE
  8
_0-0_計極細
  6
CONTINUOUS
 62
    2
 10
1084.9337497959762
 20
664.46286737472724
 11
1078.9337497959762
 21
664.46286737472724
  0
LINE
  8
_0-0_計極細
  6
CONTINUOUS
 62
    2
 10
1084.9337497959762
 20
659.46286737472724
 11
1078.9337497959762
 21
659.46286737472724
  0
LINE
  8
_0-0_計極細
  6
CONTINUOUS
 62
    2
 10
1070.9337497959764
 20
664.46286737472724
 11
1064.9337497959762
 21
664.46286737472724
  0
LINE
  8
_0-0_計極細
  6
CONTINUOUS
 62
    2
 10
1070.9337497959764
 20
659.46286737472724
 11
1064.9337497959762
 21
659.46286737472724
  0
LINE
  8
_0-0_計極細
  6
CONTINUOUS
 62
    2
 10
1056.9337497959762
 20
664.46286737472724
 11
1050.9337497959764
 21
664.46286737472724
  0
LINE
  8
_0-0_計極細
  6
CONTINUOUS
 62
    2
 10
1056.9337497959762
 20
659.46286737472724
 11
1050.9337497959764
 21
659.46286737472724
  0
LINE
  8
_0-0_計極細
  6
CONTINUOUS
 62
    2
 10
1042.9337497959762
 20
664.46286737472724
 11
1036.9337497959762
 21
664.46286737472724
  0
LINE
  8
_0-0_計極細
  6
CONTINUOUS
 62
    2
 10
1042.9337497959762
 20
659.46286737472724
 11
1036.9337497959762
 21
659.46286737472724
  0
LINE
  8
_0-0_計極細
  6
CONTINUOUS
 62
    2
 10
1028.9337497959762
 20
664.46286737472724
 11
1022.9337497959762
 21
664.46286737472724
  0
LINE
  8
_0-0_計極細
  6
CONTINUOUS
 62
    2
 10
1028.9337497959762
 20
659.46286737472724
 11
1022.9337497959762
 21
659.46286737472724
  0
LINE
  8
_0-0_計極細
  6
CONTINUOUS
 62
    2
 10
1014.9337497959762
 20
664.46286737472724
 11
1008.9337497959763
 21
664.46286737472724
  0
LINE
  8
_0-0_計極細
  6
CONTINUOUS
 62
    2
 10
1014.9337497959762
 20
659.46286737472724
 11
1008.9337497959763
 21
659.46286737472724
  0
LINE
  8
_0-0_計極細
  6
CONTINUOUS
 62
    2
 10
1000.9337497959763
 20
664.46286737472724
 11
994.93374979597615
 21
664.46286737472724
  0
LINE
  8
_0-0_計極細
  6
CONTINUOUS
 62
    2
 10
1000.9337497959763
 20
659.46286737472724
 11
994.93374979597615
 21
659.46286737472724
  0
LINE
  8
_0-0_計極細
  6
CONTINUOUS
 62
    2
 10
986.93374979597615
 20
664.46286737472724
 11
980.93374979597627
 21
664.46286737472724
  0
LINE
  8
_0-0_計極細
  6
CONTINUOUS
 62
    2
 10
986.93374979597615
 20
659.46286737472724
 11
980.93374979597627
 21
659.46286737472724
  0
LINE
  8
_0-0_計極細
  6
CONTINUOUS
 62
    2
 10
972.93374979597615
 20
664.46286737472724
 11
966.93374979597615
 21
664.46286737472724
  0
LINE
  8
_0-0_計極細
  6
CONTINUOUS
 62
    2
 10
972.93374979597615
 20
659.46286737472724
 11
966.93374979597615
 21
659.46286737472724
  0
LINE
  8
_0-0_計極細
  6
CONTINUOUS
 62
    2
 10
958.93374979597627
 20
664.46286737472724
 11
952.93374979597615
 21
664.46286737472724
  0
LINE
  8
_0-0_計極細
  6
CONTINUOUS
 62
    2
 10
958.93374979597627
 20
659.46286737472724
 11
952.93374979597615
 21
659.46286737472724
  0
LINE
  8
_0-0_計極細
  6
CONTINUOUS
 62
    2
 10
944.93374979597615
 20
664.46286737472724
 11
938.93374979597627
 21
664.46286737472724
  0
LINE
  8
_0-0_計極細
  6
CONTINUOUS
 62
    2
 10
944.93374979597615
 20
659.46286737472724
 11
938.93374979597627
 21
659.46286737472724
  0
LINE
  8
_0-0_計極細
  6
CONTINUOUS
 62
    2
 10
930.93374979597627
 20
664.46286737472724
 11
924.93374979597615
 21
664.46286737472724
  0
LINE
  8
_0-0_計極細
  6
CONTINUOUS
 62
    2
 10
930.93374979597627
 20
659.46286737472724
 11
924.93374979597615
 21
659.46286737472724
  0
LINE
  8
_0-0_計極細
  6
CONTINUOUS
 62
    2
 10
916.93374979597615
 20
664.46286737472724
 11
910.93374979597627
 21
664.46286737472724
  0
LINE
  8
_0-0_計極細
  6
CONTINUOUS
 62
    2
 10
916.93374979597615
 20
659.46286737472724
 11
910.93374979597627
 21
659.46286737472724
  0
LINE
  8
_0-0_計極細
  6
CONTINUOUS
 62
    2
 10
902.93374979597615
 20
664.46286737472724
 11
896.93374979597615
 21
664.46286737472724
  0
LINE
  8
_0-0_計極細
  6
CONTINUOUS
 62
    2
 10
902.93374979597615
 20
659.46286737472724
 11
896.93374979597615
 21
659.46286737472724
  0
LINE
  8
_0-0_計極細
  6
CONTINUOUS
 62
    2
 10
888.93374979597627
 20
664.46286737472724
 11
882.93374979597615
 21
664.46286737472724
  0
LINE
  8
_0-0_計極細
  6
CONTINUOUS
 62
    2
 10
888.93374979597627
 20
659.46286737472724
 11
882.93374979597615
 21
659.46286737472724
  0
LINE
  8
_0-0_計極細
  6
CONTINUOUS
 62
    2
 10
874.93374979597615
 20
664.46286737472724
 11
868.93374979597627
 21
664.46286737472724
  0
LINE
  8
_0-0_計極細
  6
CONTINUOUS
 62
    2
 10
874.93374979597615
 20
659.46286737472724
 11
868.93374979597627
 21
659.46286737472724
  0
LINE
  8
_0-0_計極細
  6
CONTINUOUS
 62
    2
 10
860.93374979597627
 20
664.46286737472724
 11
854.93374979597615
 21
664.46286737472724
  0
LINE
  8
_0-0_計極細
  6
CONTINUOUS
 62
    2
 10
860.93374979597627
 20
659.46286737472724
 11
854.93374979597615
 21
659.46286737472724
  0
LINE
  8
_0-0_計極細
  6
CONTINUOUS
 62
    2
 10
846.93374979597615
 20
664.46286737472724
 11
840.93374979597627
 21
664.46286737472724
  0
LINE
  8
_0-0_計極細
  6
CONTINUOUS
 62
    2
 10
846.93374979597615
 20
659.46286737472724
 11
840.93374979597627
 21
659.46286737472724
  0
LINE
  8
_0-0_計極細
  6
CONTINUOUS
 62
    2
 10
832.93374979597615
 20
664.46286737472724
 11
826.93374979597615
 21
664.46286737472724
  0
LINE
  8
_0-0_計極細
  6
CONTINUOUS
 62
    2
 10
832.93374979597615
 20
659.46286737472724
 11
826.93374979597615
 21
659.46286737472724
  0
LINE
  8
_0-0_計極細
  6
CONTINUOUS
 62
    2
 10
818.93374979597627
 20
664.46286737472724
 11
812.93374979597615
 21
664.46286737472724
  0
LINE
  8
_0-0_計極細
  6
CONTINUOUS
 62
    2
 10
818.93374979597627
 20
659.46286737472724
 11
812.93374979597615
 21
659.46286737472724
  0
LINE
  8
_0-0_計極細
  6
CONTINUOUS
 62
    2
 10
804.93374979597615
 20
664.46286737472724
 11
798.93374979597627
 21
664.46286737472724
  0
LINE
  8
_0-0_計極細
  6
CONTINUOUS
 62
    2
 10
804.93374979597615
 20
659.46286737472724
 11
798.93374979597627
 21
659.46286737472724
  0
LINE
  8
_0-0_計極細
  6
CONTINUOUS
 62
    2
 10
790.93374979597627
 20
664.46286737472724
 11
784.93374979597615
 21
664.46286737472724
  0
LINE
  8
_0-0_計極細
  6
CONTINUOUS
 62
    2
 10
790.93374979597627
 20
659.46286737472724
 11
784.93374979597615
 21
659.46286737472724
  0
LINE
  8
_0-0_計極細
  6
CONTINUOUS
 62
    2
 10
776.93374979597615
 20
664.46286737472724
 11
770.93374979597627
 21
664.46286737472724
  0
LINE
  8
_0-0_計極細
  6
CONTINUOUS
 62
    2
 10
776.93374979597615
 20
659.46286737472724
 11
770.93374979597627
 21
659.46286737472724
  0
LINE
  8
_0-0_計極細
  6
CONTINUOUS
 62
    2
 10
762.93374979597615
 20
664.46286737472724
 11
756.93374979597615
 21
664.46286737472724
  0
LINE
  8
_0-0_計極細
  6
CONTINUOUS
 62
    2
 10
762.93374979597615
 20
659.46286737472724
 11
756.93374979597615
 21
659.46286737472724
  0
LINE
  8
_0-0_計極細
  6
CONTINUOUS
 62
    2
 10
748.93374979597627
 20
664.46286737472724
 11
742.93374979597615
 21
664.46286737472724
  0
LINE
  8
_0-0_計極細
  6
CONTINUOUS
 62
    2
 10
748.93374979597627
 20
659.46286737472724
 11
742.93374979597615
 21
659.46286737472724
  0
LINE
  8
_0-0_計極細
  6
CONTINUOUS
 62
    2
 10
734.93374979597615
 20
664.46286737472724
 11
728.93374979597627
 21
664.46286737472724
  0
LINE
  8
_0-0_計極細
  6
CONTINUOUS
 62
    2
 10
734.93374979597615
 20
659.46286737472724
 11
728.93374979597627
 21
659.46286737472724
  0
LINE
  8
_0-0_計極細
  6
CONTINUOUS
 62
    2
 10
720.93374979597615
 20
664.46286737472724
 11
714.93374979597615
 21
664.46286737472724
  0
LINE
  8
_0-0_計極細
  6
CONTINUOUS
 62
    2
 10
720.93374979597615
 20
659.46286737472724
 11
714.93374979597615
 21
659.46286737472724
  0
LINE
  8
_0-0_計極細
  6
CONTINUOUS
 62
    2
 10
706.93374979597615
 20
664.46286737472724
 11
700.93374979597615
 21
664.46286737472724
  0
LINE
  8
_0-0_計極細
  6
CONTINUOUS
 62
    2
 10
706.93374979597615
 20
659.46286737472724
 11
700.93374979597615
 21
659.46286737472724
  0
LINE
  8
_0-0_計極細
  6
CONTINUOUS
 62
    2
 10
692.93374979597615
 20
664.46286737472724
 11
686.93374979597615
 21
664.46286737472724
  0
LINE
  8
_0-0_計極細
  6
CONTINUOUS
 62
    2
 10
692.93374979597615
 20
659.46286737472724
 11
686.93374979597615
 21
659.46286737472724
  0
LINE
  8
_0-0_計極細
  6
CONTINUOUS
 62
    2
 10
678.93374979597627
 20
664.46286737472724
 11
672.93374979597615
 21
664.46286737472724
  0
LINE
  8
_0-0_計極細
  6
CONTINUOUS
 62
    2
 10
678.93374979597627
 20
659.46286737472724
 11
672.93374979597615
 21
659.46286737472724
  0
LINE
  8
_0-0_計極細
  6
CONTINUOUS
 62
    2
 10
664.93374979597615
 20
664.46286737472724
 11
658.93374979597627
 21
664.46286737472724
  0
LINE
  8
_0-0_計極細
  6
CONTINUOUS
 62
    2
 10
664.93374979597615
 20
659.46286737472724
 11
658.93374979597627
 21
659.46286737472724
  0
LINE
  8
_0-0_計極細
  6
CONTINUOUS
 62
    2
 10
650.93374979597615
 20
664.46286737472724
 11
644.93374979597615
 21
664.46286737472724
  0
LINE
  8
_0-0_計極細
  6
CONTINUOUS
 62
    2
 10
650.93374979597615
 20
659.46286737472724
 11
644.93374979597615
 21
659.46286737472724
  0
LINE
  8
_0-0_計極細
  6
CONTINUOUS
 62
    2
 10
636.93374979597615
 20
664.46286737472724
 11
630.93374979597615
 21
664.46286737472724
  0
LINE
  8
_0-0_計極細
  6
CONTINUOUS
 62
    2
 10
636.93374979597615
 20
659.46286737472724
 11
630.93374979597615
 21
659.46286737472724
  0
LINE
  8
_0-0_計極細
  6
CONTINUOUS
 62
    2
 10
622.93374979597615
 20
664.46286737472724
 11
616.93374979597615
 21
664.46286737472724
  0
LINE
  8
_0-0_計極細
  6
CONTINUOUS
 62
    2
 10
622.93374979597615
 20
659.46286737472724
 11
616.93374979597615
 21
659.46286737472724
  0
LINE
  8
_0-0_計極細
  6
CONTINUOUS
 62
    2
 10
608.93374979597615
 20
664.46286737472724
 11
602.93374979597615
 21
664.46286737472724
  0
LINE
  8
_0-0_計極細
  6
CONTINUOUS
 62
    2
 10
608.93374979597615
 20
659.46286737472724
 11
602.93374979597615
 21
659.46286737472724
  0
LINE
  8
_0-0_計極細
  6
CONTINUOUS
 62
    2
 10
594.93374979597615
 20
664.46286737472724
 11
588.93374979597615
 21
664.46286737472724
  0
LINE
  8
_0-0_計極細
  6
CONTINUOUS
 62
    2
 10
594.93374979597615
 20
659.46286737472724
 11
588.93374979597615
 21
659.46286737472724
  0
LINE
  8
_0-0_計極細
  6
CONTINUOUS
 62
    2
 10
580.93374979597615
 20
664.46286737472724
 11
574.93374979597615
 21
664.46286737472724
  0
LINE
  8
_0-0_計極細
  6
CONTINUOUS
 62
    2
 10
580.93374979597615
 20
659.46286737472724
 11
574.93374979597615
 21
659.46286737472724
  0
LINE
  8
_0-0_計極細
  6
CONTINUOUS
 62
    2
 10
566.93374979597615
 20
664.46286737472724
 11
560.93374979597615
 21
664.46286737472724
  0
LINE
  8
_0-0_計極細
  6
CONTINUOUS
 62
    2
 10
566.93374979597615
 20
659.46286737472724
 11
560.93374979597615
 21
659.46286737472724
  0
LINE
  8
_0-0_計極細
  6
CONTINUOUS
 62
    2
 10
552.93374979597615
 20
664.46286737472724
 11
546.93374979597615
 21
664.46286737472724
  0
LINE
  8
_0-0_計極細
  6
CONTINUOUS
 62
    2
 10
552.93374979597615
 20
659.46286737472724
 11
546.93374979597615
 21
659.46286737472724
  0
LINE
  8
_0-0_計極細
  6
CONTINUOUS
 62
    2
 10
538.93374979597615
 20
664.46286737472724
 11
532.93374979597615
 21
664.46286737472724
  0
LINE
  8
_0-0_計極細
  6
CONTINUOUS
 62
    2
 10
538.93374979597615
 20
659.46286737472724
 11
532.93374979597615
 21
659.46286737472724
  0
LINE
  8
_0-0_計極細
  6
CONTINUOUS
 62
    2
 10
524.93374979597615
 20
664.46286737472724
 11
518.93374979597615
 21
664.46286737472724
  0
LINE
  8
_0-0_計極細
  6
CONTINUOUS
 62
    2
 10
524.93374979597615
 20
659.46286737472724
 11
518.93374979597615
 21
659.46286737472724
  0
LINE
  8
_0-0_計極細
  6
CONTINUOUS
 62
    2
 10
510.93374979597621
 20
664.46286737472724
 11
504.93374979597615
 21
664.46286737472724
  0
LINE
  8
_0-0_計極細
  6
CONTINUOUS
 62
    2
 10
510.93374979597621
 20
659.46286737472724
 11
504.93374979597615
 21
659.46286737472724
  0
LINE
  8
_0-0_計極細
  6
CONTINUOUS
 62
    2
 10
496.93374979597621
 20
664.46286737472724
 11
490.93374979597621
 21
664.46286737472724
  0
LINE
  8
_0-0_計極細
  6
CONTINUOUS
 62
    2
 10
496.93374979597621
 20
659.46286737472724
 11
490.93374979597621
 21
659.46286737472724
  0
LINE
  8
_0-0_計極細
  6
CONTINUOUS
 62
    2
 10
482.93374979597615
 20
664.46286737472724
 11
476.93374979597621
 21
664.46286737472724
  0
LINE
  8
_0-0_計極細
  6
CONTINUOUS
 62
    2
 10
482.93374979597615
 20
659.46286737472724
 11
476.93374979597621
 21
659.46286737472724
  0
LINE
  8
_0-0_計極細
  6
CONTINUOUS
 62
    2
 10
468.93374979597615
 20
664.46286737472724
 11
462.93374979597615
 21
664.46286737472724
  0
LINE
  8
_0-0_計極細
  6
CONTINUOUS
 62
    2
 10
468.93374979597615
 20
659.46286737472724
 11
462.93374979597615
 21
659.46286737472724
  0
LINE
  8
_0-0_計極細
  6
CONTINUOUS
 62
    2
 10
454.93374979597615
 20
664.46286737472724
 11
448.93374979597615
 21
664.46286737472724
  0
LINE
  8
_0-0_計極細
  6
CONTINUOUS
 62
    2
 10
454.93374979597615
 20
659.46286737472724
 11
448.93374979597615
 21
659.46286737472724
  0
LINE
  8
_0-0_計極細
  6
CONTINUOUS
 62
    2
 10
440.93374979597621
 20
664.46286737472724
 11
434.93374979597615
 21
664.46286737472724
  0
LINE
  8
_0-0_計極細
  6
CONTINUOUS
 62
    2
 10
440.93374979597621
 20
659.46286737472724
 11
434.93374979597615
 21
659.46286737472724
  0
LINE
  8
_0-0_計極細
  6
CONTINUOUS
 62
    2
 10
426.93374979597621
 20
664.46286737472724
 11
420.93374979597621
 21
664.46286737472724
  0
LINE
  8
_0-0_計極細
  6
CONTINUOUS
 62
    2
 10
426.93374979597621
 20
659.46286737472724
 11
420.93374979597621
 21
659.46286737472724
  0
LINE
  8
_0-0_計極細
  6
CONTINUOUS
 62
    2
 10
412.93374979597615
 20
664.46286737472724
 11
406.93374979597621
 21
664.46286737472724
  0
LINE
  8
_0-0_計極細
  6
CONTINUOUS
 62
    2
 10
412.93374979597615
 20
659.46286737472724
 11
406.93374979597621
 21
659.46286737472724
  0
LINE
  8
_0-0_計極細
  6
CONTINUOUS
 62
    2
 10
398.93374979597615
 20
664.46286737472724
 11
392.93374979597615
 21
664.46286737472724
  0
LINE
  8
_0-0_計極細
  6
CONTINUOUS
 62
    2
 10
398.93374979597615
 20
659.46286737472724
 11
392.93374979597615
 21
659.46286737472724
  0
LINE
  8
_0-0_計極細
  6
CONTINUOUS
 62
    2
 10
384.93374979597615
 20
664.46286737472724
 11
378.93374979597615
 21
664.46286737472724
  0
LINE
  8
_0-0_計極細
  6
CONTINUOUS
 62
    2
 10
384.93374979597615
 20
659.46286737472724
 11
378.93374979597615
 21
659.46286737472724
  0
LINE
  8
_0-0_計極細
  6
CONTINUOUS
 62
    2
 10
370.93374979597621
 20
664.46286737472724
 11
364.93374979597615
 21
664.46286737472724
  0
LINE
  8
_0-0_計極細
  6
CONTINUOUS
 62
    2
 10
370.93374979597621
 20
659.46286737472724
 11
364.93374979597615
 21
659.46286737472724
  0
LINE
  8
_0-0_計極細
  6
CONTINUOUS
 62
    2
 10
356.93374979597615
 20
664.46286737472724
 11
350.93374979597621
 21
664.46286737472724
  0
LINE
  8
_0-0_計極細
  6
CONTINUOUS
 62
    2
 10
356.93374979597615
 20
659.46286737472724
 11
350.93374979597621
 21
659.46286737472724
  0
LINE
  8
_0-0_計極細
  6
CONTINUOUS
 62
    2
 10
342.93374979597615
 20
664.46286737472724
 11
336.93374979597615
 21
664.46286737472724
  0
LINE
  8
_0-0_計極細
  6
CONTINUOUS
 62
    2
 10
342.93374979597615
 20
659.46286737472724
 11
336.93374979597615
 21
659.46286737472724
  0
LINE
  8
_0-0_計極細
  6
CONTINUOUS
 62
    2
 10
328.93374979597615
 20
664.46286737472724
 11
322.93374979597615
 21
664.46286737472724
  0
LINE
  8
_0-0_計極細
  6
CONTINUOUS
 62
    2
 10
328.93374979597615
 20
659.46286737472724
 11
322.93374979597615
 21
659.46286737472724
  0
LINE
  8
_0-0_計極細
  6
CONTINUOUS
 62
    2
 10
314.93374979597615
 20
664.46286737472724
 11
308.93374979597615
 21
664.46286737472724
  0
LINE
  8
_0-0_計極細
  6
CONTINUOUS
 62
    2
 10
314.93374979597615
 20
659.46286737472724
 11
308.93374979597615
 21
659.46286737472724
  0
LINE
  8
_0-0_計極細
  6
CONTINUOUS
 62
    2
 10
300.93374979597615
 20
664.46286737472724
 11
294.93374979597615
 21
664.46286737472724
  0
LINE
  8
_0-0_計極細
  6
CONTINUOUS
 62
    2
 10
300.93374979597615
 20
659.46286737472724
 11
294.93374979597615
 21
659.46286737472724
  0
LINE
  8
_0-0_計極細
  6
CONTINUOUS
 62
    2
 10
286.93374979597621
 20
664.46286737472724
 11
280.93374979597615
 21
664.46286737472724
  0
LINE
  8
_0-0_計極細
  6
CONTINUOUS
 62
    2
 10
286.93374979597621
 20
659.46286737472724
 11
280.93374979597615
 21
659.46286737472724
  0
LINE
  8
_0-0_計極細
  6
CONTINUOUS
 62
    2
 10
272.93374979597615
 20
664.46286737472724
 11
266.93374979597621
 21
664.46286737472724
  0
LINE
  8
_0-0_計極細
  6
CONTINUOUS
 62
    2
 10
272.93374979597615
 20
659.46286737472724
 11
266.93374979597621
 21
659.46286737472724
  0
LINE
  8
_0-0_計極細
  6
CONTINUOUS
 62
    2
 10
258.93374979597615
 20
664.46286737472724
 11
252.93374979597615
 21
664.46286737472724
  0
LINE
  8
_0-0_計極細
  6
CONTINUOUS
 62
    2
 10
258.93374979597615
 20
659.46286737472724
 11
252.93374979597615
 21
659.46286737472724
  0
LINE
  8
_0-0_計極細
  6
CONTINUOUS
 62
    2
 10
244.93374979597618
 20
664.46286737472724
 11
238.93374979597615
 21
664.46286737472724
  0
LINE
  8
_0-0_計極細
  6
CONTINUOUS
 62
    2
 10
244.93374979597618
 20
659.46286737472724
 11
238.93374979597615
 21
659.46286737472724
  0
LINE
  8
_0-1_計細線
  6
CONTINUOUS
 62
    3
 10
230.93374979597613
 20
811.96286737472633
 11
200.93374979597613
 21
811.96286737472633
  0
LINE
  8
_0-1_計細線
  6
CONTINUOUS
 62
    3
 10
1248.9337497959759
 20
811.96286737472531
 11
1218.9337497959759
 21
811.96286737472531
  0
LINE
  8
_0-1_計細線
  6
CONTINUOUS
 62
    3
 10
199.54663267221832
 20
838.96286737472849
 11
1247.5466326722174
 21
838.96286737472769
  0
LINE
  8
_0-1_計細線
  6
CONTINUOUS
 62
    3
 10
200.93374979597613
 20
841.9628673747286
 11
1248.9337497959759
 21
841.96286737472758
  0
ARC
  8
_0-1_計細線
  6
CONTINUOUS
 62
    3
 10
188.65075454584712
 20
819.46286737472678
 40
14.391732776656191
 50
328.59175045525751
 51
31.408249544743832
  0
ARC
  8
_0-1_計細線
  6
CONTINUOUS
 62
    3
 10
213.21674504610343
 20
834.46286737472724
 40
14.391732776655743
 50
148.59175045525689
 51
211.40824954473919
  0
ARC
  8
_0-1_計細線
  6
CONTINUOUS
 62
    3
 10
1236.6507545458473
 20
819.46286737472678
 40
14.391732776656227
 50
328.59175045525899
 51
31.408249544743374
  0
ARC
  8
_0-1_計細線
  6
CONTINUOUS
 62
    3
 10
1261.2167450461036
 20
834.46286737472758
 40
14.391732776655658
 50
148.59175045525842
 51
211.40824954474121
  0
LINE
  8
_0-1_計細線
  6
CONTINUOUS
 62
    3
 10
230.93374979597613
 20
833.96286737472769
 11
238.93374979597615
 21
833.96286737472769
  0
LINE
  8
_0-1_計細線
  6
CONTINUOUS
 62
    3
 10
244.93374979597618
 20
833.96286737472769
 11
252.93374979597615
 21
833.96286737472769
  0
LINE
  8
_0-1_計細線
  6
CONTINUOUS
 62
    3
 10
258.93374979597615
 20
833.96286737472769
 11
266.93374979597621
 21
833.96286737472769
  0
LINE
  8
_0-1_計細線
  6
CONTINUOUS
 62
    3
 10
272.93374979597615
 20
833.96286737472769
 11
280.93374979597615
 21
833.96286737472769
  0
LINE
  8
_0-1_計細線
  6
CONTINUOUS
 62
    3
 10
286.93374979597621
 20
833.96286737472769
 11
294.93374979597615
 21
833.96286737472769
  0
LINE
  8
_0-1_計細線
  6
CONTINUOUS
 62
    3
 10
300.93374979597615
 20
833.96286737472769
 11
308.93374979597615
 21
833.96286737472769
  0
LINE
  8
_0-1_計細線
  6
CONTINUOUS
 62
    3
 10
314.93374979597615
 20
833.96286737472769
 11
322.93374979597615
 21
833.96286737472769
  0
LINE
  8
_0-1_計細線
  6
CONTINUOUS
 62
    3
 10
328.93374979597615
 20
833.96286737472769
 11
336.93374979597615
 21
833.96286737472769
  0
LINE
  8
_0-1_計細線
  6
CONTINUOUS
 62
    3
 10
342.93374979597615
 20
833.96286737472769
 11
350.93374979597621
 21
833.96286737472769
  0
LINE
  8
_0-1_計細線
  6
CONTINUOUS
 62
    3
 10
356.93374979597615
 20
833.96286737472769
 11
364.93374979597615
 21
833.96286737472769
  0
LINE
  8
_0-1_計細線
  6
CONTINUOUS
 62
    3
 10
370.93374979597621
 20
833.96286737472769
 11
378.93374979597615
 21
833.96286737472769
  0
LINE
  8
_0-1_計細線
  6
CONTINUOUS
 62
    3
 10
384.93374979597615
 20
833.96286737472769
 11
392.93374979597615
 21
833.96286737472769
  0
LINE
  8
_0-1_計細線
  6
CONTINUOUS
 62
    3
 10
398.93374979597615
 20
833.96286737472769
 11
406.93374979597621
 21
833.96286737472769
  0
LINE
  8
_0-1_計細線
  6
CONTINUOUS
 62
    3
 10
412.93374979597615
 20
833.96286737472769
 11
420.93374979597621
 21
833.96286737472769
  0
LINE
  8
_0-1_計細線
  6
CONTINUOUS
 62
    3
 10
426.93374979597621
 20
833.96286737472769
 11
434.93374979597615
 21
833.96286737472769
  0
LINE
  8
_0-1_計細線
  6
CONTINUOUS
 62
    3
 10
440.93374979597621
 20
833.96286737472769
 11
448.93374979597615
 21
833.96286737472769
  0
LINE
  8
_0-1_計細線
  6
CONTINUOUS
 62
    3
 10
454.93374979597615
 20
833.96286737472769
 11
462.93374979597615
 21
833.96286737472769
  0
LINE
  8
_0-1_計細線
  6
CONTINUOUS
 62
    3
 10
468.93374979597615
 20
833.96286737472769
 11
476.93374979597621
 21
833.96286737472769
  0
LINE
  8
_0-1_計細線
  6
CONTINUOUS
 62
    3
 10
482.93374979597615
 20
833.96286737472769
 11
490.93374979597621
 21
833.96286737472769
  0
LINE
  8
_0-1_計細線
  6
CONTINUOUS
 62
    3
 10
496.93374979597621
 20
833.96286737472769
 11
504.93374979597615
 21
833.96286737472769
  0
LINE
  8
_0-1_計細線
  6
CONTINUOUS
 62
    3
 10
510.93374979597621
 20
833.96286737472769
 11
518.93374979597615
 21
833.96286737472769
  0
LINE
  8
_0-1_計細線
  6
CONTINUOUS
 62
    3
 10
524.93374979597615
 20
833.96286737472769
 11
532.93374979597615
 21
833.96286737472769
  0
LINE
  8
_0-1_計細線
  6
CONTINUOUS
 62
    3
 10
538.93374979597615
 20
833.96286737472769
 11
546.93374979597615
 21
833.96286737472769
  0
LINE
  8
_0-1_計細線
  6
CONTINUOUS
 62
    3
 10
552.93374979597615
 20
833.96286737472769
 11
560.93374979597615
 21
833.96286737472769
  0
LINE
  8
_0-1_計細線
  6
CONTINUOUS
 62
    3
 10
566.93374979597615
 20
833.96286737472769
 11
574.93374979597615
 21
833.96286737472769
  0
LINE
  8
_0-1_計細線
  6
CONTINUOUS
 62
    3
 10
580.93374979597615
 20
833.96286737472769
 11
588.93374979597615
 21
833.96286737472769
  0
LINE
  8
_0-1_計細線
  6
CONTINUOUS
 62
    3
 10
594.93374979597615
 20
833.96286737472769
 11
602.93374979597615
 21
833.96286737472769
  0
LINE
  8
_0-1_計細線
  6
CONTINUOUS
 62
    3
 10
608.93374979597615
 20
833.96286737472769
 11
616.93374979597615
 21
833.96286737472769
  0
LINE
  8
_0-1_計細線
  6
CONTINUOUS
 62
    3
 10
622.93374979597615
 20
833.96286737472769
 11
630.93374979597615
 21
833.96286737472769
  0
LINE
  8
_0-1_計細線
  6
CONTINUOUS
 62
    3
 10
636.93374979597615
 20
833.96286737472769
 11
644.93374979597615
 21
833.96286737472769
  0
LINE
  8
_0-1_計細線
  6
CONTINUOUS
 62
    3
 10
650.93374979597615
 20
833.96286737472769
 11
658.93374979597627
 21
833.96286737472769
  0
LINE
  8
_0-1_計細線
  6
CONTINUOUS
 62
    3
 10
664.93374979597615
 20
833.96286737472769
 11
672.93374979597615
 21
833.96286737472769
  0
LINE
  8
_0-1_計細線
  6
CONTINUOUS
 62
    3
 10
678.93374979597627
 20
833.96286737472769
 11
686.93374979597615
 21
833.96286737472769
  0
LINE
  8
_0-1_計細線
  6
CONTINUOUS
 62
    3
 10
692.93374979597615
 20
833.96286737472769
 11
700.93374979597615
 21
833.96286737472769
  0
LINE
  8
_0-1_計細線
  6
CONTINUOUS
 62
    3
 10
706.93374979597615
 20
833.96286737472769
 11
714.93374979597615
 21
833.96286737472769
  0
LINE
  8
_0-1_計細線
  6
CONTINUOUS
 62
    3
 10
720.93374979597615
 20
833.96286737472769
 11
728.93374979597627
 21
833.96286737472769
  0
LINE
  8
_0-1_計細線
  6
CONTINUOUS
 62
    3
 10
734.93374979597615
 20
833.96286737472769
 11
742.93374979597615
 21
833.96286737472769
  0
LINE
  8
_0-1_計細線
  6
CONTINUOUS
 62
    3
 10
748.93374979597627
 20
833.96286737472769
 11
756.93374979597615
 21
833.96286737472769
  0
LINE
  8
_0-1_計細線
  6
CONTINUOUS
 62
    3
 10
762.93374979597615
 20
833.96286737472769
 11
770.93374979597627
 21
833.96286737472769
  0
LINE
  8
_0-1_計細線
  6
CONTINUOUS
 62
    3
 10
776.93374979597615
 20
833.96286737472769
 11
784.93374979597615
 21
833.96286737472769
  0
LINE
  8
_0-1_計細線
  6
CONTINUOUS
 62
    3
 10
790.93374979597627
 20
833.96286737472769
 11
798.93374979597627
 21
833.96286737472769
  0
LINE
  8
_0-1_計細線
  6
CONTINUOUS
 62
    3
 10
804.93374979597615
 20
833.96286737472769
 11
812.93374979597615
 21
833.96286737472769
  0
LINE
  8
_0-1_計細線
  6
CONTINUOUS
 62
    3
 10
818.93374979597627
 20
833.96286737472769
 11
826.93374979597615
 21
833.96286737472769
  0
LINE
  8
_0-1_計細線
  6
CONTINUOUS
 62
    3
 10
832.93374979597615
 20
833.96286737472769
 11
840.93374979597627
 21
833.96286737472769
  0
LINE
  8
_0-1_計細線
  6
CONTINUOUS
 62
    3
 10
846.93374979597615
 20
833.96286737472769
 11
854.93374979597615
 21
833.96286737472769
  0
LINE
  8
_0-1_計細線
  6
CONTINUOUS
 62
    3
 10
860.93374979597627
 20
833.96286737472769
 11
868.93374979597627
 21
833.96286737472769
  0
LINE
  8
_0-1_計細線
  6
CONTINUOUS
 62
    3
 10
874.93374979597615
 20
833.96286737472769
 11
882.93374979597615
 21
833.96286737472769
  0
LINE
  8
_0-1_計細線
  6
CONTINUOUS
 62
    3
 10
888.93374979597627
 20
833.96286737472769
 11
896.93374979597615
 21
833.96286737472769
  0
LINE
  8
_0-1_計細線
  6
CONTINUOUS
 62
    3
 10
902.93374979597615
 20
833.96286737472769
 11
910.93374979597627
 21
833.96286737472769
  0
LINE
  8
_0-1_計細線
  6
CONTINUOUS
 62
    3
 10
916.93374979597615
 20
833.96286737472769
 11
924.93374979597615
 21
833.96286737472769
  0
LINE
  8
_0-1_計細線
  6
CONTINUOUS
 62
    3
 10
930.93374979597627
 20
833.96286737472769
 11
938.93374979597627
 21
833.96286737472769
  0
LINE
  8
_0-1_計細線
  6
CONTINUOUS
 62
    3
 10
944.93374979597615
 20
833.96286737472769
 11
952.93374979597615
 21
833.96286737472769
  0
LINE
  8
_0-1_計細線
  6
CONTINUOUS
 62
    3
 10
958.93374979597627
 20
833.96286737472769
 11
966.93374979597615
 21
833.96286737472769
  0
LINE
  8
_0-1_計細線
  6
CONTINUOUS
 62
    3
 10
972.93374979597615
 20
833.96286737472769
 11
980.93374979597627
 21
833.96286737472769
  0
LINE
  8
_0-1_計細線
  6
CONTINUOUS
 62
    3
 10
986.93374979597615
 20
833.96286737472769
 11
994.93374979597615
 21
833.96286737472769
  0
LINE
  8
_0-1_計細線
  6
CONTINUOUS
 62
    3
 10
1000.9337497959763
 20
833.96286737472769
 11
1008.9337497959763
 21
833.96286737472769
  0
LINE
  8
_0-1_計細線
  6
CONTINUOUS
 62
    3
 10
1014.9337497959762
 20
833.96286737472769
 11
1022.9337497959762
 21
833.96286737472769
  0
LINE
  8
_0-1_計細線
  6
CONTINUOUS
 62
    3
 10
1028.9337497959762
 20
833.96286737472769
 11
1036.9337497959762
 21
833.96286737472769
  0
LINE
  8
_0-1_計細線
  6
CONTINUOUS
 62
    3
 10
1042.9337497959762
 20
833.96286737472769
 11
1050.9337497959764
 21
833.96286737472769
  0
LINE
  8
_0-1_計細線
  6
CONTINUOUS
 62
    3
 10
1056.9337497959762
 20
833.96286737472769
 11
1064.9337497959762
 21
833.96286737472769
  0
LINE
  8
_0-1_計細線
  6
CONTINUOUS
 62
    3
 10
1070.9337497959764
 20
833.96286737472769
 11
1078.9337497959762
 21
833.96286737472769
  0
LINE
  8
_0-1_計細線
  6
CONTINUOUS
 62
    3
 10
1084.9337497959762
 20
833.96286737472769
 11
1092.9337497959762
 21
833.96286737472769
  0
LINE
  8
_0-1_計細線
  6
CONTINUOUS
 62
    3
 10
1098.9337497959762
 20
833.96286737472769
 11
1106.9337497959762
 21
833.96286737472769
  0
LINE
  8
_0-1_計細線
  6
CONTINUOUS
 62
    3
 10
1112.9337497959762
 20
833.96286737472769
 11
1120.9337497959764
 21
833.96286737472769
  0
LINE
  8
_0-1_計細線
  6
CONTINUOUS
 62
    3
 10
1126.9337497959757
 20
833.96286737472769
 11
1134.9337497959757
 21
833.96286737472769
  0
LINE
  8
_0-1_計細線
  6
CONTINUOUS
 62
    3
 10
1140.9337497959757
 20
833.96286737472769
 11
1148.9337497959759
 21
833.96286737472769
  0
LINE
  8
_0-1_計細線
  6
CONTINUOUS
 62
    3
 10
1154.9337497959757
 20
833.96286737472769
 11
1162.9337497959757
 21
833.96286737472769
  0
LINE
  8
_0-1_計細線
  6
CONTINUOUS
 62
    3
 10
1168.9337497959759
 20
833.96286737472769
 11
1176.9337497959757
 21
833.96286737472769
  0
LINE
  8
_0-1_計細線
  6
CONTINUOUS
 62
    3
 10
1182.9337497959757
 20
833.96286737472769
 11
1190.9337497959757
 21
833.96286737472769
  0
LINE
  8
_0-1_計細線
  6
CONTINUOUS
 62
    3
 10
1196.9337497959757
 20
833.96286737472769
 11
1204.9337497959757
 21
833.96286737472769
  0
LINE
  8
_0-1_計細線
  6
CONTINUOUS
 62
    3
 10
1210.9337497959757
 20
833.96286737472769
 11
1218.9337497959759
 21
833.96286737472769
  0
LINE
  8
_0-1_計細線
  6
CONTINUOUS
 62
    3
 10
1218.9337497959759
 20
833.96286737472769
 11
1218.9337497959759
 21
836.96286737472758
  0
LINE
  8
_0-1_計細線
  6
CONTINUOUS
 62
    3
 10
230.93374979597613
 20
833.96286737472769
 11
1218.9337497959759
 21
833.96286737472769
  0
LINE
  8
_0-1_計細線
  6
CONTINUOUS
 62
    3
 10
230.93374979597613
 20
836.96286737472758
 11
230.93374979597613
 21
833.96286737472769
  0
LINE
  8
_0-1_計細線
  6
CONTINUOUS
 62
    3
 10
1218.9337497959759
 20
836.96286737472758
 11
230.93374979597613
 21
836.96286737472758
  0
LINE
  8
_0-0_計極細
  6
CONTINUOUS
 62
    2
 10
1210.9337497959757
 20
814.46286737472758
 11
1204.9337497959757
 21
814.46286737472758
  0
LINE
  8
_0-0_計極細
  6
CONTINUOUS
 62
    2
 10
1210.9337497959757
 20
809.46286737472633
 11
1204.9337497959757
 21
809.46286737472633
  0
LINE
  8
_0-0_計極細
  6
CONTINUOUS
 62
    2
 10
1196.9337497959757
 20
814.46286737472758
 11
1190.9337497959757
 21
814.46286737472758
  0
LINE
  8
_0-0_計極細
  6
CONTINUOUS
 62
    2
 10
1196.9337497959757
 20
809.46286737472633
 11
1190.9337497959757
 21
809.46286737472633
  0
LINE
  8
_0-0_計極細
  6
CONTINUOUS
 62
    2
 10
1182.9337497959757
 20
814.46286737472758
 11
1176.9337497959757
 21
814.46286737472758
  0
LINE
  8
_0-0_計極細
  6
CONTINUOUS
 62
    2
 10
1182.9337497959757
 20
809.46286737472633
 11
1176.9337497959757
 21
809.46286737472633
  0
LINE
  8
_0-0_計極細
  6
CONTINUOUS
 62
    2
 10
1168.9337497959759
 20
814.46286737472758
 11
1162.9337497959757
 21
814.46286737472758
  0
LINE
  8
_0-0_計極細
  6
CONTINUOUS
 62
    2
 10
1168.9337497959759
 20
809.46286737472633
 11
1162.9337497959757
 21
809.46286737472633
  0
LINE
  8
_0-0_計極細
  6
CONTINUOUS
 62
    2
 10
1154.9337497959757
 20
814.46286737472758
 11
1148.9337497959759
 21
814.46286737472758
  0
LINE
  8
_0-0_計極細
  6
CONTINUOUS
 62
    2
 10
1154.9337497959757
 20
809.46286737472633
 11
1148.9337497959759
 21
809.46286737472633
  0
LINE
  8
_0-0_計極細
  6
CONTINUOUS
 62
    2
 10
1140.9337497959757
 20
814.46286737472758
 11
1134.9337497959757
 21
814.46286737472758
  0
LINE
  8
_0-0_計極細
  6
CONTINUOUS
 62
    2
 10
1140.9337497959757
 20
809.46286737472633
 11
1134.9337497959757
 21
809.46286737472633
  0
LINE
  8
_0-0_計極細
  6
CONTINUOUS
 62
    2
 10
1126.9337497959757
 20
814.46286737472758
 11
1120.9337497959764
 21
814.46286737472758
  0
LINE
  8
_0-0_計極細
  6
CONTINUOUS
 62
    2
 10
1126.9337497959757
 20
809.46286737472633
 11
1120.9337497959764
 21
809.46286737472633
  0
LINE
  8
_0-0_計極細
  6
CONTINUOUS
 62
    2
 10
1112.9337497959762
 20
814.46286737472758
 11
1106.9337497959762
 21
814.46286737472758
  0
LINE
  8
_0-0_計極細
  6
CONTINUOUS
 62
    2
 10
1112.9337497959762
 20
809.46286737472633
 11
1106.9337497959762
 21
809.46286737472633
  0
LINE
  8
_0-0_計極細
  6
CONTINUOUS
 62
    2
 10
1098.9337497959762
 20
814.46286737472758
 11
1092.9337497959762
 21
814.46286737472758
  0
LINE
  8
_0-0_計極細
  6
CONTINUOUS
 62
    2
 10
1098.9337497959762
 20
809.46286737472633
 11
1092.9337497959762
 21
809.46286737472633
  0
LINE
  8
_0-0_計極細
  6
CONTINUOUS
 62
    2
 10
1084.9337497959762
 20
814.46286737472758
 11
1078.9337497959762
 21
814.46286737472758
  0
LINE
  8
_0-0_計極細
  6
CONTINUOUS
 62
    2
 10
1084.9337497959762
 20
809.46286737472633
 11
1078.9337497959762
 21
809.46286737472633
  0
LINE
  8
_0-0_計極細
  6
CONTINUOUS
 62
    2
 10
1070.9337497959764
 20
814.46286737472758
 11
1064.9337497959762
 21
814.46286737472758
  0
LINE
  8
_0-0_計極細
  6
CONTINUOUS
 62
    2
 10
1070.9337497959764
 20
809.46286737472633
 11
1064.9337497959762
 21
809.46286737472633
  0
LINE
  8
_0-0_計極細
  6
CONTINUOUS
 62
    2
 10
1056.9337497959762
 20
814.46286737472758
 11
1050.9337497959764
 21
814.46286737472758
  0
LINE
  8
_0-0_計極細
  6
CONTINUOUS
 62
    2
 10
1056.9337497959762
 20
809.46286737472633
 11
1050.9337497959764
 21
809.46286737472633
  0
LINE
  8
_0-0_計極細
  6
CONTINUOUS
 62
    2
 10
1042.9337497959762
 20
814.46286737472758
 11
1036.9337497959762
 21
814.46286737472758
  0
LINE
  8
_0-0_計極細
  6
CONTINUOUS
 62
    2
 10
1042.9337497959762
 20
809.46286737472633
 11
1036.9337497959762
 21
809.46286737472633
  0
LINE
  8
_0-0_計極細
  6
CONTINUOUS
 62
    2
 10
1028.9337497959762
 20
814.46286737472758
 11
1022.9337497959762
 21
814.46286737472758
  0
LINE
  8
_0-0_計極細
  6
CONTINUOUS
 62
    2
 10
1028.9337497959762
 20
809.46286737472633
 11
1022.9337497959762
 21
809.46286737472633
  0
LINE
  8
_0-0_計極細
  6
CONTINUOUS
 62
    2
 10
1014.9337497959762
 20
814.46286737472758
 11
1008.9337497959763
 21
814.46286737472758
  0
LINE
  8
_0-0_計極細
  6
CONTINUOUS
 62
    2
 10
1014.9337497959762
 20
809.46286737472633
 11
1008.9337497959763
 21
809.46286737472633
  0
LINE
  8
_0-0_計極細
  6
CONTINUOUS
 62
    2
 10
1000.9337497959763
 20
814.46286737472758
 11
994.93374979597615
 21
814.46286737472758
  0
LINE
  8
_0-0_計極細
  6
CONTINUOUS
 62
    2
 10
1000.9337497959763
 20
809.46286737472633
 11
994.93374979597615
 21
809.46286737472633
  0
LINE
  8
_0-0_計極細
  6
CONTINUOUS
 62
    2
 10
986.93374979597615
 20
814.46286737472758
 11
980.93374979597627
 21
814.46286737472758
  0
LINE
  8
_0-0_計極細
  6
CONTINUOUS
 62
    2
 10
986.93374979597615
 20
809.46286737472633
 11
980.93374979597627
 21
809.46286737472633
  0
LINE
  8
_0-0_計極細
  6
CONTINUOUS
 62
    2
 10
972.93374979597615
 20
814.46286737472758
 11
966.93374979597615
 21
814.46286737472758
  0
LINE
  8
_0-0_計極細
  6
CONTINUOUS
 62
    2
 10
972.93374979597615
 20
809.46286737472633
 11
966.93374979597615
 21
809.46286737472633
  0
LINE
  8
_0-0_計極細
  6
CONTINUOUS
 62
    2
 10
958.93374979597627
 20
814.46286737472758
 11
952.93374979597615
 21
814.46286737472758
  0
LINE
  8
_0-0_計極細
  6
CONTINUOUS
 62
    2
 10
958.93374979597627
 20
809.46286737472633
 11
952.93374979597615
 21
809.46286737472633
  0
LINE
  8
_0-0_計極細
  6
CONTINUOUS
 62
    2
 10
944.93374979597615
 20
814.46286737472758
 11
938.93374979597627
 21
814.46286737472758
  0
LINE
  8
_0-0_計極細
  6
CONTINUOUS
 62
    2
 10
944.93374979597615
 20
809.46286737472633
 11
938.93374979597627
 21
809.46286737472633
  0
LINE
  8
_0-0_計極細
  6
CONTINUOUS
 62
    2
 10
930.93374979597627
 20
814.46286737472758
 11
924.93374979597615
 21
814.46286737472758
  0
LINE
  8
_0-0_計極細
  6
CONTINUOUS
 62
    2
 10
930.93374979597627
 20
809.46286737472633
 11
924.93374979597615
 21
809.46286737472633
  0
LINE
  8
_0-0_計極細
  6
CONTINUOUS
 62
    2
 10
916.93374979597615
 20
814.46286737472758
 11
910.93374979597627
 21
814.46286737472758
  0
LINE
  8
_0-0_計極細
  6
CONTINUOUS
 62
    2
 10
916.93374979597615
 20
809.46286737472633
 11
910.93374979597627
 21
809.46286737472633
  0
LINE
  8
_0-0_計極細
  6
CONTINUOUS
 62
    2
 10
902.93374979597615
 20
814.46286737472758
 11
896.93374979597615
 21
814.46286737472758
  0
LINE
  8
_0-0_計極細
  6
CONTINUOUS
 62
    2
 10
902.93374979597615
 20
809.46286737472633
 11
896.93374979597615
 21
809.46286737472633
  0
LINE
  8
_0-0_計極細
  6
CONTINUOUS
 62
    2
 10
888.93374979597627
 20
814.46286737472758
 11
882.93374979597615
 21
814.46286737472758
  0
LINE
  8
_0-0_計極細
  6
CONTINUOUS
 62
    2
 10
888.93374979597627
 20
809.46286737472633
 11
882.93374979597615
 21
809.46286737472633
  0
LINE
  8
_0-0_計極細
  6
CONTINUOUS
 62
    2
 10
874.93374979597615
 20
814.46286737472758
 11
868.93374979597627
 21
814.46286737472758
  0
LINE
  8
_0-0_計極細
  6
CONTINUOUS
 62
    2
 10
874.93374979597615
 20
809.46286737472633
 11
868.93374979597627
 21
809.46286737472633
  0
LINE
  8
_0-0_計極細
  6
CONTINUOUS
 62
    2
 10
860.93374979597627
 20
814.46286737472758
 11
854.93374979597615
 21
814.46286737472758
  0
LINE
  8
_0-0_計極細
  6
CONTINUOUS
 62
    2
 10
860.93374979597627
 20
809.46286737472633
 11
854.93374979597615
 21
809.46286737472633
  0
LINE
  8
_0-0_計極細
  6
CONTINUOUS
 62
    2
 10
846.93374979597615
 20
814.46286737472758
 11
840.93374979597627
 21
814.46286737472758
  0
LINE
  8
_0-0_計極細
  6
CONTINUOUS
 62
    2
 10
846.93374979597615
 20
809.46286737472633
 11
840.93374979597627
 21
809.46286737472633
  0
LINE
  8
_0-0_計極細
  6
CONTINUOUS
 62
    2
 10
832.93374979597615
 20
814.46286737472758
 11
826.93374979597615
 21
814.46286737472758
  0
LINE
  8
_0-0_計極細
  6
CONTINUOUS
 62
    2
 10
832.93374979597615
 20
809.46286737472633
 11
826.93374979597615
 21
809.46286737472633
  0
LINE
  8
_0-0_計極細
  6
CONTINUOUS
 62
    2
 10
818.93374979597627
 20
814.46286737472758
 11
812.93374979597615
 21
814.46286737472758
  0
LINE
  8
_0-0_計極細
  6
CONTINUOUS
 62
    2
 10
818.93374979597627
 20
809.46286737472633
 11
812.93374979597615
 21
809.46286737472633
  0
LINE
  8
_0-0_計極細
  6
CONTINUOUS
 62
    2
 10
804.93374979597615
 20
814.46286737472758
 11
798.93374979597627
 21
814.46286737472758
  0
LINE
  8
_0-0_計極細
  6
CONTINUOUS
 62
    2
 10
804.93374979597615
 20
809.46286737472633
 11
798.93374979597627
 21
809.46286737472633
  0
LINE
  8
_0-0_計極細
  6
CONTINUOUS
 62
    2
 10
790.93374979597627
 20
814.46286737472758
 11
784.93374979597615
 21
814.46286737472758
  0
LINE
  8
_0-0_計極細
  6
CONTINUOUS
 62
    2
 10
790.93374979597627
 20
809.46286737472633
 11
784.93374979597615
 21
809.46286737472633
  0
LINE
  8
_0-0_計極細
  6
CONTINUOUS
 62
    2
 10
776.93374979597615
 20
814.46286737472758
 11
770.93374979597627
 21
814.46286737472758
  0
LINE
  8
_0-0_計極細
  6
CONTINUOUS
 62
    2
 10
776.93374979597615
 20
809.46286737472633
 11
770.93374979597627
 21
809.46286737472633
  0
LINE
  8
_0-0_計極細
  6
CONTINUOUS
 62
    2
 10
762.93374979597615
 20
814.46286737472758
 11
756.93374979597615
 21
814.46286737472758
  0
LINE
  8
_0-0_計極細
  6
CONTINUOUS
 62
    2
 10
762.93374979597615
 20
809.46286737472633
 11
756.93374979597615
 21
809.46286737472633
  0
LINE
  8
_0-0_計極細
  6
CONTINUOUS
 62
    2
 10
748.93374979597627
 20
814.46286737472758
 11
742.93374979597615
 21
814.46286737472758
  0
LINE
  8
_0-0_計極細
  6
CONTINUOUS
 62
    2
 10
748.93374979597627
 20
809.46286737472633
 11
742.93374979597615
 21
809.46286737472633
  0
LINE
  8
_0-0_計極細
  6
CONTINUOUS
 62
    2
 10
734.93374979597615
 20
814.46286737472758
 11
728.93374979597627
 21
814.46286737472758
  0
LINE
  8
_0-0_計極細
  6
CONTINUOUS
 62
    2
 10
734.93374979597615
 20
809.46286737472633
 11
728.93374979597627
 21
809.46286737472633
  0
LINE
  8
_0-0_計極細
  6
CONTINUOUS
 62
    2
 10
720.93374979597615
 20
814.46286737472758
 11
714.93374979597615
 21
814.46286737472758
  0
LINE
  8
_0-0_計極細
  6
CONTINUOUS
 62
    2
 10
720.93374979597615
 20
809.46286737472633
 11
714.93374979597615
 21
809.46286737472633
  0
LINE
  8
_0-0_計極細
  6
CONTINUOUS
 62
    2
 10
706.93374979597615
 20
814.46286737472758
 11
700.93374979597615
 21
814.46286737472758
  0
LINE
  8
_0-0_計極細
  6
CONTINUOUS
 62
    2
 10
706.93374979597615
 20
809.46286737472633
 11
700.93374979597615
 21
809.46286737472633
  0
LINE
  8
_0-0_計極細
  6
CONTINUOUS
 62
    2
 10
692.93374979597615
 20
814.46286737472758
 11
686.93374979597615
 21
814.46286737472758
  0
LINE
  8
_0-0_計極細
  6
CONTINUOUS
 62
    2
 10
692.93374979597615
 20
809.46286737472633
 11
686.93374979597615
 21
809.46286737472633
  0
LINE
  8
_0-0_計極細
  6
CONTINUOUS
 62
    2
 10
678.93374979597627
 20
814.46286737472758
 11
672.93374979597615
 21
814.46286737472758
  0
LINE
  8
_0-0_計極細
  6
CONTINUOUS
 62
    2
 10
678.93374979597627
 20
809.46286737472633
 11
672.93374979597615
 21
809.46286737472633
  0
LINE
  8
_0-0_計極細
  6
CONTINUOUS
 62
    2
 10
664.93374979597615
 20
814.46286737472758
 11
658.93374979597627
 21
814.46286737472758
  0
LINE
  8
_0-0_計極細
  6
CONTINUOUS
 62
    2
 10
664.93374979597615
 20
809.46286737472633
 11
658.93374979597627
 21
809.46286737472633
  0
LINE
  8
_0-0_計極細
  6
CONTINUOUS
 62
    2
 10
650.93374979597615
 20
814.46286737472758
 11
644.93374979597615
 21
814.46286737472758
  0
LINE
  8
_0-0_計極細
  6
CONTINUOUS
 62
    2
 10
650.93374979597615
 20
809.46286737472633
 11
644.93374979597615
 21
809.46286737472633
  0
LINE
  8
_0-0_計極細
  6
CONTINUOUS
 62
    2
 10
636.93374979597615
 20
814.46286737472758
 11
630.93374979597615
 21
814.46286737472758
  0
LINE
  8
_0-0_計極細
  6
CONTINUOUS
 62
    2
 10
636.93374979597615
 20
809.46286737472633
 11
630.93374979597615
 21
809.46286737472633
  0
LINE
  8
_0-0_計極細
  6
CONTINUOUS
 62
    2
 10
622.93374979597615
 20
814.46286737472758
 11
616.93374979597615
 21
814.46286737472758
  0
LINE
  8
_0-0_計極細
  6
CONTINUOUS
 62
    2
 10
622.93374979597615
 20
809.46286737472633
 11
616.93374979597615
 21
809.46286737472633
  0
LINE
  8
_0-0_計極細
  6
CONTINUOUS
 62
    2
 10
608.93374979597615
 20
814.46286737472758
 11
602.93374979597615
 21
814.46286737472758
  0
LINE
  8
_0-0_計極細
  6
CONTINUOUS
 62
    2
 10
608.93374979597615
 20
809.46286737472633
 11
602.93374979597615
 21
809.46286737472633
  0
LINE
  8
_0-0_計極細
  6
CONTINUOUS
 62
    2
 10
594.93374979597615
 20
814.46286737472758
 11
588.93374979597615
 21
814.46286737472758
  0
LINE
  8
_0-0_計極細
  6
CONTINUOUS
 62
    2
 10
594.93374979597615
 20
809.46286737472633
 11
588.93374979597615
 21
809.46286737472633
  0
LINE
  8
_0-0_計極細
  6
CONTINUOUS
 62
    2
 10
580.93374979597615
 20
814.46286737472758
 11
574.93374979597615
 21
814.46286737472758
  0
LINE
  8
_0-0_計極細
  6
CONTINUOUS
 62
    2
 10
580.93374979597615
 20
809.46286737472633
 11
574.93374979597615
 21
809.46286737472633
  0
LINE
  8
_0-0_計極細
  6
CONTINUOUS
 62
    2
 10
566.93374979597615
 20
814.46286737472758
 11
560.93374979597615
 21
814.46286737472758
  0
LINE
  8
_0-0_計極細
  6
CONTINUOUS
 62
    2
 10
566.93374979597615
 20
809.46286737472633
 11
560.93374979597615
 21
809.46286737472633
  0
LINE
  8
_0-0_計極細
  6
CONTINUOUS
 62
    2
 10
552.93374979597615
 20
814.46286737472758
 11
546.93374979597615
 21
814.46286737472758
  0
LINE
  8
_0-0_計極細
  6
CONTINUOUS
 62
    2
 10
552.93374979597615
 20
809.46286737472633
 11
546.93374979597615
 21
809.46286737472633
  0
LINE
  8
_0-0_計極細
  6
CONTINUOUS
 62
    2
 10
538.93374979597615
 20
814.46286737472758
 11
532.93374979597615
 21
814.46286737472758
  0
LINE
  8
_0-0_計極細
  6
CONTINUOUS
 62
    2
 10
538.93374979597615
 20
809.46286737472633
 11
532.93374979597615
 21
809.46286737472633
  0
LINE
  8
_0-0_計極細
  6
CONTINUOUS
 62
    2
 10
524.93374979597615
 20
814.46286737472758
 11
518.93374979597615
 21
814.46286737472758
  0
LINE
  8
_0-0_計極細
  6
CONTINUOUS
 62
    2
 10
524.93374979597615
 20
809.46286737472633
 11
518.93374979597615
 21
809.46286737472633
  0
LINE
  8
_0-0_計極細
  6
CONTINUOUS
 62
    2
 10
510.93374979597621
 20
814.46286737472758
 11
504.93374979597615
 21
814.46286737472758
  0
LINE
  8
_0-0_計極細
  6
CONTINUOUS
 62
    2
 10
510.93374979597621
 20
809.46286737472633
 11
504.93374979597615
 21
809.46286737472633
  0
LINE
  8
_0-0_計極細
  6
CONTINUOUS
 62
    2
 10
496.93374979597621
 20
814.46286737472758
 11
490.93374979597621
 21
814.46286737472758
  0
LINE
  8
_0-0_計極細
  6
CONTINUOUS
 62
    2
 10
496.93374979597621
 20
809.46286737472633
 11
490.93374979597621
 21
809.46286737472633
  0
LINE
  8
_0-0_計極細
  6
CONTINUOUS
 62
    2
 10
482.93374979597615
 20
814.46286737472758
 11
476.93374979597621
 21
814.46286737472758
  0
LINE
  8
_0-0_計極細
  6
CONTINUOUS
 62
    2
 10
482.93374979597615
 20
809.46286737472633
 11
476.93374979597621
 21
809.46286737472633
  0
LINE
  8
_0-0_計極細
  6
CONTINUOUS
 62
    2
 10
468.93374979597615
 20
814.46286737472758
 11
462.93374979597615
 21
814.46286737472758
  0
LINE
  8
_0-0_計極細
  6
CONTINUOUS
 62
    2
 10
468.93374979597615
 20
809.46286737472633
 11
462.93374979597615
 21
809.46286737472633
  0
LINE
  8
_0-0_計極細
  6
CONTINUOUS
 62
    2
 10
454.93374979597615
 20
814.46286737472758
 11
448.93374979597615
 21
814.46286737472758
  0
LINE
  8
_0-0_計極細
  6
CONTINUOUS
 62
    2
 10
454.93374979597615
 20
809.46286737472633
 11
448.93374979597615
 21
809.46286737472633
  0
LINE
  8
_0-0_計極細
  6
CONTINUOUS
 62
    2
 10
440.93374979597621
 20
814.46286737472758
 11
434.93374979597615
 21
814.46286737472758
  0
LINE
  8
_0-0_計極細
  6
CONTINUOUS
 62
    2
 10
440.93374979597621
 20
809.46286737472633
 11
434.93374979597615
 21
809.46286737472633
  0
LINE
  8
_0-0_計極細
  6
CONTINUOUS
 62
    2
 10
426.93374979597621
 20
814.46286737472758
 11
420.93374979597621
 21
814.46286737472758
  0
LINE
  8
_0-0_計極細
  6
CONTINUOUS
 62
    2
 10
426.93374979597621
 20
809.46286737472633
 11
420.93374979597621
 21
809.46286737472633
  0
LINE
  8
_0-0_計極細
  6
CONTINUOUS
 62
    2
 10
412.93374979597615
 20
814.46286737472758
 11
406.93374979597621
 21
814.46286737472758
  0
LINE
  8
_0-0_計極細
  6
CONTINUOUS
 62
    2
 10
412.93374979597615
 20
809.46286737472633
 11
406.93374979597621
 21
809.46286737472633
  0
LINE
  8
_0-0_計極細
  6
CONTINUOUS
 62
    2
 10
398.93374979597615
 20
814.46286737472758
 11
392.93374979597615
 21
814.46286737472758
  0
LINE
  8
_0-0_計極細
  6
CONTINUOUS
 62
    2
 10
398.93374979597615
 20
809.46286737472633
 11
392.93374979597615
 21
809.46286737472633
  0
LINE
  8
_0-0_計極細
  6
CONTINUOUS
 62
    2
 10
384.93374979597615
 20
814.46286737472758
 11
378.93374979597615
 21
814.46286737472758
  0
LINE
  8
_0-0_計極細
  6
CONTINUOUS
 62
    2
 10
384.93374979597615
 20
809.46286737472633
 11
378.93374979597615
 21
809.46286737472633
  0
LINE
  8
_0-0_計極細
  6
CONTINUOUS
 62
    2
 10
370.93374979597621
 20
814.46286737472758
 11
364.93374979597615
 21
814.46286737472758
  0
LINE
  8
_0-0_計極細
  6
CONTINUOUS
 62
    2
 10
370.93374979597621
 20
809.46286737472633
 11
364.93374979597615
 21
809.46286737472633
  0
LINE
  8
_0-0_計極細
  6
CONTINUOUS
 62
    2
 10
356.93374979597615
 20
814.46286737472758
 11
350.93374979597621
 21
814.46286737472758
  0
LINE
  8
_0-0_計極細
  6
CONTINUOUS
 62
    2
 10
356.93374979597615
 20
809.46286737472633
 11
350.93374979597621
 21
809.46286737472633
  0
LINE
  8
_0-0_計極細
  6
CONTINUOUS
 62
    2
 10
342.93374979597615
 20
814.46286737472758
 11
336.93374979597615
 21
814.46286737472758
  0
LINE
  8
_0-0_計極細
  6
CONTINUOUS
 62
    2
 10
342.93374979597615
 20
809.46286737472633
 11
336.93374979597615
 21
809.46286737472633
  0
LINE
  8
_0-0_計極細
  6
CONTINUOUS
 62
    2
 10
328.93374979597615
 20
814.46286737472758
 11
322.93374979597615
 21
814.46286737472758
  0
LINE
  8
_0-0_計極細
  6
CONTINUOUS
 62
    2
 10
328.93374979597615
 20
809.46286737472633
 11
322.93374979597615
 21
809.46286737472633
  0
LINE
  8
_0-0_計極細
  6
CONTINUOUS
 62
    2
 10
314.93374979597615
 20
814.46286737472758
 11
308.93374979597615
 21
814.46286737472758
  0
LINE
  8
_0-0_計極細
  6
CONTINUOUS
 62
    2
 10
314.93374979597615
 20
809.46286737472633
 11
308.93374979597615
 21
809.46286737472633
  0
LINE
  8
_0-0_計極細
  6
CONTINUOUS
 62
    2
 10
300.93374979597615
 20
814.46286737472758
 11
294.93374979597615
 21
814.46286737472758
  0
LINE
  8
_0-0_計極細
  6
CONTINUOUS
 62
    2
 10
300.93374979597615
 20
809.46286737472633
 11
294.93374979597615
 21
809.46286737472633
  0
LINE
  8
_0-0_計極細
  6
CONTINUOUS
 62
    2
 10
286.93374979597621
 20
814.46286737472758
 11
280.93374979597615
 21
814.46286737472758
  0
LINE
  8
_0-0_計極細
  6
CONTINUOUS
 62
    2
 10
286.93374979597621
 20
809.46286737472633
 11
280.93374979597615
 21
809.46286737472633
  0
LINE
  8
_0-0_計極細
  6
CONTINUOUS
 62
    2
 10
272.93374979597615
 20
814.46286737472758
 11
266.93374979597621
 21
814.46286737472758
  0
LINE
  8
_0-0_計極細
  6
CONTINUOUS
 62
    2
 10
272.93374979597615
 20
809.46286737472633
 11
266.93374979597621
 21
809.46286737472633
  0
LINE
  8
_0-0_計極細
  6
CONTINUOUS
 62
    2
 10
258.93374979597615
 20
814.46286737472758
 11
252.93374979597615
 21
814.46286737472758
  0
LINE
  8
_0-0_計極細
  6
CONTINUOUS
 62
    2
 10
258.93374979597615
 20
809.46286737472633
 11
252.93374979597615
 21
809.46286737472633
  0
LINE
  8
_0-0_計極細
  6
CONTINUOUS
 62
    2
 10
244.93374979597618
 20
814.46286737472758
 11
238.93374979597615
 21
814.46286737472758
  0
LINE
  8
_0-0_計極細
  6
CONTINUOUS
 62
    2
 10
244.93374979597618
 20
809.46286737472633
 11
238.93374979597615
 21
809.46286737472633
  0
LINE
  8
_0-5_寸法線
  6
CONTINUOUS
 62
    7
 10
230.93374979597621
 20
851.96286737472758
 11
230.93374979597613
 21
896.96286737472758
  0
LINE
  8
_0-5_寸法線
  6
CONTINUOUS
 62
    7
 10
230.93374979597613
 20
891.96286737472758
 11
240.59300805886687
 21
894.55105782575288
  0
LINE
  8
_0-5_寸法線
  6
CONTINUOUS
 62
    7
 10
230.93374979597613
 20
891.96286737472758
 11
240.59300805886687
 21
889.37467692370251
  0
LINE
  8
_0-5_寸法線
  6
CONTINUOUS
 62
    7
 10
1218.9337497959762
 20
851.96286737472758
 11
1218.9337497959762
 21
896.96286737472758
  0
LINE
  8
_0-5_寸法線
  6
CONTINUOUS
 62
    7
 10
1218.9337497959762
 20
891.96286737472758
 11
1209.2744915330854
 21
889.37467692370251
  0
LINE
  8
_0-5_寸法線
  6
CONTINUOUS
 62
    7
 10
1218.9337497959762
 20
891.96286737472758
 11
1209.2744915330854
 21
894.55105782575288
  0
LINE
  8
_0-5_寸法線
  6
CONTINUOUS
 62
    7
 10
230.93374979597613
 20
891.96286737472758
 11
1218.9337497959762
 21
891.96286737472758
  0
TEXT
  8
_0-5_寸法線
 62
    7
 10
713.68374979597615
 20
891.96286737472758
 40
15
 41
1
 50
0
  1
988
  0
LINE
  8
_0-1_計細線
  6
CONTINUOUS
 62
    3
 10
230.93374979597613
 20
511.96286737472758
 11
200.93374979597613
 21
511.96286737472758
  0
LINE
  8
_0-1_計細線
  6
CONTINUOUS
 62
    3
 10
1248.9337497959759
 20
511.96286737472758
 11
1218.9337497959759
 21
511.96286737472758
  0
LINE
  8
_0-1_計細線
  6
CONTINUOUS
 62
    3
 10
202.3208669197345
 20
484.962867374729
 11
1250.320866919735
 21
484.96286737472758
  0
LINE
  8
_0-1_計細線
  6
CONTINUOUS
 62
    3
 10
200.93374979597613
 20
481.96286737472894
 11
1248.9337497959759
 21
481.96286737472758
  0
ARC
  8
_0-1_計細線
  6
CONTINUOUS
 62
    3
 10
188.65075454584755
 20
489.46286737472758
 40
14.391732776655759
 50
328.59175045525654
 51
31.408249544743221
  0
ARC
  8
_0-1_計細線
  6
CONTINUOUS
 62
    3
 10
213.21674504610343
 20
504.46286737472758
 40
14.391732776655743
 50
148.59175045525842
 51
211.40824954474076
  0
ARC
  8
_0-1_計細線
  6
CONTINUOUS
 62
    3
 10
1236.6507545458478
 20
489.46286737472758
 40
14.391732776655772
 50
328.59175045525654
 51
31.408249544741235
  0
ARC
  8
_0-1_計細線
  6
CONTINUOUS
 62
    3
 10
1261.2167450461036
 20
504.46286737472758
 40
14.391732776655658
 50
148.59175045525842
 51
211.40824954474121
  0
LINE
  8
_0-1_計細線
  6
CONTINUOUS
 62
    3
 10
238.93374979597615
 20
489.96286737472758
 11
230.93374979597613
 21
489.96286737472758
  0
LINE
  8
_0-1_計細線
  6
CONTINUOUS
 62
    3
 10
252.93374979597615
 20
489.96286737472758
 11
244.93374979597618
 21
489.96286737472758
  0
LINE
  8
_0-1_計細線
  6
CONTINUOUS
 62
    3
 10
266.93374979597621
 20
489.96286737472758
 11
258.93374979597615
 21
489.96286737472758
  0
LINE
  8
_0-1_計細線
  6
CONTINUOUS
 62
    3
 10
280.93374979597615
 20
489.96286737472758
 11
272.93374979597615
 21
489.96286737472758
  0
LINE
  8
_0-1_計細線
  6
CONTINUOUS
 62
    3
 10
294.93374979597615
 20
489.96286737472758
 11
286.93374979597621
 21
489.96286737472758
  0
LINE
  8
_0-1_計細線
  6
CONTINUOUS
 62
    3
 10
308.93374979597615
 20
489.96286737472758
 11
300.93374979597615
 21
489.96286737472758
  0
LINE
  8
_0-1_計細線
  6
CONTINUOUS
 62
    3
 10
322.93374979597615
 20
489.96286737472758
 11
314.93374979597615
 21
489.96286737472758
  0
LINE
  8
_0-1_計細線
  6
CONTINUOUS
 62
    3
 10
336.93374979597615
 20
489.96286737472758
 11
328.93374979597615
 21
489.96286737472758
  0
LINE
  8
_0-1_計細線
  6
CONTINUOUS
 62
    3
 10
350.93374979597621
 20
489.96286737472758
 11
342.93374979597615
 21
489.96286737472758
  0
LINE
  8
_0-1_計細線
  6
CONTINUOUS
 62
    3
 10
364.93374979597615
 20
489.96286737472758
 11
356.93374979597615
 21
489.96286737472758
  0
LINE
  8
_0-1_計細線
  6
CONTINUOUS
 62
    3
 10
378.93374979597615
 20
489.96286737472758
 11
370.93374979597621
 21
489.96286737472758
  0
LINE
  8
_0-1_計細線
  6
CONTINUOUS
 62
    3
 10
392.93374979597615
 20
489.96286737472758
 11
384.93374979597615
 21
489.96286737472758
  0
LINE
  8
_0-1_計細線
  6
CONTINUOUS
 62
    3
 10
406.93374979597621
 20
489.96286737472758
 11
398.93374979597615
 21
489.96286737472758
  0
LINE
  8
_0-1_計細線
  6
CONTINUOUS
 62
    3
 10
420.93374979597621
 20
489.96286737472758
 11
412.93374979597615
 21
489.96286737472758
  0
LINE
  8
_0-1_計細線
  6
CONTINUOUS
 62
    3
 10
434.93374979597615
 20
489.96286737472758
 11
426.93374979597621
 21
489.96286737472758
  0
LINE
  8
_0-1_計細線
  6
CONTINUOUS
 62
    3
 10
448.93374979597615
 20
489.96286737472758
 11
440.93374979597621
 21
489.96286737472758
  0
LINE
  8
_0-1_計細線
  6
CONTINUOUS
 62
    3
 10
462.93374979597615
 20
489.96286737472758
 11
454.93374979597615
 21
489.96286737472758
  0
LINE
  8
_0-1_計細線
  6
CONTINUOUS
 62
    3
 10
476.93374979597621
 20
489.96286737472758
 11
468.93374979597615
 21
489.96286737472758
  0
LINE
  8
_0-1_計細線
  6
CONTINUOUS
 62
    3
 10
490.93374979597621
 20
489.96286737472758
 11
482.93374979597615
 21
489.96286737472758
  0
LINE
  8
_0-1_計細線
  6
CONTINUOUS
 62
    3
 10
504.93374979597615
 20
489.96286737472758
 11
496.93374979597621
 21
489.96286737472758
  0
LINE
  8
_0-1_計細線
  6
CONTINUOUS
 62
    3
 10
518.93374979597615
 20
489.96286737472758
 11
510.93374979597621
 21
489.96286737472758
  0
LINE
  8
_0-1_計細線
  6
CONTINUOUS
 62
    3
 10
532.93374979597615
 20
489.96286737472758
 11
524.93374979597615
 21
489.96286737472758
  0
LINE
  8
_0-1_計細線
  6
CONTINUOUS
 62
    3
 10
546.93374979597615
 20
489.96286737472758
 11
538.93374979597615
 21
489.96286737472758
  0
LINE
  8
_0-1_計細線
  6
CONTINUOUS
 62
    3
 10
560.93374979597615
 20
489.96286737472758
 11
552.93374979597615
 21
489.96286737472758
  0
LINE
  8
_0-1_計細線
  6
CONTINUOUS
 62
    3
 10
574.93374979597615
 20
489.96286737472758
 11
566.93374979597615
 21
489.96286737472758
  0
LINE
  8
_0-1_計細線
  6
CONTINUOUS
 62
    3
 10
588.93374979597615
 20
489.96286737472758
 11
580.93374979597615
 21
489.96286737472758
  0
LINE
  8
_0-1_計細線
  6
CONTINUOUS
 62
    3
 10
602.93374979597615
 20
489.96286737472758
 11
594.93374979597615
 21
489.96286737472758
  0
LINE
  8
_0-1_計細線
  6
CONTINUOUS
 62
    3
 10
616.93374979597615
 20
489.96286737472758
 11
608.93374979597615
 21
489.96286737472758
  0
LINE
  8
_0-1_計細線
  6
CONTINUOUS
 62
    3
 10
630.93374979597615
 20
489.96286737472758
 11
622.93374979597615
 21
489.96286737472758
  0
LINE
  8
_0-1_計細線
  6
CONTINUOUS
 62
    3
 10
644.93374979597615
 20
489.96286737472758
 11
636.93374979597615
 21
489.96286737472758
  0
LINE
  8
_0-1_計細線
  6
CONTINUOUS
 62
    3
 10
658.93374979597627
 20
489.96286737472758
 11
650.93374979597615
 21
489.96286737472758
  0
LINE
  8
_0-1_計細線
  6
CONTINUOUS
 62
    3
 10
672.93374979597615
 20
489.96286737472758
 11
664.93374979597615
 21
489.96286737472758
  0
LINE
  8
_0-1_計細線
  6
CONTINUOUS
 62
    3
 10
686.93374979597615
 20
489.96286737472758
 11
678.93374979597627
 21
489.96286737472758
  0
LINE
  8
_0-1_計細線
  6
CONTINUOUS
 62
    3
 10
700.93374979597615
 20
489.96286737472758
 11
692.93374979597615
 21
489.96286737472758
  0
LINE
  8
_0-1_計細線
  6
CONTINUOUS
 62
    3
 10
714.93374979597615
 20
489.96286737472758
 11
706.93374979597615
 21
489.96286737472758
  0
LINE
  8
_0-1_計細線
  6
CONTINUOUS
 62
    3
 10
728.93374979597627
 20
489.96286737472758
 11
720.93374979597615
 21
489.96286737472758
  0
LINE
  8
_0-1_計細線
  6
CONTINUOUS
 62
    3
 10
742.93374979597615
 20
489.96286737472758
 11
734.93374979597615
 21
489.96286737472758
  0
LINE
  8
_0-1_計細線
  6
CONTINUOUS
 62
    3
 10
756.93374979597615
 20
489.96286737472758
 11
748.93374979597627
 21
489.96286737472758
  0
LINE
  8
_0-1_計細線
  6
CONTINUOUS
 62
    3
 10
770.93374979597627
 20
489.96286737472758
 11
762.93374979597615
 21
489.96286737472758
  0
LINE
  8
_0-1_計細線
  6
CONTINUOUS
 62
    3
 10
784.93374979597615
 20
489.96286737472758
 11
776.93374979597615
 21
489.96286737472758
  0
LINE
  8
_0-1_計細線
  6
CONTINUOUS
 62
    3
 10
798.93374979597627
 20
489.96286737472758
 11
790.93374979597627
 21
489.96286737472758
  0
LINE
  8
_0-1_計細線
  6
CONTINUOUS
 62
    3
 10
812.93374979597615
 20
489.96286737472758
 11
804.93374979597615
 21
489.96286737472758
  0
LINE
  8
_0-1_計細線
  6
CONTINUOUS
 62
    3
 10
826.93374979597615
 20
489.96286737472758
 11
818.93374979597627
 21
489.96286737472758
  0
LINE
  8
_0-1_計細線
  6
CONTINUOUS
 62
    3
 10
840.93374979597627
 20
489.96286737472758
 11
832.93374979597615
 21
489.96286737472758
  0
LINE
  8
_0-1_計細線
  6
CONTINUOUS
 62
    3
 10
854.93374979597615
 20
489.96286737472758
 11
846.93374979597615
 21
489.96286737472758
  0
LINE
  8
_0-1_計細線
  6
CONTINUOUS
 62
    3
 10
868.93374979597627
 20
489.96286737472758
 11
860.93374979597627
 21
489.96286737472758
  0
LINE
  8
_0-1_計細線
  6
CONTINUOUS
 62
    3
 10
882.93374979597615
 20
489.96286737472758
 11
874.93374979597615
 21
489.96286737472758
  0
LINE
  8
_0-1_計細線
  6
CONTINUOUS
 62
    3
 10
896.93374979597615
 20
489.96286737472758
 11
888.93374979597627
 21
489.96286737472758
  0
LINE
  8
_0-1_計細線
  6
CONTINUOUS
 62
    3
 10
910.93374979597627
 20
489.96286737472758
 11
902.93374979597615
 21
489.96286737472758
  0
LINE
  8
_0-1_計細線
  6
CONTINUOUS
 62
    3
 10
924.93374979597615
 20
489.96286737472758
 11
916.93374979597615
 21
489.96286737472758
  0
LINE
  8
_0-1_計細線
  6
CONTINUOUS
 62
    3
 10
938.93374979597627
 20
489.96286737472758
 11
930.93374979597627
 21
489.96286737472758
  0
LINE
  8
_0-1_計細線
  6
CONTINUOUS
 62
    3
 10
952.93374979597615
 20
489.96286737472758
 11
944.93374979597615
 21
489.96286737472758
  0
LINE
  8
_0-1_計細線
  6
CONTINUOUS
 62
    3
 10
966.93374979597615
 20
489.96286737472758
 11
958.93374979597627
 21
489.96286737472758
  0
LINE
  8
_0-1_計細線
  6
CONTINUOUS
 62
    3
 10
980.93374979597627
 20
489.96286737472758
 11
972.93374979597615
 21
489.96286737472758
  0
LINE
  8
_0-1_計細線
  6
CONTINUOUS
 62
    3
 10
994.93374979597615
 20
489.96286737472758
 11
986.93374979597615
 21
489.96286737472758
  0
LINE
  8
_0-1_計細線
  6
CONTINUOUS
 62
    3
 10
1008.9337497959763
 20
489.96286737472758
 11
1000.9337497959763
 21
489.96286737472758
  0
LINE
  8
_0-1_計細線
  6
CONTINUOUS
 62
    3
 10
1022.9337497959762
 20
489.96286737472758
 11
1014.9337497959762
 21
489.96286737472758
  0
LINE
  8
_0-1_計細線
  6
CONTINUOUS
 62
    3
 10
1036.9337497959762
 20
489.96286737472758
 11
1028.9337497959762
 21
489.96286737472758
  0
LINE
  8
_0-1_計細線
  6
CONTINUOUS
 62
    3
 10
1050.9337497959764
 20
489.96286737472758
 11
1042.9337497959762
 21
489.96286737472758
  0
LINE
  8
_0-1_計細線
  6
CONTINUOUS
 62
    3
 10
1064.9337497959762
 20
489.96286737472758
 11
1056.9337497959762
 21
489.96286737472758
  0
LINE
  8
_0-1_計細線
  6
CONTINUOUS
 62
    3
 10
1078.9337497959762
 20
489.96286737472758
 11
1070.9337497959764
 21
489.96286737472758
  0
LINE
  8
_0-1_計細線
  6
CONTINUOUS
 62
    3
 10
1092.9337497959762
 20
489.96286737472758
 11
1084.9337497959762
 21
489.96286737472758
  0
LINE
  8
_0-1_計細線
  6
CONTINUOUS
 62
    3
 10
1106.9337497959762
 20
489.96286737472758
 11
1098.9337497959762
 21
489.96286737472758
  0
LINE
  8
_0-1_計細線
  6
CONTINUOUS
 62
    3
 10
1120.9337497959764
 20
489.96286737472758
 11
1112.9337497959762
 21
489.96286737472758
  0
LINE
  8
_0-1_計細線
  6
CONTINUOUS
 62
    3
 10
1134.9337497959757
 20
489.96286737472758
 11
1126.9337497959757
 21
489.96286737472758
  0
LINE
  8
_0-1_計細線
  6
CONTINUOUS
 62
    3
 10
1148.9337497959759
 20
489.96286737472758
 11
1140.9337497959757
 21
489.96286737472758
  0
LINE
  8
_0-1_計細線
  6
CONTINUOUS
 62
    3
 10
1162.9337497959757
 20
489.96286737472758
 11
1154.9337497959757
 21
489.96286737472758
  0
LINE
  8
_0-1_計細線
  6
CONTINUOUS
 62
    3
 10
1176.9337497959757
 20
489.96286737472758
 11
1168.9337497959759
 21
489.96286737472758
  0
LINE
  8
_0-1_計細線
  6
CONTINUOUS
 62
    3
 10
1190.9337497959757
 20
489.96286737472758
 11
1182.9337497959757
 21
489.96286737472758
  0
LINE
  8
_0-1_計細線
  6
CONTINUOUS
 62
    3
 10
1204.9337497959757
 20
489.96286737472758
 11
1196.9337497959757
 21
489.96286737472758
  0
LINE
  8
_0-1_計細線
  6
CONTINUOUS
 62
    3
 10
1218.9337497959759
 20
489.96286737472758
 11
1210.9337497959757
 21
489.96286737472758
  0
LINE
  8
_0-1_計細線
  6
CONTINUOUS
 62
    3
 10
1218.9337497959759
 20
486.96286737472758
 11
1218.9337497959759
 21
489.96286737472758
  0
LINE
  8
_0-1_計細線
  6
CONTINUOUS
 62
    3
 10
230.93374979597613
 20
486.96286737472758
 11
1218.9337497959759
 21
486.96286737472758
  0
LINE
  8
_0-1_計細線
  6
CONTINUOUS
 62
    3
 10
230.93374979597613
 20
489.96286737472758
 11
230.93374979597613
 21
486.96286737472758
  0
LINE
  8
_0-1_計細線
  6
CONTINUOUS
 62
    3
 10
1218.9337497959759
 20
489.96286737472758
 11
230.93374979597613
 21
489.96286737472758
  0
LINE
  8
_0-0_計極細
  6
CONTINUOUS
 62
    2
 10
1210.9337497959757
 20
514.46286737472758
 11
1204.9337497959757
 21
514.46286737472758
  0
LINE
  8
_0-0_計極細
  6
CONTINUOUS
 62
    2
 10
1210.9337497959757
 20
509.46286737472758
 11
1204.9337497959757
 21
509.46286737472758
  0
LINE
  8
_0-0_計極細
  6
CONTINUOUS
 62
    2
 10
1196.9337497959757
 20
514.46286737472758
 11
1190.9337497959757
 21
514.46286737472758
  0
LINE
  8
_0-0_計極細
  6
CONTINUOUS
 62
    2
 10
1196.9337497959757
 20
509.46286737472758
 11
1190.9337497959757
 21
509.46286737472758
  0
LINE
  8
_0-0_計極細
  6
CONTINUOUS
 62
    2
 10
1182.9337497959757
 20
514.46286737472758
 11
1176.9337497959757
 21
514.46286737472758
  0
LINE
  8
_0-0_計極細
  6
CONTINUOUS
 62
    2
 10
1182.9337497959757
 20
509.46286737472758
 11
1176.9337497959757
 21
509.46286737472758
  0
LINE
  8
_0-0_計極細
  6
CONTINUOUS
 62
    2
 10
1168.9337497959759
 20
514.46286737472758
 11
1162.9337497959757
 21
514.46286737472758
  0
LINE
  8
_0-0_計極細
  6
CONTINUOUS
 62
    2
 10
1168.9337497959759
 20
509.46286737472758
 11
1162.9337497959757
 21
509.46286737472758
  0
LINE
  8
_0-0_計極細
  6
CONTINUOUS
 62
    2
 10
1154.9337497959757
 20
514.46286737472758
 11
1148.9337497959759
 21
514.46286737472758
  0
LINE
  8
_0-0_計極細
  6
CONTINUOUS
 62
    2
 10
1154.9337497959757
 20
509.46286737472758
 11
1148.9337497959759
 21
509.46286737472758
  0
LINE
  8
_0-0_計極細
  6
CONTINUOUS
 62
    2
 10
1140.9337497959757
 20
514.46286737472758
 11
1134.9337497959757
 21
514.46286737472758
  0
LINE
  8
_0-0_計極細
  6
CONTINUOUS
 62
    2
 10
1140.9337497959757
 20
509.46286737472758
 11
1134.9337497959757
 21
509.46286737472758
  0
LINE
  8
_0-0_計極細
  6
CONTINUOUS
 62
    2
 10
1126.9337497959757
 20
514.46286737472758
 11
1120.9337497959764
 21
514.46286737472758
  0
LINE
  8
_0-0_計極細
  6
CONTINUOUS
 62
    2
 10
1126.9337497959757
 20
509.46286737472758
 11
1120.9337497959764
 21
509.46286737472758
  0
LINE
  8
_0-0_計極細
  6
CONTINUOUS
 62
    2
 10
1112.9337497959762
 20
514.46286737472758
 11
1106.9337497959762
 21
514.46286737472758
  0
LINE
  8
_0-0_計極細
  6
CONTINUOUS
 62
    2
 10
1112.9337497959762
 20
509.46286737472758
 11
1106.9337497959762
 21
509.46286737472758
  0
LINE
  8
_0-0_計極細
  6
CONTINUOUS
 62
    2
 10
1098.9337497959762
 20
514.46286737472758
 11
1092.9337497959762
 21
514.46286737472758
  0
LINE
  8
_0-0_計極細
  6
CONTINUOUS
 62
    2
 10
1098.9337497959762
 20
509.46286737472758
 11
1092.9337497959762
 21
509.46286737472758
  0
LINE
  8
_0-0_計極細
  6
CONTINUOUS
 62
    2
 10
1084.9337497959762
 20
514.46286737472758
 11
1078.9337497959762
 21
514.46286737472758
  0
LINE
  8
_0-0_計極細
  6
CONTINUOUS
 62
    2
 10
1084.9337497959762
 20
509.46286737472758
 11
1078.9337497959762
 21
509.46286737472758
  0
LINE
  8
_0-0_計極細
  6
CONTINUOUS
 62
    2
 10
1070.9337497959764
 20
514.46286737472758
 11
1064.9337497959762
 21
514.46286737472758
  0
LINE
  8
_0-0_計極細
  6
CONTINUOUS
 62
    2
 10
1070.9337497959764
 20
509.46286737472758
 11
1064.9337497959762
 21
509.46286737472758
  0
LINE
  8
_0-0_計極細
  6
CONTINUOUS
 62
    2
 10
1056.9337497959762
 20
514.46286737472758
 11
1050.9337497959764
 21
514.46286737472758
  0
LINE
  8
_0-0_計極細
  6
CONTINUOUS
 62
    2
 10
1056.9337497959762
 20
509.46286737472758
 11
1050.9337497959764
 21
509.46286737472758
  0
LINE
  8
_0-0_計極細
  6
CONTINUOUS
 62
    2
 10
1042.9337497959762
 20
514.46286737472758
 11
1036.9337497959762
 21
514.46286737472758
  0
LINE
  8
_0-0_計極細
  6
CONTINUOUS
 62
    2
 10
1042.9337497959762
 20
509.46286737472758
 11
1036.9337497959762
 21
509.46286737472758
  0
LINE
  8
_0-0_計極細
  6
CONTINUOUS
 62
    2
 10
1028.9337497959762
 20
514.46286737472758
 11
1022.9337497959762
 21
514.46286737472758
  0
LINE
  8
_0-0_計極細
  6
CONTINUOUS
 62
    2
 10
1028.9337497959762
 20
509.46286737472758
 11
1022.9337497959762
 21
509.46286737472758
  0
LINE
  8
_0-0_計極細
  6
CONTINUOUS
 62
    2
 10
1014.9337497959762
 20
514.46286737472758
 11
1008.9337497959763
 21
514.46286737472758
  0
LINE
  8
_0-0_計極細
  6
CONTINUOUS
 62
    2
 10
1014.9337497959762
 20
509.46286737472758
 11
1008.9337497959763
 21
509.46286737472758
  0
LINE
  8
_0-0_計極細
  6
CONTINUOUS
 62
    2
 10
1000.9337497959763
 20
514.46286737472758
 11
994.93374979597615
 21
514.46286737472758
  0
LINE
  8
_0-0_計極細
  6
CONTINUOUS
 62
    2
 10
1000.9337497959763
 20
509.46286737472758
 11
994.93374979597615
 21
509.46286737472758
  0
LINE
  8
_0-0_計極細
  6
CONTINUOUS
 62
    2
 10
986.93374979597615
 20
514.46286737472758
 11
980.93374979597627
 21
514.46286737472758
  0
LINE
  8
_0-0_計極細
  6
CONTINUOUS
 62
    2
 10
986.93374979597615
 20
509.46286737472758
 11
980.93374979597627
 21
509.46286737472758
  0
LINE
  8
_0-0_計極細
  6
CONTINUOUS
 62
    2
 10
972.93374979597615
 20
514.46286737472758
 11
966.93374979597615
 21
514.46286737472758
  0
LINE
  8
_0-0_計極細
  6
CONTINUOUS
 62
    2
 10
972.93374979597615
 20
509.46286737472758
 11
966.93374979597615
 21
509.46286737472758
  0
LINE
  8
_0-0_計極細
  6
CONTINUOUS
 62
    2
 10
958.93374979597627
 20
514.46286737472758
 11
952.93374979597615
 21
514.46286737472758
  0
LINE
  8
_0-0_計極細
  6
CONTINUOUS
 62
    2
 10
958.93374979597627
 20
509.46286737472758
 11
952.93374979597615
 21
509.46286737472758
  0
LINE
  8
_0-0_計極細
  6
CONTINUOUS
 62
    2
 10
944.93374979597615
 20
514.46286737472758
 11
938.93374979597627
 21
514.46286737472758
  0
LINE
  8
_0-0_計極細
  6
CONTINUOUS
 62
    2
 10
944.93374979597615
 20
509.46286737472758
 11
938.93374979597627
 21
509.46286737472758
  0
LINE
  8
_0-0_計極細
  6
CONTINUOUS
 62
    2
 10
930.93374979597627
 20
514.46286737472758
 11
924.93374979597615
 21
514.46286737472758
  0
LINE
  8
_0-0_計極細
  6
CONTINUOUS
 62
    2
 10
930.93374979597627
 20
509.46286737472758
 11
924.93374979597615
 21
509.46286737472758
  0
LINE
  8
_0-0_計極細
  6
CONTINUOUS
 62
    2
 10
916.93374979597615
 20
514.46286737472758
 11
910.93374979597627
 21
514.46286737472758
  0
LINE
  8
_0-0_計極細
  6
CONTINUOUS
 62
    2
 10
916.93374979597615
 20
509.46286737472758
 11
910.93374979597627
 21
509.46286737472758
  0
LINE
  8
_0-0_計極細
  6
CONTINUOUS
 62
    2
 10
902.93374979597615
 20
514.46286737472758
 11
896.93374979597615
 21
514.46286737472758
  0
LINE
  8
_0-0_計極細
  6
CONTINUOUS
 62
    2
 10
902.93374979597615
 20
509.46286737472758
 11
896.93374979597615
 21
509.46286737472758
  0
LINE
  8
_0-0_計極細
  6
CONTINUOUS
 62
    2
 10
888.93374979597627
 20
514.46286737472758
 11
882.93374979597615
 21
514.46286737472758
  0
LINE
  8
_0-0_計極細
  6
CONTINUOUS
 62
    2
 10
888.93374979597627
 20
509.46286737472758
 11
882.93374979597615
 21
509.46286737472758
  0
LINE
  8
_0-0_計極細
  6
CONTINUOUS
 62
    2
 10
874.93374979597615
 20
514.46286737472758
 11
868.93374979597627
 21
514.46286737472758
  0
LINE
  8
_0-0_計極細
  6
CONTINUOUS
 62
    2
 10
874.93374979597615
 20
509.46286737472758
 11
868.93374979597627
 21
509.46286737472758
  0
LINE
  8
_0-0_計極細
  6
CONTINUOUS
 62
    2
 10
860.93374979597627
 20
514.46286737472758
 11
854.93374979597615
 21
514.46286737472758
  0
LINE
  8
_0-0_計極細
  6
CONTINUOUS
 62
    2
 10
860.93374979597627
 20
509.46286737472758
 11
854.93374979597615
 21
509.46286737472758
  0
LINE
  8
_0-0_計極細
  6
CONTINUOUS
 62
    2
 10
846.93374979597615
 20
514.46286737472758
 11
840.93374979597627
 21
514.46286737472758
  0
LINE
  8
_0-0_計極細
  6
CONTINUOUS
 62
    2
 10
846.93374979597615
 20
509.46286737472758
 11
840.93374979597627
 21
509.46286737472758
  0
LINE
  8
_0-0_計極細
  6
CONTINUOUS
 62
    2
 10
832.93374979597615
 20
514.46286737472758
 11
826.93374979597615
 21
514.46286737472758
  0
LINE
  8
_0-0_計極細
  6
CONTINUOUS
 62
    2
 10
832.93374979597615
 20
509.46286737472758
 11
826.93374979597615
 21
509.46286737472758
  0
LINE
  8
_0-0_計極細
  6
CONTINUOUS
 62
    2
 10
818.93374979597627
 20
514.46286737472758
 11
812.93374979597615
 21
514.46286737472758
  0
LINE
  8
_0-0_計極細
  6
CONTINUOUS
 62
    2
 10
818.93374979597627
 20
509.46286737472758
 11
812.93374979597615
 21
509.46286737472758
  0
LINE
  8
_0-0_計極細
  6
CONTINUOUS
 62
    2
 10
804.93374979597615
 20
514.46286737472758
 11
798.93374979597627
 21
514.46286737472758
  0
LINE
  8
_0-0_計極細
  6
CONTINUOUS
 62
    2
 10
804.93374979597615
 20
509.46286737472758
 11
798.93374979597627
 21
509.46286737472758
  0
LINE
  8
_0-0_計極細
  6
CONTINUOUS
 62
    2
 10
790.93374979597627
 20
514.46286737472758
 11
784.93374979597615
 21
514.46286737472758
  0
LINE
  8
_0-0_計極細
  6
CONTINUOUS
 62
    2
 10
790.93374979597627
 20
509.46286737472758
 11
784.93374979597615
 21
509.46286737472758
  0
LINE
  8
_0-0_計極細
  6
CONTINUOUS
 62
    2
 10
776.93374979597615
 20
514.46286737472758
 11
770.93374979597627
 21
514.46286737472758
  0
LINE
  8
_0-0_計極細
  6
CONTINUOUS
 62
    2
 10
776.93374979597615
 20
509.46286737472758
 11
770.93374979597627
 21
509.46286737472758
  0
LINE
  8
_0-0_計極細
  6
CONTINUOUS
 62
    2
 10
762.93374979597615
 20
514.46286737472758
 11
756.93374979597615
 21
514.46286737472758
  0
LINE
  8
_0-0_計極細
  6
CONTINUOUS
 62
    2
 10
762.93374979597615
 20
509.46286737472758
 11
756.93374979597615
 21
509.46286737472758
  0
LINE
  8
_0-0_計極細
  6
CONTINUOUS
 62
    2
 10
748.93374979597627
 20
514.46286737472758
 11
742.93374979597615
 21
514.46286737472758
  0
LINE
  8
_0-0_計極細
  6
CONTINUOUS
 62
    2
 10
748.93374979597627
 20
509.46286737472758
 11
742.93374979597615
 21
509.46286737472758
  0
LINE
  8
_0-0_計極細
  6
CONTINUOUS
 62
    2
 10
734.93374979597615
 20
514.46286737472758
 11
728.93374979597627
 21
514.46286737472758
  0
LINE
  8
_0-0_計極細
  6
CONTINUOUS
 62
    2
 10
734.93374979597615
 20
509.46286737472758
 11
728.93374979597627
 21
509.46286737472758
  0
LINE
  8
_0-0_計極細
  6
CONTINUOUS
 62
    2
 10
720.93374979597615
 20
514.46286737472758
 11
714.93374979597615
 21
514.46286737472758
  0
LINE
  8
_0-0_計極細
  6
CONTINUOUS
 62
    2
 10
720.93374979597615
 20
509.46286737472758
 11
714.93374979597615
 21
509.46286737472758
  0
LINE
  8
_0-0_計極細
  6
CONTINUOUS
 62
    2
 10
706.93374979597615
 20
514.46286737472758
 11
700.93374979597615
 21
514.46286737472758
  0
LINE
  8
_0-0_計極細
  6
CONTINUOUS
 62
    2
 10
706.93374979597615
 20
509.46286737472758
 11
700.93374979597615
 21
509.46286737472758
  0
LINE
  8
_0-0_計極細
  6
CONTINUOUS
 62
    2
 10
692.93374979597615
 20
514.46286737472758
 11
686.93374979597615
 21
514.46286737472758
  0
LINE
  8
_0-0_計極細
  6
CONTINUOUS
 62
    2
 10
692.93374979597615
 20
509.46286737472758
 11
686.93374979597615
 21
509.46286737472758
  0
LINE
  8
_0-0_計極細
  6
CONTINUOUS
 62
    2
 10
678.93374979597627
 20
514.46286737472758
 11
672.93374979597615
 21
514.46286737472758
  0
LINE
  8
_0-0_計極細
  6
CONTINUOUS
 62
    2
 10
678.93374979597627
 20
509.46286737472758
 11
672.93374979597615
 21
509.46286737472758
  0
LINE
  8
_0-0_計極細
  6
CONTINUOUS
 62
    2
 10
664.93374979597615
 20
514.46286737472758
 11
658.93374979597627
 21
514.46286737472758
  0
LINE
  8
_0-0_計極細
  6
CONTINUOUS
 62
    2
 10
664.93374979597615
 20
509.46286737472758
 11
658.93374979597627
 21
509.46286737472758
  0
LINE
  8
_0-0_計極細
  6
CONTINUOUS
 62
    2
 10
650.93374979597615
 20
514.46286737472758
 11
644.93374979597615
 21
514.46286737472758
  0
LINE
  8
_0-0_計極細
  6
CONTINUOUS
 62
    2
 10
650.93374979597615
 20
509.46286737472758
 11
644.93374979597615
 21
509.46286737472758
  0
LINE
  8
_0-0_計極細
  6
CONTINUOUS
 62
    2
 10
636.93374979597615
 20
514.46286737472758
 11
630.93374979597615
 21
514.46286737472758
  0
LINE
  8
_0-0_計極細
  6
CONTINUOUS
 62
    2
 10
636.93374979597615
 20
509.46286737472758
 11
630.93374979597615
 21
509.46286737472758
  0
LINE
  8
_0-0_計極細
  6
CONTINUOUS
 62
    2
 10
622.93374979597615
 20
514.46286737472758
 11
616.93374979597615
 21
514.46286737472758
  0
LINE
  8
_0-0_計極細
  6
CONTINUOUS
 62
    2
 10
622.93374979597615
 20
509.46286737472758
 11
616.93374979597615
 21
509.46286737472758
  0
LINE
  8
_0-0_計極細
  6
CONTINUOUS
 62
    2
 10
608.93374979597615
 20
514.46286737472758
 11
602.93374979597615
 21
514.46286737472758
  0
LINE
  8
_0-0_計極細
  6
CONTINUOUS
 62
    2
 10
608.93374979597615
 20
509.46286737472758
 11
602.93374979597615
 21
509.46286737472758
  0
LINE
  8
_0-0_計極細
  6
CONTINUOUS
 62
    2
 10
594.93374979597615
 20
514.46286737472758
 11
588.93374979597615
 21
514.46286737472758
  0
LINE
  8
_0-0_計極細
  6
CONTINUOUS
 62
    2
 10
594.93374979597615
 20
509.46286737472758
 11
588.93374979597615
 21
509.46286737472758
  0
LINE
  8
_0-0_計極細
  6
CONTINUOUS
 62
    2
 10
580.93374979597615
 20
514.46286737472758
 11
574.93374979597615
 21
514.46286737472758
  0
LINE
  8
_0-0_計極細
  6
CONTINUOUS
 62
    2
 10
580.93374979597615
 20
509.46286737472758
 11
574.93374979597615
 21
509.46286737472758
  0
LINE
  8
_0-0_計極細
  6
CONTINUOUS
 62
    2
 10
566.93374979597615
 20
514.46286737472758
 11
560.93374979597615
 21
514.46286737472758
  0
LINE
  8
_0-0_計極細
  6
CONTINUOUS
 62
    2
 10
566.93374979597615
 20
509.46286737472758
 11
560.93374979597615
 21
509.46286737472758
  0
LINE
  8
_0-0_計極細
  6
CONTINUOUS
 62
    2
 10
552.93374979597615
 20
514.46286737472758
 11
546.93374979597615
 21
514.46286737472758
  0
LINE
  8
_0-0_計極細
  6
CONTINUOUS
 62
    2
 10
552.93374979597615
 20
509.46286737472758
 11
546.93374979597615
 21
509.46286737472758
  0
LINE
  8
_0-0_計極細
  6
CONTINUOUS
 62
    2
 10
538.93374979597615
 20
514.46286737472758
 11
532.93374979597615
 21
514.46286737472758
  0
LINE
  8
_0-0_計極細
  6
CONTINUOUS
 62
    2
 10
538.93374979597615
 20
509.46286737472758
 11
532.93374979597615
 21
509.46286737472758
  0
LINE
  8
_0-0_計極細
  6
CONTINUOUS
 62
    2
 10
524.93374979597615
 20
514.46286737472758
 11
518.93374979597615
 21
514.46286737472758
  0
LINE
  8
_0-0_計極細
  6
CONTINUOUS
 62
    2
 10
524.93374979597615
 20
509.46286737472758
 11
518.93374979597615
 21
509.46286737472758
  0
LINE
  8
_0-0_計極細
  6
CONTINUOUS
 62
    2
 10
510.93374979597621
 20
514.46286737472758
 11
504.93374979597615
 21
514.46286737472758
  0
LINE
  8
_0-0_計極細
  6
CONTINUOUS
 62
    2
 10
510.93374979597621
 20
509.46286737472758
 11
504.93374979597615
 21
509.46286737472758
  0
LINE
  8
_0-0_計極細
  6
CONTINUOUS
 62
    2
 10
496.93374979597621
 20
514.46286737472758
 11
490.93374979597621
 21
514.46286737472758
  0
LINE
  8
_0-0_計極細
  6
CONTINUOUS
 62
    2
 10
496.93374979597621
 20
509.46286737472758
 11
490.93374979597621
 21
509.46286737472758
  0
LINE
  8
_0-0_計極細
  6
CONTINUOUS
 62
    2
 10
482.93374979597615
 20
514.46286737472758
 11
476.93374979597621
 21
514.46286737472758
  0
LINE
  8
_0-0_計極細
  6
CONTINUOUS
 62
    2
 10
482.93374979597615
 20
509.46286737472758
 11
476.93374979597621
 21
509.46286737472758
  0
LINE
  8
_0-0_計極細
  6
CONTINUOUS
 62
    2
 10
468.93374979597615
 20
514.46286737472758
 11
462.93374979597615
 21
514.46286737472758
  0
LINE
  8
_0-0_計極細
  6
CONTINUOUS
 62
    2
 10
468.93374979597615
 20
509.46286737472758
 11
462.93374979597615
 21
509.46286737472758
  0
LINE
  8
_0-0_計極細
  6
CONTINUOUS
 62
    2
 10
454.93374979597615
 20
514.46286737472758
 11
448.93374979597615
 21
514.46286737472758
  0
LINE
  8
_0-0_計極細
  6
CONTINUOUS
 62
    2
 10
454.93374979597615
 20
509.46286737472758
 11
448.93374979597615
 21
509.46286737472758
  0
LINE
  8
_0-0_計極細
  6
CONTINUOUS
 62
    2
 10
440.93374979597621
 20
514.46286737472758
 11
434.93374979597615
 21
514.46286737472758
  0
LINE
  8
_0-0_計極細
  6
CONTINUOUS
 62
    2
 10
440.93374979597621
 20
509.46286737472758
 11
434.93374979597615
 21
509.46286737472758
  0
LINE
  8
_0-0_計極細
  6
CONTINUOUS
 62
    2
 10
426.93374979597621
 20
514.46286737472758
 11
420.93374979597621
 21
514.46286737472758
  0
LINE
  8
_0-0_計極細
  6
CONTINUOUS
 62
    2
 10
426.93374979597621
 20
509.46286737472758
 11
420.93374979597621
 21
509.46286737472758
  0
LINE
  8
_0-0_計極細
  6
CONTINUOUS
 62
    2
 10
412.93374979597615
 20
514.46286737472758
 11
406.93374979597621
 21
514.46286737472758
  0
LINE
  8
_0-0_計極細
  6
CONTINUOUS
 62
    2
 10
412.93374979597615
 20
509.46286737472758
 11
406.93374979597621
 21
509.46286737472758
  0
LINE
  8
_0-0_計極細
  6
CONTINUOUS
 62
    2
 10
398.93374979597615
 20
514.46286737472758
 11
392.93374979597615
 21
514.46286737472758
  0
LINE
  8
_0-0_計極細
  6
CONTINUOUS
 62
    2
 10
398.93374979597615
 20
509.46286737472758
 11
392.93374979597615
 21
509.46286737472758
  0
LINE
  8
_0-0_計極細
  6
CONTINUOUS
 62
    2
 10
384.93374979597615
 20
514.46286737472758
 11
378.93374979597615
 21
514.46286737472758
  0
LINE
  8
_0-0_計極細
  6
CONTINUOUS
 62
    2
 10
384.93374979597615
 20
509.46286737472758
 11
378.93374979597615
 21
509.46286737472758
  0
LINE
  8
_0-0_計極細
  6
CONTINUOUS
 62
    2
 10
370.93374979597621
 20
514.46286737472758
 11
364.93374979597615
 21
514.46286737472758
  0
LINE
  8
_0-0_計極細
  6
CONTINUOUS
 62
    2
 10
370.93374979597621
 20
509.46286737472758
 11
364.93374979597615
 21
509.46286737472758
  0
LINE
  8
_0-0_計極細
  6
CONTINUOUS
 62
    2
 10
356.93374979597615
 20
514.46286737472758
 11
350.93374979597621
 21
514.46286737472758
  0
LINE
  8
_0-0_計極細
  6
CONTINUOUS
 62
    2
 10
356.93374979597615
 20
509.46286737472758
 11
350.93374979597621
 21
509.46286737472758
  0
LINE
  8
_0-0_計極細
  6
CONTINUOUS
 62
    2
 10
342.93374979597615
 20
514.46286737472758
 11
336.93374979597615
 21
514.46286737472758
  0
LINE
  8
_0-0_計極細
  6
CONTINUOUS
 62
    2
 10
342.93374979597615
 20
509.46286737472758
 11
336.93374979597615
 21
509.46286737472758
  0
LINE
  8
_0-0_計極細
  6
CONTINUOUS
 62
    2
 10
328.93374979597615
 20
514.46286737472758
 11
322.93374979597615
 21
514.46286737472758
  0
LINE
  8
_0-0_計極細
  6
CONTINUOUS
 62
    2
 10
328.93374979597615
 20
509.46286737472758
 11
322.93374979597615
 21
509.46286737472758
  0
LINE
  8
_0-0_計極細
  6
CONTINUOUS
 62
    2
 10
314.93374979597615
 20
514.46286737472758
 11
308.93374979597615
 21
514.46286737472758
  0
LINE
  8
_0-0_計極細
  6
CONTINUOUS
 62
    2
 10
314.93374979597615
 20
509.46286737472758
 11
308.93374979597615
 21
509.46286737472758
  0
LINE
  8
_0-0_計極細
  6
CONTINUOUS
 62
    2
 10
300.93374979597615
 20
514.46286737472758
 11
294.93374979597615
 21
514.46286737472758
  0
LINE
  8
_0-0_計極細
  6
CONTINUOUS
 62
    2
 10
300.93374979597615
 20
509.46286737472758
 11
294.93374979597615
 21
509.46286737472758
  0
LINE
  8
_0-0_計極細
  6
CONTINUOUS
 62
    2
 10
286.93374979597621
 20
514.46286737472758
 11
280.93374979597615
 21
514.46286737472758
  0
LINE
  8
_0-0_計極細
  6
CONTINUOUS
 62
    2
 10
286.93374979597621
 20
509.46286737472758
 11
280.93374979597615
 21
509.46286737472758
  0
LINE
  8
_0-0_計極細
  6
CONTINUOUS
 62
    2
 10
272.93374979597615
 20
514.46286737472758
 11
266.93374979597621
 21
514.46286737472758
  0
LINE
  8
_0-0_計極細
  6
CONTINUOUS
 62
    2
 10
272.93374979597615
 20
509.46286737472758
 11
266.93374979597621
 21
509.46286737472758
  0
LINE
  8
_0-0_計極細
  6
CONTINUOUS
 62
    2
 10
258.93374979597615
 20
514.46286737472758
 11
252.93374979597615
 21
514.46286737472758
  0
LINE
  8
_0-0_計極細
  6
CONTINUOUS
 62
    2
 10
258.93374979597615
 20
509.46286737472758
 11
252.93374979597615
 21
509.46286737472758
  0
LINE
  8
_0-0_計極細
  6
CONTINUOUS
 62
    2
 10
244.93374979597618
 20
514.46286737472758
 11
238.93374979597615
 21
514.46286737472758
  0
LINE
  8
_0-0_計極細
  6
CONTINUOUS
 62
    2
 10
244.93374979597618
 20
509.46286737472758
 11
238.93374979597615
 21
509.46286737472758
  0
LINE
  8
_0-1_計細線
  6
CONTINUOUS
 62
    3
 10
238.93374979597615
 20
833.96286737472769
 11
238.93374979597615
 21
489.96286737472758
  0
LINE
  8
_0-1_計細線
  6
CONTINUOUS
 62
    3
 10
230.93374979597613
 20
489.96286737472758
 11
230.93374979597613
 21
833.96286737472769
  0
LINE
  8
_0-1_計細線
  6
CONTINUOUS
 62
    3
 10
252.93374979597615
 20
833.96286737472769
 11
252.93374979597615
 21
489.96286737472758
  0
LINE
  8
_0-1_計細線
  6
CONTINUOUS
 62
    3
 10
244.93374979597618
 20
489.96286737472758
 11
244.93374979597618
 21
833.96286737472769
  0
LINE
  8
_0-1_計細線
  6
CONTINUOUS
 62
    3
 10
266.93374979597621
 20
833.96286737472769
 11
266.93374979597621
 21
489.96286737472758
  0
LINE
  8
_0-1_計細線
  6
CONTINUOUS
 62
    3
 10
258.93374979597615
 20
489.96286737472758
 11
258.93374979597615
 21
833.96286737472769
  0
LINE
  8
_0-1_計細線
  6
CONTINUOUS
 62
    3
 10
280.93374979597615
 20
833.96286737472769
 11
280.93374979597615
 21
489.96286737472758
  0
LINE
  8
_0-1_計細線
  6
CONTINUOUS
 62
    3
 10
272.93374979597615
 20
489.96286737472758
 11
272.93374979597615
 21
833.96286737472769
  0
LINE
  8
_0-1_計細線
  6
CONTINUOUS
 62
    3
 10
294.93374979597615
 20
833.96286737472769
 11
294.93374979597615
 21
489.96286737472758
  0
LINE
  8
_0-1_計細線
  6
CONTINUOUS
 62
    3
 10
286.93374979597621
 20
489.96286737472758
 11
286.93374979597621
 21
833.96286737472769
  0
LINE
  8
_0-1_計細線
  6
CONTINUOUS
 62
    3
 10
308.93374979597615
 20
833.96286737472769
 11
308.93374979597615
 21
489.96286737472758
  0
LINE
  8
_0-1_計細線
  6
CONTINUOUS
 62
    3
 10
300.93374979597615
 20
489.96286737472758
 11
300.93374979597615
 21
833.96286737472769
  0
LINE
  8
_0-1_計細線
  6
CONTINUOUS
 62
    3
 10
322.93374979597615
 20
833.96286737472769
 11
322.93374979597615
 21
489.96286737472758
  0
LINE
  8
_0-1_計細線
  6
CONTINUOUS
 62
    3
 10
314.93374979597615
 20
489.96286737472758
 11
314.93374979597615
 21
833.96286737472769
  0
LINE
  8
_0-1_計細線
  6
CONTINUOUS
 62
    3
 10
336.93374979597615
 20
833.96286737472769
 11
336.93374979597615
 21
489.96286737472758
  0
LINE
  8
_0-1_計細線
  6
CONTINUOUS
 62
    3
 10
328.93374979597615
 20
489.96286737472758
 11
328.93374979597615
 21
833.96286737472769
  0
LINE
  8
_0-1_計細線
  6
CONTINUOUS
 62
    3
 10
350.93374979597621
 20
833.96286737472769
 11
350.93374979597621
 21
489.96286737472758
  0
LINE
  8
_0-1_計細線
  6
CONTINUOUS
 62
    3
 10
342.93374979597615
 20
489.96286737472758
 11
342.93374979597615
 21
833.96286737472769
  0
LINE
  8
_0-1_計細線
  6
CONTINUOUS
 62
    3
 10
364.93374979597615
 20
833.96286737472769
 11
364.93374979597615
 21
489.96286737472758
  0
LINE
  8
_0-1_計細線
  6
CONTINUOUS
 62
    3
 10
356.93374979597615
 20
489.96286737472758
 11
356.93374979597615
 21
833.96286737472769
  0
LINE
  8
_0-1_計細線
  6
CONTINUOUS
 62
    3
 10
378.93374979597615
 20
833.96286737472769
 11
378.93374979597615
 21
489.96286737472758
  0
LINE
  8
_0-1_計細線
  6
CONTINUOUS
 62
    3
 10
370.93374979597621
 20
489.96286737472758
 11
370.93374979597621
 21
833.96286737472769
  0
LINE
  8
_0-1_計細線
  6
CONTINUOUS
 62
    3
 10
392.93374979597615
 20
833.96286737472769
 11
392.93374979597615
 21
489.96286737472758
  0
LINE
  8
_0-1_計細線
  6
CONTINUOUS
 62
    3
 10
384.93374979597615
 20
489.96286737472758
 11
384.93374979597615
 21
833.96286737472769
  0
LINE
  8
_0-1_計細線
  6
CONTINUOUS
 62
    3
 10
406.93374979597621
 20
833.96286737472769
 11
406.93374979597621
 21
489.96286737472758
  0
LINE
  8
_0-1_計細線
  6
CONTINUOUS
 62
    3
 10
398.93374979597615
 20
489.96286737472758
 11
398.93374979597615
 21
833.96286737472769
  0
LINE
  8
_0-1_計細線
  6
CONTINUOUS
 62
    3
 10
420.93374979597621
 20
833.96286737472769
 11
420.93374979597621
 21
489.96286737472758
  0
LINE
  8
_0-1_計細線
  6
CONTINUOUS
 62
    3
 10
412.93374979597615
 20
489.96286737472758
 11
412.93374979597615
 21
833.96286737472769
  0
LINE
  8
_0-1_計細線
  6
CONTINUOUS
 62
    3
 10
434.93374979597615
 20
833.96286737472769
 11
434.93374979597615
 21
489.96286737472758
  0
LINE
  8
_0-1_計細線
  6
CONTINUOUS
 62
    3
 10
426.93374979597621
 20
489.96286737472758
 11
426.93374979597621
 21
833.96286737472769
  0
LINE
  8
_0-1_計細線
  6
CONTINUOUS
 62
    3
 10
448.93374979597615
 20
833.96286737472769
 11
448.93374979597615
 21
489.96286737472758
  0
LINE
  8
_0-1_計細線
  6
CONTINUOUS
 62
    3
 10
440.93374979597621
 20
489.96286737472758
 11
440.93374979597621
 21
833.96286737472769
  0
LINE
  8
_0-1_計細線
  6
CONTINUOUS
 62
    3
 10
462.93374979597615
 20
833.96286737472769
 11
462.93374979597615
 21
489.96286737472758
  0
LINE
  8
_0-1_計細線
  6
CONTINUOUS
 62
    3
 10
454.93374979597615
 20
489.96286737472758
 11
454.93374979597615
 21
833.96286737472769
  0
LINE
  8
_0-1_計細線
  6
CONTINUOUS
 62
    3
 10
476.93374979597621
 20
833.96286737472769
 11
476.93374979597621
 21
489.96286737472758
  0
LINE
  8
_0-1_計細線
  6
CONTINUOUS
 62
    3
 10
468.93374979597615
 20
489.96286737472758
 11
468.93374979597615
 21
833.96286737472769
  0
LINE
  8
_0-1_計細線
  6
CONTINUOUS
 62
    3
 10
490.93374979597621
 20
833.96286737472769
 11
490.93374979597621
 21
489.96286737472758
  0
LINE
  8
_0-1_計細線
  6
CONTINUOUS
 62
    3
 10
482.93374979597615
 20
489.96286737472758
 11
482.93374979597615
 21
833.96286737472769
  0
LINE
  8
_0-1_計細線
  6
CONTINUOUS
 62
    3
 10
504.93374979597615
 20
833.96286737472769
 11
504.93374979597615
 21
489.96286737472758
  0
LINE
  8
_0-1_計細線
  6
CONTINUOUS
 62
    3
 10
496.93374979597621
 20
489.96286737472758
 11
496.93374979597621
 21
833.96286737472769
  0
LINE
  8
_0-1_計細線
  6
CONTINUOUS
 62
    3
 10
518.93374979597615
 20
833.96286737472769
 11
518.93374979597615
 21
489.96286737472758
  0
LINE
  8
_0-1_計細線
  6
CONTINUOUS
 62
    3
 10
510.93374979597621
 20
489.96286737472758
 11
510.93374979597621
 21
833.96286737472769
  0
LINE
  8
_0-1_計細線
  6
CONTINUOUS
 62
    3
 10
532.93374979597615
 20
833.96286737472769
 11
532.93374979597615
 21
489.96286737472758
  0
LINE
  8
_0-1_計細線
  6
CONTINUOUS
 62
    3
 10
524.93374979597615
 20
489.96286737472758
 11
524.93374979597615
 21
833.96286737472769
  0
LINE
  8
_0-1_計細線
  6
CONTINUOUS
 62
    3
 10
546.93374979597615
 20
833.96286737472769
 11
546.93374979597615
 21
489.96286737472758
  0
LINE
  8
_0-1_計細線
  6
CONTINUOUS
 62
    3
 10
538.93374979597615
 20
489.96286737472758
 11
538.93374979597615
 21
833.96286737472769
  0
LINE
  8
_0-1_計細線
  6
CONTINUOUS
 62
    3
 10
560.93374979597615
 20
833.96286737472769
 11
560.93374979597615
 21
489.96286737472758
  0
LINE
  8
_0-1_計細線
  6
CONTINUOUS
 62
    3
 10
552.93374979597615
 20
489.96286737472758
 11
552.93374979597615
 21
833.96286737472769
  0
LINE
  8
_0-1_計細線
  6
CONTINUOUS
 62
    3
 10
574.93374979597615
 20
833.96286737472769
 11
574.93374979597615
 21
489.96286737472758
  0
LINE
  8
_0-1_計細線
  6
CONTINUOUS
 62
    3
 10
566.93374979597615
 20
489.96286737472758
 11
566.93374979597615
 21
833.96286737472769
  0
LINE
  8
_0-1_計細線
  6
CONTINUOUS
 62
    3
 10
588.93374979597615
 20
833.96286737472769
 11
588.93374979597615
 21
489.96286737472758
  0
LINE
  8
_0-1_計細線
  6
CONTINUOUS
 62
    3
 10
580.93374979597615
 20
489.96286737472758
 11
580.93374979597615
 21
833.96286737472769
  0
LINE
  8
_0-1_計細線
  6
CONTINUOUS
 62
    3
 10
602.93374979597615
 20
833.96286737472769
 11
602.93374979597615
 21
489.96286737472758
  0
LINE
  8
_0-1_計細線
  6
CONTINUOUS
 62
    3
 10
594.93374979597615
 20
489.96286737472758
 11
594.93374979597615
 21
833.96286737472769
  0
LINE
  8
_0-1_計細線
  6
CONTINUOUS
 62
    3
 10
616.93374979597615
 20
833.96286737472769
 11
616.93374979597615
 21
489.96286737472758
  0
LINE
  8
_0-1_計細線
  6
CONTINUOUS
 62
    3
 10
608.93374979597615
 20
489.96286737472758
 11
608.93374979597615
 21
833.96286737472769
  0
LINE
  8
_0-1_計細線
  6
CONTINUOUS
 62
    3
 10
630.93374979597615
 20
833.96286737472769
 11
630.93374979597615
 21
489.96286737472758
  0
LINE
  8
_0-1_計細線
  6
CONTINUOUS
 62
    3
 10
622.93374979597615
 20
489.96286737472758
 11
622.93374979597615
 21
833.96286737472769
  0
LINE
  8
_0-1_計細線
  6
CONTINUOUS
 62
    3
 10
644.93374979597615
 20
833.96286737472769
 11
644.93374979597615
 21
489.96286737472758
  0
LINE
  8
_0-1_計細線
  6
CONTINUOUS
 62
    3
 10
636.93374979597615
 20
489.96286737472758
 11
636.93374979597615
 21
833.96286737472769
  0
LINE
  8
_0-1_計細線
  6
CONTINUOUS
 62
    3
 10
658.93374979597627
 20
833.96286737472769
 11
658.93374979597627
 21
489.96286737472758
  0
LINE
  8
_0-1_計細線
  6
CONTINUOUS
 62
    3
 10
650.93374979597615
 20
489.96286737472758
 11
650.93374979597615
 21
833.96286737472769
  0
LINE
  8
_0-1_計細線
  6
CONTINUOUS
 62
    3
 10
672.93374979597615
 20
833.96286737472769
 11
672.93374979597615
 21
489.96286737472758
  0
LINE
  8
_0-1_計細線
  6
CONTINUOUS
 62
    3
 10
664.93374979597615
 20
489.96286737472758
 11
664.93374979597615
 21
833.96286737472769
  0
LINE
  8
_0-1_計細線
  6
CONTINUOUS
 62
    3
 10
686.93374979597615
 20
833.96286737472769
 11
686.93374979597615
 21
489.96286737472758
  0
LINE
  8
_0-1_計細線
  6
CONTINUOUS
 62
    3
 10
678.93374979597627
 20
489.96286737472758
 11
678.93374979597627
 21
833.96286737472769
  0
LINE
  8
_0-1_計細線
  6
CONTINUOUS
 62
    3
 10
700.93374979597615
 20
833.96286737472769
 11
700.93374979597615
 21
489.96286737472758
  0
LINE
  8
_0-1_計細線
  6
CONTINUOUS
 62
    3
 10
692.93374979597615
 20
489.96286737472758
 11
692.93374979597615
 21
833.96286737472769
  0
LINE
  8
_0-1_計細線
  6
CONTINUOUS
 62
    3
 10
714.93374979597615
 20
833.96286737472769
 11
714.93374979597615
 21
489.96286737472758
  0
LINE
  8
_0-1_計細線
  6
CONTINUOUS
 62
    3
 10
706.93374979597615
 20
489.96286737472758
 11
706.93374979597615
 21
833.96286737472769
  0
LINE
  8
_0-1_計細線
  6
CONTINUOUS
 62
    3
 10
728.93374979597627
 20
833.96286737472769
 11
728.93374979597627
 21
489.96286737472758
  0
LINE
  8
_0-1_計細線
  6
CONTINUOUS
 62
    3
 10
720.93374979597615
 20
489.96286737472758
 11
720.93374979597615
 21
833.96286737472769
  0
LINE
  8
_0-1_計細線
  6
CONTINUOUS
 62
    3
 10
742.93374979597615
 20
833.96286737472769
 11
742.93374979597615
 21
489.96286737472758
  0
LINE
  8
_0-1_計細線
  6
CONTINUOUS
 62
    3
 10
734.93374979597615
 20
489.96286737472758
 11
734.93374979597615
 21
833.96286737472769
  0
LINE
  8
_0-1_計細線
  6
CONTINUOUS
 62
    3
 10
756.93374979597615
 20
833.96286737472769
 11
756.93374979597615
 21
489.96286737472758
  0
LINE
  8
_0-1_計細線
  6
CONTINUOUS
 62
    3
 10
748.93374979597627
 20
489.96286737472758
 11
748.93374979597627
 21
833.96286737472769
  0
LINE
  8
_0-1_計細線
  6
CONTINUOUS
 62
    3
 10
770.93374979597627
 20
833.96286737472769
 11
770.93374979597627
 21
489.96286737472758
  0
LINE
  8
_0-1_計細線
  6
CONTINUOUS
 62
    3
 10
762.93374979597615
 20
489.96286737472758
 11
762.93374979597615
 21
833.96286737472769
  0
LINE
  8
_0-1_計細線
  6
CONTINUOUS
 62
    3
 10
784.93374979597615
 20
833.96286737472769
 11
784.93374979597615
 21
489.96286737472758
  0
LINE
  8
_0-1_計細線
  6
CONTINUOUS
 62
    3
 10
776.93374979597615
 20
489.96286737472758
 11
776.93374979597615
 21
833.96286737472769
  0
LINE
  8
_0-1_計細線
  6
CONTINUOUS
 62
    3
 10
798.93374979597627
 20
833.96286737472769
 11
798.93374979597627
 21
489.96286737472758
  0
LINE
  8
_0-1_計細線
  6
CONTINUOUS
 62
    3
 10
790.93374979597627
 20
489.96286737472758
 11
790.93374979597627
 21
833.96286737472769
  0
LINE
  8
_0-1_計細線
  6
CONTINUOUS
 62
    3
 10
812.93374979597615
 20
833.96286737472769
 11
812.93374979597615
 21
489.96286737472758
  0
LINE
  8
_0-1_計細線
  6
CONTINUOUS
 62
    3
 10
804.93374979597615
 20
489.96286737472758
 11
804.93374979597615
 21
833.96286737472769
  0
LINE
  8
_0-1_計細線
  6
CONTINUOUS
 62
    3
 10
826.93374979597615
 20
833.96286737472769
 11
826.93374979597615
 21
489.96286737472758
  0
LINE
  8
_0-1_計細線
  6
CONTINUOUS
 62
    3
 10
818.93374979597627
 20
489.96286737472758
 11
818.93374979597627
 21
833.96286737472769
  0
LINE
  8
_0-1_計細線
  6
CONTINUOUS
 62
    3
 10
840.93374979597627
 20
833.96286737472769
 11
840.93374979597627
 21
489.96286737472758
  0
LINE
  8
_0-1_計細線
  6
CONTINUOUS
 62
    3
 10
832.93374979597615
 20
489.96286737472758
 11
832.93374979597615
 21
833.96286737472769
  0
LINE
  8
_0-1_計細線
  6
CONTINUOUS
 62
    3
 10
854.93374979597615
 20
833.96286737472769
 11
854.93374979597615
 21
489.96286737472758
  0
LINE
  8
_0-1_計細線
  6
CONTINUOUS
 62
    3
 10
846.93374979597615
 20
489.96286737472758
 11
846.93374979597615
 21
833.96286737472769
  0
LINE
  8
_0-1_計細線
  6
CONTINUOUS
 62
    3
 10
868.93374979597627
 20
833.96286737472769
 11
868.93374979597627
 21
489.96286737472758
  0
LINE
  8
_0-1_計細線
  6
CONTINUOUS
 62
    3
 10
860.93374979597627
 20
489.96286737472758
 11
860.93374979597627
 21
833.96286737472769
  0
LINE
  8
_0-1_計細線
  6
CONTINUOUS
 62
    3
 10
882.93374979597615
 20
833.96286737472769
 11
882.93374979597615
 21
489.96286737472758
  0
LINE
  8
_0-1_計細線
  6
CONTINUOUS
 62
    3
 10
874.93374979597615
 20
489.96286737472758
 11
874.93374979597615
 21
833.96286737472769
  0
LINE
  8
_0-1_計細線
  6
CONTINUOUS
 62
    3
 10
896.93374979597615
 20
833.96286737472769
 11
896.93374979597615
 21
489.96286737472758
  0
LINE
  8
_0-1_計細線
  6
CONTINUOUS
 62
    3
 10
888.93374979597627
 20
489.96286737472758
 11
888.93374979597627
 21
833.96286737472769
  0
LINE
  8
_0-1_計細線
  6
CONTINUOUS
 62
    3
 10
910.93374979597627
 20
833.96286737472769
 11
910.93374979597627
 21
489.96286737472758
  0
LINE
  8
_0-1_計細線
  6
CONTINUOUS
 62
    3
 10
902.93374979597615
 20
489.96286737472758
 11
902.93374979597615
 21
833.96286737472769
  0
LINE
  8
_0-1_計細線
  6
CONTINUOUS
 62
    3
 10
924.93374979597615
 20
833.96286737472769
 11
924.93374979597615
 21
489.96286737472758
  0
LINE
  8
_0-1_計細線
  6
CONTINUOUS
 62
    3
 10
916.93374979597615
 20
489.96286737472758
 11
916.93374979597615
 21
833.96286737472769
  0
LINE
  8
_0-1_計細線
  6
CONTINUOUS
 62
    3
 10
938.93374979597627
 20
833.96286737472769
 11
938.93374979597627
 21
489.96286737472758
  0
LINE
  8
_0-1_計細線
  6
CONTINUOUS
 62
    3
 10
930.93374979597627
 20
489.96286737472758
 11
930.93374979597627
 21
833.96286737472769
  0
LINE
  8
_0-1_計細線
  6
CONTINUOUS
 62
    3
 10
952.93374979597615
 20
833.96286737472769
 11
952.93374979597615
 21
489.96286737472758
  0
LINE
  8
_0-1_計細線
  6
CONTINUOUS
 62
    3
 10
944.93374979597615
 20
489.96286737472758
 11
944.93374979597615
 21
833.96286737472769
  0
LINE
  8
_0-1_計細線
  6
CONTINUOUS
 62
    3
 10
966.93374979597615
 20
833.96286737472769
 11
966.93374979597615
 21
489.96286737472758
  0
LINE
  8
_0-1_計細線
  6
CONTINUOUS
 62
    3
 10
958.93374979597627
 20
489.96286737472758
 11
958.93374979597627
 21
833.96286737472769
  0
LINE
  8
_0-1_計細線
  6
CONTINUOUS
 62
    3
 10
980.93374979597627
 20
833.96286737472769
 11
980.93374979597627
 21
489.96286737472758
  0
LINE
  8
_0-1_計細線
  6
CONTINUOUS
 62
    3
 10
972.93374979597615
 20
489.96286737472758
 11
972.93374979597615
 21
833.96286737472769
  0
LINE
  8
_0-1_計細線
  6
CONTINUOUS
 62
    3
 10
994.93374979597615
 20
833.96286737472769
 11
994.93374979597615
 21
489.96286737472758
  0
LINE
  8
_0-1_計細線
  6
CONTINUOUS
 62
    3
 10
986.93374979597615
 20
489.96286737472758
 11
986.93374979597615
 21
833.96286737472769
  0
LINE
  8
_0-1_計細線
  6
CONTINUOUS
 62
    3
 10
1008.9337497959763
 20
833.96286737472769
 11
1008.9337497959763
 21
489.96286737472758
  0
LINE
  8
_0-1_計細線
  6
CONTINUOUS
 62
    3
 10
1000.9337497959763
 20
489.96286737472758
 11
1000.9337497959763
 21
833.96286737472769
  0
LINE
  8
_0-1_計細線
  6
CONTINUOUS
 62
    3
 10
1022.9337497959762
 20
833.96286737472769
 11
1022.9337497959762
 21
489.96286737472758
  0
LINE
  8
_0-1_計細線
  6
CONTINUOUS
 62
    3
 10
1014.9337497959762
 20
489.96286737472758
 11
1014.9337497959762
 21
833.96286737472769
  0
LINE
  8
_0-1_計細線
  6
CONTINUOUS
 62
    3
 10
1036.9337497959762
 20
833.96286737472769
 11
1036.9337497959762
 21
489.96286737472758
  0
LINE
  8
_0-1_計細線
  6
CONTINUOUS
 62
    3
 10
1028.9337497959762
 20
489.96286737472758
 11
1028.9337497959762
 21
833.96286737472769
  0
LINE
  8
_0-1_計細線
  6
CONTINUOUS
 62
    3
 10
1050.9337497959764
 20
833.96286737472769
 11
1050.9337497959764
 21
489.96286737472758
  0
LINE
  8
_0-1_計細線
  6
CONTINUOUS
 62
    3
 10
1042.9337497959762
 20
489.96286737472758
 11
1042.9337497959762
 21
833.96286737472769
  0
LINE
  8
_0-1_計細線
  6
CONTINUOUS
 62
    3
 10
1064.9337497959762
 20
833.96286737472769
 11
1064.9337497959762
 21
489.96286737472758
  0
LINE
  8
_0-1_計細線
  6
CONTINUOUS
 62
    3
 10
1056.9337497959762
 20
489.96286737472758
 11
1056.9337497959762
 21
833.96286737472769
  0
LINE
  8
_0-1_計細線
  6
CONTINUOUS
 62
    3
 10
1078.9337497959762
 20
833.96286737472769
 11
1078.9337497959762
 21
489.96286737472758
  0
LINE
  8
_0-1_計細線
  6
CONTINUOUS
 62
    3
 10
1070.9337497959764
 20
489.96286737472758
 11
1070.9337497959764
 21
833.96286737472769
  0
LINE
  8
_0-1_計細線
  6
CONTINUOUS
 62
    3
 10
1092.9337497959762
 20
833.96286737472769
 11
1092.9337497959762
 21
489.96286737472758
  0
LINE
  8
_0-1_計細線
  6
CONTINUOUS
 62
    3
 10
1084.9337497959762
 20
489.96286737472758
 11
1084.9337497959762
 21
833.96286737472769
  0
LINE
  8
_0-1_計細線
  6
CONTINUOUS
 62
    3
 10
1106.9337497959762
 20
833.96286737472769
 11
1106.9337497959762
 21
489.96286737472758
  0
LINE
  8
_0-1_計細線
  6
CONTINUOUS
 62
    3
 10
1098.9337497959762
 20
489.96286737472758
 11
1098.9337497959762
 21
833.96286737472769
  0
LINE
  8
_0-1_計細線
  6
CONTINUOUS
 62
    3
 10
1120.9337497959764
 20
833.96286737472769
 11
1120.9337497959764
 21
489.96286737472758
  0
LINE
  8
_0-1_計細線
  6
CONTINUOUS
 62
    3
 10
1112.9337497959762
 20
489.96286737472758
 11
1112.9337497959762
 21
833.96286737472769
  0
LINE
  8
_0-1_計細線
  6
CONTINUOUS
 62
    3
 10
1134.9337497959757
 20
833.96286737472769
 11
1134.9337497959757
 21
489.96286737472758
  0
LINE
  8
_0-1_計細線
  6
CONTINUOUS
 62
    3
 10
1126.9337497959757
 20
489.96286737472758
 11
1126.9337497959757
 21
833.96286737472769
  0
LINE
  8
_0-1_計細線
  6
CONTINUOUS
 62
    3
 10
1148.9337497959759
 20
833.96286737472769
 11
1148.9337497959759
 21
489.96286737472758
  0
LINE
  8
_0-1_計細線
  6
CONTINUOUS
 62
    3
 10
1140.9337497959757
 20
489.96286737472758
 11
1140.9337497959757
 21
833.96286737472769
  0
LINE
  8
_0-1_計細線
  6
CONTINUOUS
 62
    3
 10
1162.9337497959757
 20
833.96286737472769
 11
1162.9337497959757
 21
489.96286737472758
  0
LINE
  8
_0-1_計細線
  6
CONTINUOUS
 62
    3
 10
1154.9337497959757
 20
489.96286737472758
 11
1154.9337497959757
 21
833.96286737472769
  0
LINE
  8
_0-1_計細線
  6
CONTINUOUS
 62
    3
 10
1176.9337497959757
 20
833.96286737472769
 11
1176.9337497959757
 21
489.96286737472758
  0
LINE
  8
_0-1_計細線
  6
CONTINUOUS
 62
    3
 10
1168.9337497959759
 20
489.96286737472758
 11
1168.9337497959759
 21
833.96286737472769
  0
LINE
  8
_0-1_計細線
  6
CONTINUOUS
 62
    3
 10
1190.9337497959757
 20
833.96286737472769
 11
1190.9337497959757
 21
489.96286737472758
  0
LINE
  8
_0-1_計細線
  6
CONTINUOUS
 62
    3
 10
1182.9337497959757
 20
489.96286737472758
 11
1182.9337497959757
 21
833.96286737472769
  0
LINE
  8
_0-1_計細線
  6
CONTINUOUS
 62
    3
 10
1204.9337497959757
 20
833.96286737472769
 11
1204.9337497959757
 21
489.96286737472758
  0
LINE
  8
_0-1_計細線
  6
CONTINUOUS
 62
    3
 10
1196.9337497959757
 20
489.96286737472758
 11
1196.9337497959757
 21
833.96286737472769
  0
LINE
  8
_0-1_計細線
  6
CONTINUOUS
 62
    3
 10
1218.9337497959759
 20
833.96286737472769
 11
1218.9337497959759
 21
489.96286737472758
  0
LINE
  8
_0-1_計細線
  6
CONTINUOUS
 62
    3
 10
1210.9337497959757
 20
489.96286737472758
 11
1210.9337497959757
 21
833.96286737472769
  0
LINE
  8
_0-0_計極細
  6
CENTER2
 62
    2
 10
1248.933749795975
 20
661.96286737472849
 11
200.93374979597547
 21
661.96286737472849
  0
LINE
  8
_0-5_寸法線
  6
CONTINUOUS
 62
    7
 10
190.93374979597726
 20
481.96286737473037
 11
145.93374979597641
 21
481.96286737473054
  0
LINE
  8
_0-5_寸法線
  6
CONTINUOUS
 62
    7
 10
150.93374979597641
 20
481.96286737473054
 11
148.3455593449512
 21
491.6221256376212
  0
LINE
  8
_0-5_寸法線
  6
CONTINUOUS
 62
    7
 10
150.93374979597641
 20
481.96286737473054
 11
153.52194024700162
 21
491.6221256376212
  0
LINE
  8
_0-5_寸法線
  6
CONTINUOUS
 62
    7
 10
190.93374979597726
 20
511.96286737473082
 11
145.93374979597641
 21
511.96286737473088
  0
LINE
  8
_0-5_寸法線
  6
CONTINUOUS
 62
    7
 10
150.93374979597641
 20
511.96286737473088
 11
153.52194024700154
 21
502.30360911184022
  0
LINE
  8
_0-5_寸法線
  6
CONTINUOUS
 62
    7
 10
150.93374979597641
 20
511.96286737473088
 11
148.34555934495114
 21
502.30360911184022
  0
LINE
  8
_0-5_寸法線
  6
CONTINUOUS
 62
    7
 10
150.93374979597641
 20
481.96286737473054
 11
150.93374979597641
 21
511.96286737473088
  0
TEXT
  8
_0-5_寸法線
 62
    7
 10
150.93374979597641
 20
489.46286737472747
 40
15
 41
1
 50
90
  1
30
  0
LINE
  8
_0-5_寸法線
  6
CONTINUOUS
 62
    7
 10
150.93374979597641
 20
511.96286737473088
 11
148.3455593449512
 21
521.62212563762159
  0
LINE
  8
_0-5_寸法線
  6
CONTINUOUS
 62
    7
 10
150.93374979597641
 20
511.96286737473088
 11
153.52194024700162
 21
521.62212563762159
  0
LINE
  8
_0-5_寸法線
  6
CONTINUOUS
 62
    7
 10
190.93374979597641
 20
811.96286737472633
 11
145.93374979597641
 21
811.96286737472633
  0
LINE
  8
_0-5_寸法線
  6
CONTINUOUS
 62
    7
 10
150.93374979597641
 20
811.96286737472633
 11
153.52194024700154
 21
802.30360911183561
  0
LINE
  8
_0-5_寸法線
  6
CONTINUOUS
 62
    7
 10
150.93374979597641
 20
811.96286737472633
 11
148.34555934495114
 21
802.30360911183561
  0
LINE
  8
_0-5_寸法線
  6
CONTINUOUS
 62
    7
 10
150.93374979597641
 20
511.96286737473088
 11
150.93374979597641
 21
811.96286737472633
  0
TEXT
  8
_0-5_寸法線
 62
    7
 10
150.93374979597633
 20
650.71286737472747
 40
15
 41
1
 50
89.999999999999815
  1
300
  0
LINE
  8
_0-5_寸法線
  6
CONTINUOUS
 62
    7
 10
150.93374979597641
 20
811.96286737472633
 11
148.3455593449512
 21
821.62212563761716
  0
LINE
  8
_0-5_寸法線
  6
CONTINUOUS
 62
    7
 10
150.93374979597641
 20
811.96286737472633
 11
153.52194024700162
 21
821.62212563761716
  0
LINE
  8
_0-5_寸法線
  6
CONTINUOUS
 62
    7
 10
190.93374979597775
 20
841.96286737473133
 11
145.93374979597641
 21
841.96286737473145
  0
LINE
  8
_0-5_寸法線
  6
CONTINUOUS
 62
    7
 10
150.93374979597641
 20
841.96286737473145
 11
153.52194024700154
 21
832.30360911184084
  0
LINE
  8
_0-5_寸法線
  6
CONTINUOUS
 62
    7
 10
150.93374979597641
 20
841.96286737473145
 11
148.34555934495114
 21
832.30360911184084
  0
LINE
  8
_0-5_寸法線
  6
CONTINUOUS
 62
    7
 10
150.93374979597641
 20
811.96286737472633
 11
150.93374979597641
 21
841.96286737473145
  0
TEXT
  8
_0-5_寸法線
 62
    7
 10
150.93374979597641
 20
819.46286737472758
 40
15
 41
1
 50
90
  1
30
  0
LINE
  8
_0-5_寸法線
  6
CONTINUOUS
 62
    7
 10
1258.9337497959759
 20
481.96286737472752
 11
1338.9337497959762
 21
481.96286737472735
  0
LINE
  8
_0-5_寸法線
  6
CONTINUOUS
 62
    7
 10
1333.9337497959762
 20
481.96286737472735
 11
1331.3455593449507
 21
491.62212563761796
  0
LINE
  8
_0-5_寸法線
  6
CONTINUOUS
 62
    7
 10
1333.9337497959762
 20
481.96286737472735
 11
1336.5219402470011
 21
491.62212563761796
  0
LINE
  8
_0-5_寸法線
  6
CONTINUOUS
 62
    7
 10
1258.9337497959759
 20
841.96286737472758
 11
1338.9337497959762
 21
841.96286737472747
  0
LINE
  8
_0-5_寸法線
  6
CONTINUOUS
 62
    7
 10
1333.9337497959762
 20
841.96286737472747
 11
1336.5219402470011
 21
832.30360911183664
  0
LINE
  8
_0-5_寸法線
  6
CONTINUOUS
 62
    7
 10
1333.9337497959762
 20
841.96286737472747
 11
1331.3455593449507
 21
832.30360911183664
  0
LINE
  8
_0-5_寸法線
  6
CONTINUOUS
 62
    7
 10
1333.9337497959762
 20
481.96286737472735
 11
1333.9337497959762
 21
841.96286737472747
  0
TEXT
  8
_0-5_寸法線
 62
    7
 10
1333.9337497959762
 20
650.71286737472678
 40
15
 41
1
 50
90
  1
360
  0
LINE
  8
_0-5_寸法線
  6
CONTINUOUS
 62
    7
 10
563.86406605873776
 20
483.34084972416042
 11
568.86406610962229
 21
474.68059571569427
  0
LINE
  8
_0-5_寸法線
  6
CONTINUOUS
 62
    7
 10
563.86406605873776
 20
483.34084972416042
 11
563.86406611749419
 21
473.34084972416042
  0
LINE
  8
_0-5_寸法線
  6
CONTINUOUS
 62
    7
 10
563.86406605873776
 20
483.34084972416042
 11
572.0615355608727
 21
452.74747776771954
  0
LINE
  8
_0-5_寸法線
  6
CONTINUOUS
 62
    7
 10
572.0615355608727
 20
452.74747776771954
 11
680.06153556087281
 21
452.74747776771954
  0
TEXT
  8
_0-5_寸法線
 62
    7
 10
572.0615355608727
 20
452.74747776771954
 40
15
 41
0.8000000000000001
 50
0
  1
ＳＵＳアングル受枠
  0
TEXT
  8
_0-5_寸法線
 62
    7
 10
573.23923576593677
 20
437.63014964635772
 40
15
 41
0.8000000000000001
 50
0
  1
ＧＳＬ－２０
  0
LINE
  8
_0-5_寸法線
  6
CONTINUOUS
 62
    7
 10
779.66677905980066
 20
526.31957087254261
 11
784.66677906446762
 21
517.65931683739268
  0
LINE
  8
_0-5_寸法線
  6
CONTINUOUS
 62
    7
 10
779.66677905980066
 20
526.31957087254261
 11
779.66677906518953
 21
516.31957087254261
  0
LINE
  8
_0-5_寸法線
  6
CONTINUOUS
 62
    7
 10
779.66677905980066
 20
526.31957087254261
 11
799.38036203520016
 21
452.74747776771954
  0
LINE
  8
_0-5_寸法線
  6
CONTINUOUS
 62
    7
 10
799.38036203520016
 20
452.74747776771954
 11
931.38036203520005
 21
452.74747776771954
  0
TEXT
  8
_0-5_寸法線
 62
    7
 10
799.38036203520016
 20
452.74747776771954
 40
15
 41
0.8000000000000001
 50
0
  1
ステンレスグレーチング
  0
TEXT
  8
_0-5_寸法線
 62
    7
 10
798.96873353719434
 20
437.73975852859178
 40
15
 41
0.8000000000000001
 50
0
  1
ＧＳＴＪ－２０Ｗ３５０
  0
LINE
  8
_0-5_寸法線
  6
CONTINUOUS
 62
    7
 10
1258.9337497959759
 20
481.96286737472752
 11
1303.9337497959762
 21
481.96286737472747
  0
LINE
  8
_0-5_寸法線
  6
CONTINUOUS
 62
    7
 10
1298.9337497959762
 20
481.96286737472747
 11
1301.5219402470011
 21
472.30360911183675
  0
LINE
  8
_0-5_寸法線
  6
CONTINUOUS
 62
    7
 10
1298.9337497959762
 20
481.96286737472747
 11
1296.3455593449507
 21
472.30360911183681
  0
LINE
  8
_0-5_寸法線
  6
CONTINUOUS
 62
    7
 10
1258.9337497959759
 20
484.96286737472821
 11
1303.9337497959762
 21
484.96286737472815
  0
CIRCLE
  8
_0-5_寸法線
  6
CONTINUOUS
 62
    1
 10
1298.9337497959762
 20
484.96286737472815
 40
1.5000000000000002
  0
LINE
  8
_0-5_寸法線
  6
CONTINUOUS
 62
    7
 10
1298.9337497959762
 20
456.96286737472747
 11
1298.9337497959762
 21
484.96286737472815
  0
TEXT
  8
_0-5_寸法線
 62
    7
 10
1298.9337497959762
 20
460.20011731122645
 40
15
 41
1
 50
90
  1
3
  0
LINE
  8
_0-5_寸法線
  6
CONTINUOUS
 62
    7
 10
1258.9337497959759
 20
486.96286737472752
 11
1303.9337497959762
 21
486.96286737472747
  0
LINE
  8
_0-5_寸法線
  6
CONTINUOUS
 62
    7
 10
1298.9337497959762
 20
484.96286737472815
 11
1298.9337497959762
 21
486.96286737472747
  0
TEXT
  8
_0-5_寸法線
 62
    7
 10
1317.9382900905625
 20
484.96286737472821
 40
15
 41
1
 50
90
  1
2
  0
LINE
  8
_0-5_寸法線
  6
CONTINUOUS
 62
    7
 10
1298.9337497959762
 20
486.96286737472747
 11
1296.3455593449507
 21
496.62212563761813
  0
LINE
  8
_0-5_寸法線
  6
CONTINUOUS
 62
    7
 10
1298.9337497959762
 20
486.96286737472747
 11
1301.5219402470011
 21
496.62212563761813
  0
LINE
  8
_0-5_寸法線
  6
CONTINUOUS
 62
    7
 10
1258.9337497959759
 20
836.96286737472758
 11
1303.9337497959762
 21
836.96286737472747
  0
LINE
  8
_0-5_寸法線
  6
CONTINUOUS
 62
    7
 10
1298.9337497959762
 20
836.96286737472747
 11
1301.5219402470011
 21
827.30360911183675
  0
LINE
  8
_0-5_寸法線
  6
CONTINUOUS
 62
    7
 10
1298.9337497959762
 20
836.96286737472747
 11
1296.3455593449507
 21
827.30360911183675
  0
LINE
  8
_0-5_寸法線
  6
CONTINUOUS
 62
    7
 10
1298.9337497959762
 20
486.96286737472747
 11
1298.9337497959762
 21
836.96286737472747
  0
TEXT
  8
_0-5_寸法線
 62
    7
 10
1298.9337497959762
 20
650.71286737472769
 40
15
 41
1
 50
90
  1
350
  0
LINE
  8
_0-5_寸法線
  6
CONTINUOUS
 62
    7
 10
1258.9337497959759
 20
838.96286737472769
 11
1303.9337497959762
 21
838.96286737472747
  0
CIRCLE
  8
_0-5_寸法線
  6
CONTINUOUS
 62
    1
 10
1298.9337497959762
 20
838.96286737472747
 40
1.5000000000000002
  0
LINE
  8
_0-5_寸法線
  6
CONTINUOUS
 62
    7
 10
1298.9337497959762
 20
836.96286737472747
 11
1298.9337497959762
 21
838.96286737472747
  0
TEXT
  8
_0-5_寸法線
 62
    7
 10
1318.1627092024521
 20
831.46286737472769
 40
15
 41
1
 50
90
  1
2
  0
LINE
  8
_0-5_寸法線
  6
CONTINUOUS
 62
    7
 10
1258.9337497959759
 20
841.96286737472758
 11
1303.9337497959762
 21
841.96286737472747
  0
LINE
  8
_0-5_寸法線
  6
CONTINUOUS
 62
    7
 10
1298.9337497959762
 20
841.96286737472747
 11
1296.3455593449507
 21
851.6221256376183
  0
LINE
  8
_0-5_寸法線
  6
CONTINUOUS
 62
    7
 10
1298.9337497959762
 20
841.96286737472747
 11
1301.5219402470011
 21
851.6221256376183
  0
LINE
  8
_0-5_寸法線
  6
CONTINUOUS
 62
    7
 10
1298.9337497959762
 20
838.96286737472747
 11
1298.9337497959762
 21
866.96286737472747
  0
TEXT
  8
_0-5_寸法線
 62
    7
 10
1298.9337497959762
 20
855.61207263545748
 40
15
 41
1
 50
90
  1
3
  0
LINE
  8
_0-d_寸法3
  6
CONTINUOUS
 62
    7
 10
170.43065977017227
 20
376.66982257687505
 11
160.77140150728155
 21
374.08163212584986
  0
LINE
  8
_0-d_寸法3
  6
CONTINUOUS
 62
    7
 10
170.43065977017227
 20
376.66982257687505
 11
160.77140150728161
 21
379.25801302790029
  0
LINE
  8
_0-d_寸法3
  6
CONTINUOUS
 62
    7
 10
175.43065977017207
 20
295.83648924354156
 11
175.43065977017227
 21
381.66982257687505
  0
CIRCLE
  8
_0-d_寸法3
  6
CONTINUOUS
 62
    1
 10
175.43065977017227
 20
376.66982257687505
 40
1.5000000000000002
  0
LINE
  8
_0-d_寸法3
  6
CONTINUOUS
 62
    7
 10
145.43065977017227
 20
376.66982257687505
 11
175.43065977017227
 21
376.66982257687505
  0
TEXT
  8
_0-d_寸法3
 62
    7
 10
149.28599182624907
 20
376.66982257687505
 40
15
 41
1
 50
0
  1
3
  0
LINE
  8
_0-d_寸法3
  6
CONTINUOUS
 62
    7
 10
178.76399310350507
 20
293.33648757519722
 11
178.76399310350536
 21
381.66982257687505
  0
LINE
  8
_0-d_寸法3
  6
CONTINUOUS
 62
    7
 10
175.43065977017227
 20
376.66982257687505
 11
178.76399310350536
 21
376.66982257687505
  0
TEXT
  8
_0-d_寸法3
 62
    7
 10
173.34732643683856
 20
376.66982257687505
 40
15
 41
1
 50
0
  1
2
  0
LINE
  8
_0-d_寸法3
  6
CONTINUOUS
 62
    7
 10
178.76399310350536
 20
376.66982257687505
 11
188.42325136639602
 21
379.25801302790029
  0
LINE
  8
_0-d_寸法3
  6
CONTINUOUS
 62
    7
 10
178.76399310350536
 20
376.66982257687505
 11
188.42325136639602
 21
374.08163212584986
  0
LINE
  8
_0-d_寸法3
  6
CONTINUOUS
 62
    7
 10
762.09732643683867
 20
293.33648757519722
 11
762.09732643683878
 21
381.66982257687505
  0
LINE
  8
_0-d_寸法3
  6
CONTINUOUS
 62
    7
 10
762.09732643683878
 20
376.66982257687505
 11
752.43806817394807
 21
374.08163212584986
  0
LINE
  8
_0-d_寸法3
  6
CONTINUOUS
 62
    7
 10
762.09732643683878
 20
376.66982257687505
 11
752.43806817394807
 21
379.25801302790029
  0
LINE
  8
_0-d_寸法3
  6
CONTINUOUS
 62
    7
 10
178.76399310350536
 20
376.66982257687505
 11
762.09732643683878
 21
376.66982257687505
  0
TEXT
  8
_0-d_寸法3
 62
    7
 10
459.18065977017204
 20
376.66982257687505
 40
15
 41
1
 50
0
  1
350
  0
LINE
  8
_0-d_寸法3
  6
CONTINUOUS
 62
    7
 10
765.43065977017181
 20
295.83648924354156
 11
765.43065977017181
 21
381.66982257687505
  0
CIRCLE
  8
_0-d_寸法3
  6
CONTINUOUS
 62
    1
 10
765.43065977017181
 20
376.66982257687505
 40
1.5000000000000002
  0
LINE
  8
_0-d_寸法3
  6
CONTINUOUS
 62
    7
 10
762.09732643683878
 20
376.66982257687505
 11
765.43065977017181
 21
376.66982257687505
  0
TEXT
  8
_0-d_寸法3
 62
    7
 10
760.01399310350507
 20
376.66982257687505
 40
15
 41
1
 50
0
  1
2
  0
LINE
  8
_0-d_寸法3
  6
CONTINUOUS
 62
    7
 10
770.43065977017193
 20
376.66982257687505
 11
780.08991803306253
 21
379.25801302790023
  0
LINE
  8
_0-d_寸法3
  6
CONTINUOUS
 62
    7
 10
770.43065977017193
 20
376.66982257687505
 11
780.08991803306253
 21
374.08163212584981
  0
LINE
  8
_0-d_寸法3
  6
CONTINUOUS
 62
    7
 10
765.43065977017181
 20
376.66982257687505
 11
795.43065977017193
 21
376.66982257687505
  0
TEXT
  8
_0-d_寸法3
 62
    7
 10
784.55564091564702
 20
376.66982257687505
 40
15
 41
1
 50
0
  1
3
  0
ENDSEC
  0
EOF
