  0
SECTION
  2
HEADER
  9
$ACADVER
  1
AC1009
  9
$INSBASE
 10
0
 20
0
 30
0
  9
$EXTMIN
 10
0
 20
0
  9
$EXTMAX
 10
1485
 20
1050
  9
$LIMMIN
 10
0
 20
0
  9
$LIMMAX
 10
1485
 20
1050
  9
$LTSCALE
 40
5
  0
ENDSEC
  0
SECTION
  2
TABLES
  0
TABLE
  2
LTYPE
 70
     9
  0
LTYPE
  2
CONTINUOUS
 70
    64
  3
実線
 72
    65
 73
     0
 40
0.0
  0
LTYPE
  2
DASHED1
 70
    64
  3
--  --  --  --  --  --  --  --  
 72
    65
 73
     2
 40
2.5
 49
1.25
 49
-1.25
  0
LTYPE
  2
DASHED2
 70
    64
  3
----    ----    ----    ----    
 72
    65
 73
     2
 40
5.0
 49
2.5
 49
-2.5
  0
LTYPE
  2
DASHED3
 70
    64
  3
------  ------  ------  ------  
 72
    65
 73
     2
 40
5.0
 49
3.75
 49
-1.25
  0
LTYPE
  2
CENTER1
 70
    64
  3
----- - ----- - ----- - ----- - 
 72
    65
 73
     4
 40
10.0
 49
6.25
 49
-1.25
 49
1.25
 49
-1.25
  0
LTYPE
  2
CENTER2
 70
    64
  3
----------  --  ----------  --  
 72
    65
 73
     4
 40
20.0
 49
12.5
 49
-2.5
 49
2.5
 49
-2.5
  0
LTYPE
  2
PHANTOM1
 70
    64
  3
--- - - --- - - --- - - --- - - 
 72
    65
 73
     6
 40
10.0
 49
3.25
 49
-1.25
 49
1.25
 49
-1.25
 49
1.25
 49
-1.25
  0
LTYPE
  2
PHANTOM2
 70
    64
  3
--------  -  -  --------  -  -  
 72
    65
 73
     6
 40
20.0
 49
10.0
 49
-2.5
 49
1.25
 49
-2.5
 49
1.25
 49
-2.5
  0
LTYPE
  2
DOT
 70
    64
  3
-   -   -   -   -   -   -   -   
 72
    65
 73
     2
 40
2.5
 49
0.625
 49
-1.875
  0
LTYPE
  2
DUMMY
 70
    64
  3
ダミー
 72
    65
 73
     0
 40
0.0
  0
LTYPE
  2
RAND1
 70
    64
  3
ランダム線1
 72
    65
 73
     4
 40
10.0
 49
1.0
 49
-2.0
 49
3.0
 49
-4.0
  0
LTYPE
  2
RAND2
 70
    64
  3
ランダム線2
 72
    65
 73
     4
 40
14.0
 49
2.0
 49
-3.0
 49
4.0
 49
-5.0
  0
LTYPE
  2
RAND3
 70
    64
  3
ランダム線3
 72
    65
 73
     4
 40
18.0
 49
3.0
 49
-4.0
 49
5.0
 49
-6.0
  0
LTYPE
  2
RAND4
 70
    64
  3
ランダム線4
 72
    65
 73
     4
 40
22.0
 49
4.0
 49
-5.0
 49
6.0
 49
-7.0
  0
LTYPE
  2
RAND5
 70
    64
  3
ランダム線5
 72
    65
 73
     4
 40
26.0
 49
5.0
 49
-6.0
 49
7.0
 49
-8.0
  0
LTYPE
  2
LONG1
 70
    64
  3
----------  --  ----------  --  
 72
    65
 73
     4
 40
40.0
 49
32.5
 49
-2.5
 49
2.5
 49
-2.5
  0
LTYPE
  2
LONG2
 70
    64
  3
--------  -  -  --------  -  -  
 72
    65
 73
     6
 40
40.0
 49
30.0
 49
-2.5
 49
1.25
 49
-2.5
 49
1.25
 49
-2.5
  0
LTYPE
  2
LONG3
 70
    64
  3
+++++++++++++++..+++++++++++++++
 72
    65
 73
     2
 40
40.0
 49
37.5
 49
-2.5
  0
LTYPE
  2
LONG4
 70
    64
  3
+++++++++++++++..+++++++++++++++
 72
    65
 73
     2
 40
80.0
 49
75.0
 49
-5.0
  0
LTYPE
  2
LONG5
 70
    64
  3
----------  --  ----------  --  
 72
    65
 73
     4
 40
60.0
 49
37.5
 49
-7.5
 49
7.5
 49
-7.5
  0
LTYPE
  2
dashed
 70
   64
  3
-------   -------------   ------
 72
   65
 73
    2
 40
7.5
 49
6
 49
-1.5
  0
LTYPE
  2
dashed_spaced
 70
   64
  3
----        --------        ----
 72
   65
 73
    2
 40
12
 49
6
 49
-6
  0
LTYPE
  2
long_dashed_dotted
 70
   64
  3
------------- --- --------------
 72
   65
 73
    4
 40
15.25
 49
12
 49
-1.5
 49
0.25
 49
-1.5
  0
LTYPE
  2
long_dashed_double-dotted
 70
   64
  3
----------- --- --- ------------
 72
   65
 73
    6
 40
17
 49
12
 49
-1.5
 49
0.25
 49
-1.5
 49
0.25
 49
-1.5
  0
LTYPE
  2
long_dashed_triplicate-dotted
 70
   64
  3
--------- --- --- --- ----------
 72
   65
 73
    8
 40
18.75
 49
12
 49
-1.5
 49
0.25
 49
-1.5
 49
0.25
 49
-1.5
 49
0.25
 49
-1.5
  0
LTYPE
  2
dotted
 70
   64
  3
   -       -       -       -    
 72
   65
 73
    2
 40
1.75
 49
0.25
 49
-1.5
  0
LTYPE
  2
chain
 70
   64
  3
-------------- -- --------------
 72
   65
 73
    4
 40
18.5
 49
12
 49
-1.5
 49
3.5
 49
-1.5
  0
LTYPE
  2
chain_double_dash
 70
   64
  3
------------ -- -- -------------
 72
   65
 73
    6
 40
23.5
 49
12
 49
-1.5
 49
3.5
 49
-1.5
 49
3.5
 49
-1.5
  0
LTYPE
  2
dashed_dotted
 70
   64
  3
-----------     -     ----------
 72
   65
 73
    4
 40
9.25
 49
6
 49
-1.5
 49
0.25
 49
-1.5
  0
LTYPE
  2
double-dashed_dotted
 70
   64
  3
------   -----------   -   -----
 72
   65
 73
    6
 40
16.75
 49
6
 49
-1.5
 49
6
 49
-1.5
 49
0.25
 49
-1.5
  0
LTYPE
  2
dashed_double-dotted
 70
   64
  3
---------    -    -    ---------
 72
   65
 73
    6
 40
11
 49
6
 49
-1.5
 49
0.25
 49
-1.5
 49
0.25
 49
-1.5
  0
LTYPE
  2
double-dashed_double-dotted
 70
   64
  3
-----   ---------   -   -   ----
 72
   65
 73
    8
 40
18.5
 49
6
 49
-1.5
 49
6
 49
-1.5
 49
0.25
 49
-1.5
 49
0.25
 49
-1.5
  0
LTYPE
  2
dashed_triplicate-dotted
 70
   64
  3
-------    -    -    -    ------
 72
   65
 73
    8
 40
12.75
 49
6
 49
-1.5
 49
0.25
 49
-1.5
 49
0.25
 49
-1.5
 49
0.25
 49
-1.5
  0
LTYPE
  2
double-dashed_triplicate-dotted
 70
   64
  3
-----  ---------  -  -  -  -----
 72
   65
 73
   10
 40
20.25
 49
6
 49
-1.5
 49
6
 49
-1.5
 49
0.25
 49
-1.5
 49
0.25
 49
-1.5
 49
0.25
 49
-1.5
  0
LTYPE
  2
undefined
 70
   64
  3
--------------------------------
 72
   65
 73
    0
 40
0
  0
ENDTAB
  0
TABLE
  2
STYLE
  5
3
100
AcDbSymbolTable
 70
     1
  0
STYLE
  5
10
100
AcDbSymbolTableRecord
100
AcDbTextStyleTableRecord
  2
STANDARD
 70
     0
 40
0.0
 41
1.0
 50
0.0
 71
     0
 42
0.2
  3
txt
  4
bigfont.shx
  0
STYLE
  5
26
100
AcDbSymbolTableRecord
100
AcDbTextStyleTableRecord
  2
TATEGAKI
 70
    68
 40
0.0
 41
1.0
 50
0.0
 71
     0
 42
1.0
  3
txt
  4
bigfont.shx
  0
ENDTAB
  0
TABLE
  2
LAYER
 70
   10
  0
LAYER
  2
_0-0_計極細
 70
   64
 62
    7
  6
CONTINUOUS
  0
LAYER
  2
_0-1_計細線
 70
   64
 62
    7
  6
CONTINUOUS
  0
LAYER
  2
_0-5_寸法線
 70
   64
 62
    7
  6
CONTINUOUS
  0
LAYER
  2
_0-7_枠細線
 70
   64
 62
    7
  6
CONTINUOUS
  0
LAYER
  2
_0-8_枠中線
 70
   64
 62
    7
  6
CONTINUOUS
  0
LAYER
  2
_0-9_枠極太
 70
   64
 62
    7
  6
CONTINUOUS
  0
LAYER
  2
_0-a_極細3
 70
   64
 62
    7
  6
CONTINUOUS
  0
LAYER
  2
_0-b_細線3
 70
   64
 62
    7
  6
CONTINUOUS
  0
LAYER
  2
_0-d_寸法3
 70
   64
 62
    7
  6
CONTINUOUS
  0
LAYER
  2
ADD_LINE
 70
   64
 62
    7
  6
CONTINUOUS
  0
ENDTAB
  0
ENDSEC
  0
SECTION
  2
BLOCKS
  0
ENDSEC
  0
SECTION
  2
ENTITIES
  0
LINE
  8
_0-7_枠細線
  6
CONTINUOUS
 62
    5
 10
1425
 20
942.5
 11
890
 21
942.5
  0
TEXT
  8
_0-7_枠細線
 62
    5
 10
895
 20
945
 40
12.5
 41
1
 50
0
  1
記号
  0
TEXT
  8
_0-7_枠細線
 62
    5
 10
996.875
 20
945
 40
12.5
 41
1
 50
0
  1
訂　 正　 記　 事
  0
TEXT
  8
_0-7_枠細線
 62
    5
 10
1181.25
 20
945
 40
12.5
 41
1
 50
0
  1
訂 正 年 月 日
  0
TEXT
  8
_0-7_枠細線
 62
    5
 10
1306.25
 20
945
 40
12.5
 41
1
 50
0
  1
備　　　　　考
  0
LINE
  8
_0-7_枠細線
  6
CONTINUOUS
 62
    5
 10
1185
 20
180
 11
1185
 21
100
  0
TEXT
  8
_0-7_枠細線
 62
    5
 10
937.5
 20
97.5
 40
17.5
 41
1
 50
0
  1
備考
  7
TATEGAKI
  0
TEXT
  8
_0-7_枠細線
 62
    5
 10
937.5
 20
137.5
 40
17.5
 41
1
 50
0
  1
品番
  7
TATEGAKI
  0
TEXT
  8
_0-7_枠細線
 62
    5
 10
937.5
 20
177.5
 40
17.5
 41
1
 50
0
  1
品名
  7
TATEGAKI
  0
LINE
  8
_0-7_枠細線
  6
CONTINUOUS
 62
    5
 10
1185
 20
140
 11
925
 21
140
  0
LINE
  8
_0-7_枠細線
  6
CONTINUOUS
 62
    5
 10
950
 20
180
 11
950
 21
60
  0
LINE
  8
_0-8_枠中線
  6
CONTINUOUS
 62
    5
 10
1425
 20
180
 11
925
 21
180
  0
LINE
  8
_0-8_枠中線
  6
CONTINUOUS
 62
    5
 10
925
 20
180
 11
925
 21
60
  0
LINE
  8
_0-7_枠細線
  6
CONTINUOUS
 62
    5
 10
1245
 20
180
 11
1245
 21
60
  0
TEXT
  8
_0-7_枠細線
 62
    5
 10
1192.5
 20
160
 40
15
 41
1
 50
0
  1
縮　尺
  0
TEXT
  8
_0-7_枠細線
 62
    5
 10
1194
 20
117.5
 40
20
 41
0.7000000000000001
 50
0
  1
１：５
  0
LINE
  8
_0-7_枠細線
  6
CONTINUOUS
 62
    5
 10
1185
 20
155
 11
1245
 21
155
  0
LINE
  8
_0-7_枠細線
  6
CONTINUOUS
 62
    5
 10
1245
 20
100
 11
925
 21
100
  0
LINE
  8
_0-7_枠細線
  6
CONTINUOUS
 62
    5
 10
1425
 20
90
 11
1245
 21
90
  0
LINE
  8
_0-7_枠細線
  6
CONTINUOUS
 62
    5
 10
1245
 20
120
 11
1425
 21
120
  0
LINE
  8
_0-7_枠細線
  6
CONTINUOUS
 62
    5
 10
1425
 20
140
 11
1245
 21
140
  0
TEXT
  8
_0-7_枠細線
 62
    5
 10
1255
 20
147.5
 40
25
 41
0.8
 50
0
  1
株式会社シマブン
  0
TEXT
  8
_0-7_枠細線
 62
    5
 10
1252.5
 20
60
 40
15
 41
1
 50
0
  1
年月日
  0
TEXT
  8
_0-7_枠細線
 62
    5
 10
1252.5
 20
75
 40
15
 41
1
 50
0
  1
作　成
  0
TEXT
  8
_0-7_枠細線
 62
    5
 10
1256.25
 20
122.5
 40
15
 41
1
 50
0
  1
承 認
  0
LINE
  8
_0-7_枠細線
  6
CONTINUOUS
 62
    5
 10
1305
 20
140
 11
1305
 21
60
  0
TEXT
  8
_0-7_枠細線
 62
    5
 10
1316.25
 20
122.5
 40
15
 41
1
 50
0
  1
検 図
  0
LINE
  8
_0-7_枠細線
  6
CONTINUOUS
 62
    5
 10
1365
 20
140
 11
1365
 21
90
  0
TEXT
  8
_0-7_枠細線
 62
    5
 10
1375
 20
95
 40
20
 41
1
 50
0
  1
藤戸
  0
TEXT
  8
_0-7_枠細線
 62
    5
 10
1376.25
 20
122.5
 40
15
 41
1
 50
0
  1
設 計
  0
TEXT
  8
_0-7_枠細線
 62
    5
 10
1255
 20
95
 40
20
 41
1
 50
0
  1
隠塚
  0
TEXT
  8
_0-7_枠細線
 62
    5
 10
1315
 20
95
 40
20
 41
1
 50
0
  1
渋田
  0
TEXT
  8
_0-7_枠細線
 62
    5
 10
1310
 20
67.5
 40
15
 41
0.6666666666666666
 50
0
  1
２０１２年０２月２９日
  0
LINE
  8
_0-7_枠細線
  6
CONTINUOUS
 62
    5
 10
1425
 20
925
 11
890
 21
925
  0
TEXT
  8
_0-7_枠細線
 62
    5
 10
938.85037037037023
 20
927.5
 40
12.500000000000002
 41
1
 50
0
  1
品番変更
  0
TEXT
  8
_0-7_枠細線
 62
    5
 10
1180
 20
927.5
 40
12.5
 41
0.7199999999999999
 50
0
  1
２０１５．０４．０１
  0
TEXT
  8
_0-7_枠細線
 62
    5
 10
965.50000000000011
 20
150
 40
20
 41
0.5
 50
0
  1
Ｔバー ステンレスグレーチング Ｈ１５タイプ
  0
LINE
  8
_0-a_極細3
  6
CENTER1
 62
    7
 10
470.43065977017199
 20
252.04894320581718
 11
470.43065977017199
 21
307.16560987249011
  0
TEXT
  8
_0-7_枠細線
 62
    5
 10
535.45758188010586
 20
118.23440768958889
 40
20
 41
0.6
 50
0
  1
Ｓ＝１：３
  0
TEXT
  8
_0-7_枠細線
 62
    5
 10
424.67527879760519
 20
118.23440768958889
 40
25
 41
0.8
 50
0
  1
断面詳細図
  0
CIRCLE
  8
_0-a_極細3
  6
CONTINUOUS
 62
    7
 10
372.0475659003227
 20
278.19373866348235
 40
0.5530864197530718
  0
LINE
  8
_0-a_極細3
  6
CONTINUOUS
 62
    7
 10
377.0973264368385
 20
293.23477269126704
 11
377.0973264368385
 21
281.56810602460007
  0
LINE
  8
_0-a_極細3
  6
CONTINUOUS
 62
    7
 10
385.43065977017199
 20
281.56810602460007
 11
287.91957929172389
 21
281.56810602460007
  0
LINE
  8
_0-a_極細3
  6
CONTINUOUS
 62
    7
 10
385.43065977017199
 20
292.40143935793355
 11
385.43065977017199
 21
293.23477269126704
  0
LINE
  8
_0-a_極細3
  6
CONTINUOUS
 62
    7
 10
385.23256951381245
 20
281.56810602460007
 11
385.43065977017159
 21
281.76619628095966
  0
LINE
  8
_0-a_極細3
  6
CONTINUOUS
 62
    7
 10
380.9899288266933
 20
281.56810602460007
 11
385.43065977017199
 21
286.00883696807875
  0
LINE
  8
_0-a_極細3
  6
CONTINUOUS
 62
    7
 10
377.0973264368385
 20
281.91814432186482
 11
385.43065977017199
 21
290.25147765519807
  0
LINE
  8
_0-a_極細3
  6
CONTINUOUS
 62
    7
 10
377.0973264368385
 20
286.16078500898391
 11
384.17131411912123
 21
293.23477269126704
  0
LINE
  8
_0-a_極細3
  6
CONTINUOUS
 62
    7
 10
377.0973264368385
 20
290.40342569610345
 11
379.92867343200209
 21
293.23477269126704
  0
LINE
  8
_0-a_極細3
  6
CONTINUOUS
 62
    7
 10
385.43065977017199
 20
290.95380581900838
 11
383.14969289791355
 21
293.23477269126704
  0
LINE
  8
_0-a_極細3
  6
CONTINUOUS
 62
    7
 10
385.43065977017199
 20
286.71116513188906
 11
378.90705221079401
 21
293.23477269126704
  0
LINE
  8
_0-a_極細3
  6
CONTINUOUS
 62
    7
 10
377.0973264368385
 20
290.80185777810323
 11
385.43065977017199
 21
282.46852444476997
  0
LINE
  8
_0-a_極細3
  6
CONTINUOUS
 62
    7
 10
377.0973264368385
 20
286.55921709098391
 11
382.08843750322188
 21
281.56810602460007
  0
LINE
  8
_0-a_極細3
  6
CONTINUOUS
 62
    7
 10
377.0973264368385
 20
282.31657640386459
 11
377.84579681610285
 21
281.56810602460007
  0
LINE
  8
_0-a_極細3
  6
CONTINUOUS
 62
    7
 10
368.26200675920791
 20
281.5681060184728
 11
377.0973264368385
 21
290.40342569610345
  0
LINE
  8
_0-a_極細3
  6
CONTINUOUS
 62
    7
 10
347.0488033089004
 20
281.56810600376173
 11
358.71546999640572
 21
293.23477269126681
  0
LINE
  8
_0-a_極細3
  6
CONTINUOUS
 62
    7
 10
325.83559985859256
 20
281.5681059890502
 11
337.50226656080889
 21
293.23477269126704
  0
LINE
  8
_0-a_極細3
  6
CONTINUOUS
 62
    7
 10
304.62239640828454
 20
281.56810597433912
 11
316.28906312521252
 21
293.23477269126704
  0
LINE
  8
_0-a_極細3
  6
CONTINUOUS
 62
    7
 10
287.91957929172389
 20
286.07849229337432
 11
295.07585968961621
 21
293.23477269126681
  0
LINE
  8
_0-a_極細3
  6
DASHED2
 62
    7
 10
357.65540503405413
 20
281.56810601111727
 11
369.32207171420396
 21
293.23477269126704
  0
LINE
  8
_0-a_極細3
  6
DASHED2
 62
    7
 10
336.44220158374623
 20
281.56810599640596
 11
348.10886827860759
 21
293.23477269126704
  0
LINE
  8
_0-a_極細3
  6
DASHED2
 62
    7
 10
315.22899813343884
 20
281.56810598169466
 11
326.89566484301076
 21
293.23477269126704
  0
LINE
  8
_0-a_極細3
  6
DASHED2
 62
    7
 10
294.01579468313088
 20
281.56810596698358
 11
305.68246140741439
 21
293.23477269126704
  0
LINE
  8
_0-a_極細3
  6
CONTINUOUS
 62
    7
 10
318.76399310350507
 20
256.5681060246003
 11
318.76399310350507
 21
188.23477269126704
  0
LINE
  8
_0-a_極細3
  6
CONTINUOUS
 62
    7
 10
402.0973264368385
 20
188.23477269126704
 11
318.76399310350507
 21
188.23477269126704
  0
LINE
  8
_0-a_極細3
  6
CONTINUOUS
 62
    7
 10
318.76399310350507
 20
256.5681060246003
 11
287.91957929172389
 21
256.5681060246003
  0
LINE
  8
_0-a_極細3
  6
CONTINUOUS
 62
    7
 10
402.0973264368385
 20
188.23477269126704
 11
402.0973264368385
 21
161.99317239648792
  0
LINE
  8
_0-a_極細3
  6
CONTINUOUS
 62
    7
 10
364.6753518718487
 20
161.99317251292484
 11
390.91695205019136
 21
188.23477269126704
  0
LINE
  8
_0-a_極細3
  6
CONTINUOUS
 62
    7
 10
293.96467397320748
 20
161.99317273293801
 11
320.20627393153654
 21
188.23477269126704
  0
LINE
  8
_0-a_極細3
  6
CONTINUOUS
 62
    7
 10
287.91957929172389
 20
226.65875617010931
 11
317.82892914621516
 21
256.5681060246003
  0
LINE
  8
_0-a_極細3
  6
CONTINUOUS
 62
    7
 10
357.60428408198459
 20
161.99317253492623
 11
383.8458842383256
 21
188.23477269126704
  0
LINE
  8
_0-a_極細3
  6
CONTINUOUS
 62
    7
 10
287.91957929172389
 20
163.01914586332003
 11
318.76399310350507
 21
193.86355967510133
  0
LINE
  8
_0-a_極細3
  6
CONTINUOUS
 62
    7
 10
287.91957929172389
 20
233.72982398197485
 11
310.75786133434929
 21
256.5681060246003
  0
LINE
  8
_0-a_極細3
  6
CONTINUOUS
 62
    7
 10
350.53321629212087
 20
161.99317255692762
 11
376.77481642646029
 21
188.23477269126704
  0
LINE
  8
_0-a_極細3
  6
CONTINUOUS
 62
    7
 10
287.91957929172389
 20
170.09021367518557
 11
318.76399310350507
 21
200.93462748696686
  0
LINE
  8
_0-a_極細3
  6
CONTINUOUS
 62
    7
 10
287.91957929172389
 20
240.80089179384018
 11
303.68679352248409
 21
256.5681060246003
  0
CIRCLE
  8
_0-a_極細3
  6
CONTINUOUS
 62
    7
 10
305.81546713489109
 20
271.77151644126036
 40
0.5530864197530718
  0
CIRCLE
  8
_0-a_極細3
  6
CONTINUOUS
 62
    7
 10
295.48460293736071
 20
261.81596088570484
 40
0.5530864197530718
  0
CIRCLE
  8
_0-a_極細3
  6
CONTINUOUS
 62
    7
 10
306.0920103447678
 20
262.88262755237145
 40
0.5530864197530718
  0
CIRCLE
  8
_0-a_極細3
  6
CONTINUOUS
 62
    7
 10
318.71423256699018
 20
264.83818310792697
 40
0.5530864197530718
  0
CIRCLE
  8
_0-a_極細3
  6
CONTINUOUS
 62
    7
 10
347.15867701143401
 20
276.57151644126031
 40
0.5530864197530718
  0
CIRCLE
  8
_0-a_極細3
  6
CONTINUOUS
 62
    7
 10
377.73645478921162
 20
270.34929421903814
 40
0.5530864197530718
  0
CIRCLE
  8
_0-a_極細3
  6
CONTINUOUS
 62
    7
 10
352.84756590032288
 20
269.81596088570484
 40
0.5530864197530718
  0
CIRCLE
  8
_0-a_極細3
  6
CONTINUOUS
 62
    7
 10
325.65867701143446
 20
257.58262755237149
 40
0.5530864197530718
  0
CIRCLE
  8
_0-a_極細3
  6
CONTINUOUS
 62
    7
 10
346.10312145587835
 20
256.33818310792697
 40
0.5530864197530718
  0
CIRCLE
  8
_0-a_極細3
  6
CONTINUOUS
 62
    7
 10
371.16978812254496
 20
252.60484977459384
 40
0.5530864197530718
  0
CIRCLE
  8
_0-a_極細3
  6
CONTINUOUS
 62
    7
 10
358.54756590032275
 20
246.91596088570498
 40
0.5530864197530718
  0
CIRCLE
  8
_0-a_極細3
  6
CONTINUOUS
 62
    7
 10
343.79201034476773
 20
233.40484977459383
 40
0.5530864197530718
  0
CIRCLE
  8
_0-a_極細3
  6
CONTINUOUS
 62
    7
 10
371.16978812254496
 20
240.69373866348283
 40
0.5530864197530718
  0
CIRCLE
  8
_0-a_極細3
  6
CONTINUOUS
 62
    7
 10
330.0586770114341
 20
213.58262755237195
 40
0.5530864197530718
  0
CIRCLE
  8
_0-a_極細3
  6
CONTINUOUS
 62
    7
 10
324.36978812254523
 20
195.6270719968164
 40
0.5530864197530718
  0
CIRCLE
  8
_0-a_極細3
  6
CONTINUOUS
 62
    7
 10
333.08089923365651
 20
202.38262755237187
 40
0.5530864197530718
  0
CIRCLE
  8
_0-a_極細3
  6
CONTINUOUS
 62
    7
 10
339.30312145587862
 20
193.84929421903863
 40
0.5530864197530718
  0
CIRCLE
  8
_0-a_極細3
  6
CONTINUOUS
 62
    7
 10
378.60312145587835
 20
211.73818310792754
 40
0.5530864197530718
  0
CIRCLE
  8
_0-a_極細3
  6
CONTINUOUS
 62
    7
 10
367.40312145587859
 20
206.22707199681633
 40
0.5530864197530718
  0
CIRCLE
  8
_0-a_極細3
  6
CONTINUOUS
 62
    7
 10
373.62534367810071
 20
203.73818310792757
 40
0.5530864197530718
  0
CIRCLE
  8
_0-a_極細3
  6
CONTINUOUS
 62
    7
 10
370.06978812254511
 20
194.49373866348324
 40
0.5530864197530718
  0
CIRCLE
  8
_0-a_極細3
  6
CONTINUOUS
 62
    7
 10
389.98089923365615
 20
195.56040533014979
 40
0.5530864197530718
  0
CIRCLE
  8
_0-a_極細3
  6
CONTINUOUS
 62
    7
 10
402.95867701143379
 20
198.76040533014987
 40
0.5530864197530718
  0
CIRCLE
  8
_0-a_極細3
  6
CONTINUOUS
 62
    7
 10
416.6475659003226
 20
183.82707199681676
 40
0.5530864197530718
  0
CIRCLE
  8
_0-a_極細3
  6
CONTINUOUS
 62
    7
 10
409.71423256698927
 20
168.89373866348336
 40
0.5530864197530718
  0
CIRCLE
  8
_0-a_極細3
  6
CONTINUOUS
 62
    7
 10
393.0475659003227
 20
212.50855347829784
 40
0.5530864197530718
  0
CIRCLE
  8
_0-a_極細3
  6
CONTINUOUS
 62
    7
 10
407.80312145587823
 20
246.64188681163103
 40
0.5530864197530718
  0
CIRCLE
  8
_0-a_極細3
  6
CONTINUOUS
 62
    7
 10
422.91423256698909
 20
236.68633125607553
 40
0.5530864197530718
  0
CIRCLE
  8
_0-a_極細3
  6
CONTINUOUS
 62
    7
 10
423.44756590032233
 20
218.73077570052001
 40
0.5530864197530718
  0
CIRCLE
  8
_0-a_極細3
  6
CONTINUOUS
 62
    7
 10
388.20312145587826
 20
248.46410903385311
 40
0.5530864197530718
  0
CIRCLE
  8
_0-a_極細3
  6
CONTINUOUS
 62
    7
 10
367.91423256698948
 20
270.44805965113699
 40
1.825531472681392
  0
CIRCLE
  8
_0-a_極細3
  6
CONTINUOUS
 62
    7
 10
316.1521128655545
 20
277.37767392583476
 40
1.825531472681392
  0
CIRCLE
  8
_0-a_極細3
  6
CONTINUOUS
 62
    7
 10
342.69201034476731
 20
247.64805965113706
 40
1.825531472681392
  0
CIRCLE
  8
_0-a_極細3
  6
CONTINUOUS
 62
    7
 10
323.09201034476746
 20
209.64805965113752
 40
1.825531472681392
  0
CIRCLE
  8
_0-a_極細3
  6
CONTINUOUS
 62
    7
 10
376.29201034476682
 20
196.84805965113782
 40
1.825531472681392
  0
CIRCLE
  8
_0-a_極細3
  6
CONTINUOUS
 62
    7
 10
412.26978812254447
 20
193.24805965113782
 40
1.825531472681392
  0
CIRCLE
  8
_0-a_極細3
  6
CONTINUOUS
 62
    7
 10
417.0697881225442
 20
174.58139298447136
 40
1.825531472681392
  0
CIRCLE
  8
_0-a_極細3
  6
CONTINUOUS
 62
    7
 10
295.95503332447504
 20
278.27028187335907
 40
1.825531472681392
  0
LINE
  8
_0-a_極細3
  6
CONTINUOUS
 62
    7
 10
434.5973264368385
 20
263.23477269126704
 11
435.43065977017199
 21
263.23477269126704
  0
LINE
  8
_0-a_極細3
  6
CONTINUOUS
 62
    7
 10
435.43065977017199
 20
263.23477269126704
 11
435.43065977017199
 21
161.99317239648792
  0
CIRCLE
  8
_0-a_極細3
  6
CONTINUOUS
 62
    7
 10
428.5432256225431
 20
247.24805965113762
 40
1.825531472681392
  0
CIRCLE
  8
_0-a_極細3
  6
CONTINUOUS
 62
    7
 10
427.55126960402595
 20
192.53818310792767
 40
0.5530864197530718
  0
CIRCLE
  8
_0-a_極細3
  6
CONTINUOUS
 62
    7
 10
428.88460293735989
 20
169.88211207475786
 40
0.5530864197530718
  0
CIRCLE
  8
_0-a_極細3
  6
CONTINUOUS
 62
    7
 10
416.51423256698484
 20
228.13694854002676
 40
1.825531472681392
  0
LINE
  8
_0-a_極細3
  6
CONTINUOUS
 62
    7
 10
341.79059154968672
 20
213.11647385377057
 11
336.66028939980146
 21
227.21186316555907
  0
LINE
  8
_0-a_極細3
  6
CONTINUOUS
 62
    7
 10
391.78463422348335
 20
247.27548386480535
 11
396.91493637336811
 21
233.18009455301683
  0
LINE
  8
_0-a_極細3
  6
CONTINUOUS
 62
    7
 10
336.66028939980146
 20
227.21186316555907
 11
391.78463422348335
 21
247.27548386480535
  0
LINE
  8
_0-a_極細3
  6
CONTINUOUS
 62
    7
 10
341.79059154968672
 20
213.11647385377057
 11
396.91493637336811
 21
233.18009455301683
  0
LINE
  8
_0-a_極細3
  6
CENTER1
 62
    7
 10
334.27000708275131
 20
218.36053846963492
 11
398.30102756531733
 21
241.66592395467035
  0
LINE
  8
_0-a_極細3
  6
CONTINUOUS
 62
    7
 10
360.43065977017199
 20
188.23477269126704
 11
360.43065977017199
 21
232.32033403958314
  0
LINE
  8
_0-a_極細3
  6
CONTINUOUS
 62
    7
 10
360.43065977017199
 20
232.32033403958314
 11
345.43065977017199
 21
232.32033403958314
  0
LINE
  8
_0-a_極細3
  6
CONTINUOUS
 62
    7
 10
345.43065977017199
 20
232.32033403958314
 11
345.43065977017199
 21
188.23477269126704
  0
CIRCLE
  8
_0-a_極細3
  6
CONTINUOUS
 62
    7
 10
374.81052886328592
 20
218.15670162644585
 40
1.825531472681392
  0
CIRCLE
  8
_0-a_極細3
  6
CONTINUOUS
 62
    7
 10
396.51917083859462
 20
224.37892384866828
 40
1.825531472681392
  0
LINE
  8
_0-a_極細3
  6
CENTER1
 62
    7
 10
352.93065977017199
 20
179.95803240681411
 11
352.93065977017199
 21
236.59605420419268
  0
LINE
  8
_0-d_寸法3
  6
CONTINUOUS
 62
    7
 10
385.43065977017199
 20
214.90143935793381
 11
385.43065977017199
 21
197.75674745702844
  0
LINE
  8
_0-d_寸法3
  6
CONTINUOUS
 62
    7
 10
385.43065977017199
 20
202.75674745702844
 11
395.08991803306265
 21
205.34493790805359
  0
LINE
  8
_0-d_寸法3
  6
CONTINUOUS
 62
    7
 10
385.43065977017199
 20
202.75674745702844
 11
395.08991803306265
 21
200.16855700600317
  0
LINE
  8
_0-d_寸法3
  6
CONTINUOUS
 62
    7
 10
435.43065977017193
 20
253.23477269126704
 11
435.43065977017147
 21
197.75674745702844
  0
LINE
  8
_0-d_寸法3
  6
CONTINUOUS
 62
    7
 10
435.43065977017159
 20
202.75674745702844
 11
425.77140150728087
 21
200.16855700600317
  0
LINE
  8
_0-d_寸法3
  6
CONTINUOUS
 62
    7
 10
435.43065977017159
 20
202.75674745702844
 11
425.77140150728093
 21
205.34493790805362
  0
LINE
  8
_0-d_寸法3
  6
CONTINUOUS
 62
    7
 10
385.43065977017199
 20
202.75674745702844
 11
435.43065977017159
 21
202.75674745702844
  0
TEXT
  8
_0-d_寸法3
 62
    7
 10
402.93065977017159
 20
202.75674745702844
 40
15
 41
1
 50
0
  1
30
  0
ARC
  8
_0-b_細線3
  6
CONTINUOUS
 62
    7
 10
390.43065977017199
 20
268.23477269126704
 40
5
 50
179.99999999999983
 51
269.99999999999977
  0
LINE
  8
_0-b_細線3
  6
CONTINUOUS
 62
    7
 10
385.43065977017199
 20
268.23477269126704
 11
385.43065977017199
 21
292.40143935793355
  0
LINE
  8
_0-b_細線3
  6
CONTINUOUS
 62
    7
 10
390.43065977017199
 20
263.23477269126704
 11
434.5973264368385
 21
263.23477269126704
  0
LINE
  8
_0-b_細線3
  6
CONTINUOUS
 62
    7
 10
435.43065977017199
 20
264.0681060246003
 11
434.5973264368385
 21
263.23477269126704
  0
LINE
  8
_0-b_細線3
  6
CONTINUOUS
 62
    7
 10
435.43065977017199
 20
267.40143935793378
 11
435.43065977017199
 21
264.0681060246003
  0
LINE
  8
_0-b_細線3
  6
CONTINUOUS
 62
    7
 10
434.5973264368385
 20
268.23477269126704
 11
435.43065977017199
 21
267.40143935793378
  0
LINE
  8
_0-b_細線3
  6
CONTINUOUS
 62
    7
 10
390.43065977017199
 20
268.23477269126704
 11
434.5973264368385
 21
268.23477269126704
  0
LINE
  8
_0-b_細線3
  6
CONTINUOUS
 62
    7
 10
386.26399310350507
 20
293.23477269126704
 11
385.43065977017199
 21
292.40143935793355
  0
LINE
  8
_0-b_細線3
  6
CONTINUOUS
 62
    7
 10
389.5973264368385
 20
293.23477269126704
 11
386.26399310350507
 21
293.23477269126704
  0
LINE
  8
_0-b_細線3
  6
CONTINUOUS
 62
    7
 10
390.43065977017199
 20
292.40143935793355
 11
389.5973264368385
 21
293.23477269126704
  0
LINE
  8
_0-b_細線3
  6
CONTINUOUS
 62
    7
 10
390.43065977017199
 20
268.23477269126704
 11
390.43065977017199
 21
292.40143935793355
  0
LINE
  8
_0-a_極細3
  6
CONTINUOUS
 62
    7
 10
385.43065977017199
 20
293.23477269126704
 11
287.91957929172389
 21
293.23477269126704
  0
CIRCLE
  8
_0-a_極細3
  6
CONTINUOUS
 62
    7
 10
627.42534367809685
 20
278.50022014496369
 40
0.5530864197530718
  0
CIRCLE
  8
_0-a_極細3
  6
CONTINUOUS
 62
    7
 10
575.42534367809731
 20
279.43355347829709
 40
0.5530864197530718
  0
LINE
  8
_0-a_極細3
  6
CONTINUOUS
 62
    7
 10
563.76399310350507
 20
293.23477269126704
 11
563.76399310350507
 21
281.56810602460007
  0
LINE
  8
_0-a_極細3
  6
CONTINUOUS
 62
    7
 10
555.43065977017159
 20
281.56810602460007
 11
652.94174024861968
 21
281.56810602460007
  0
LINE
  8
_0-a_極細3
  6
CONTINUOUS
 62
    7
 10
555.43065977017159
 20
292.40143935793355
 11
555.43065977017159
 21
293.23477269126704
  0
LINE
  8
_0-a_極細3
  6
CONTINUOUS
 62
    7
 10
563.76399310350507
 20
285.23719230532504
 11
560.0949068227801
 21
281.56810602460007
  0
LINE
  8
_0-a_極細3
  6
CONTINUOUS
 62
    7
 10
563.76399310350507
 20
289.47983299244413
 11
555.85226613566101
 21
281.56810602460007
  0
LINE
  8
_0-a_極細3
  6
CONTINUOUS
 62
    7
 10
555.43065977017159
 20
285.38914034623019
 11
563.27629211520843
 21
293.23477269126704
  0
LINE
  8
_0-a_極細3
  6
CONTINUOUS
 62
    7
 10
555.43065977017159
 20
289.63178103334951
 11
559.03365142808889
 21
293.23477269126681
  0
LINE
  8
_0-a_極細3
  6
CONTINUOUS
 62
    7
 10
563.76399310350507
 20
291.72545048176141
 11
562.25467089399945
 21
293.23477269126704
  0
LINE
  8
_0-a_極細3
  6
CONTINUOUS
 62
    7
 10
563.76399310350507
 20
287.48280979464209
 11
558.01203020688035
 21
293.23477269126704
  0
LINE
  8
_0-a_極細3
  6
CONTINUOUS
 62
    7
 10
563.76399310350507
 20
283.24016910752277
 11
555.43065977017159
 21
291.57350244085626
  0
LINE
  8
_0-a_極細3
  6
CONTINUOUS
 62
    7
 10
561.19341549930823
 20
281.56810602460007
 11
555.43065977017159
 21
287.33086175373694
  0
LINE
  8
_0-a_極細3
  6
CONTINUOUS
 62
    7
 10
556.95077481218914
 20
281.56810602460007
 11
555.43065977017159
 21
283.08822106661762
  0
LINE
  8
_0-a_極細3
  6
CONTINUOUS
 62
    7
 10
632.21979850380785
 20
281.56810602460007
 11
643.88646454368563
 21
293.23477206447785
  0
LINE
  8
_0-a_極細3
  6
CONTINUOUS
 62
    7
 10
611.00659506821148
 20
281.5681060246003
 11
622.67326127403794
 21
293.23477223042653
  0
LINE
  8
_0-a_極細3
  6
CONTINUOUS
 62
    7
 10
589.79339163261511
 20
281.56810602460007
 11
601.46005800438979
 21
293.23477239637475
  0
LINE
  8
_0-a_極細3
  6
CONTINUOUS
 62
    7
 10
568.58018819701874
 20
281.56810602460007
 11
580.2468547347421
 21
293.23477256232343
  0
LINE
  8
_0-a_極細3
  6
DASHED2
 62
    7
 10
642.82640022160649
 20
281.5681060246003
 11
652.94174024861968
 21
291.68344605161371
  0
LINE
  8
_0-a_極細3
  6
DASHED2
 62
    7
 10
621.61319678600967
 20
281.56810602460007
 11
633.27986290886156
 21
293.23477214745196
  0
LINE
  8
_0-a_極細3
  6
DASHED2
 62
    7
 10
600.3999933504133
 20
281.56810602460007
 11
612.06665963921387
 21
293.23477231340064
  0
LINE
  8
_0-a_極細3
  6
DASHED2
 62
    7
 10
579.18678991481693
 20
281.56810602460007
 11
590.85345636956572
 21
293.23477247934909
  0
LINE
  8
_0-a_極細3
  6
DASHED2
 62
    7
 10
563.76399310350507
 20
287.35851264888458
 11
569.64025309991803
 21
293.23477264529754
  0
LINE
  8
_0-a_極細3
  6
CONTINUOUS
 62
    7
 10
622.0973264368381
 20
256.5681060246003
 11
622.0973264368381
 21
188.23477269126704
  0
LINE
  8
_0-a_極細3
  6
CONTINUOUS
 62
    7
 10
538.76399310350507
 20
188.23477269126704
 11
622.0973264368381
 21
188.23477269126704
  0
LINE
  8
_0-a_極細3
  6
CONTINUOUS
 62
    7
 10
622.0973264368381
 20
256.5681060246003
 11
652.94174024861968
 21
256.5681060246003
  0
LINE
  8
_0-a_極細3
  6
CONTINUOUS
 62
    7
 10
538.76399310350507
 20
188.23477269126704
 11
538.76399310350507
 21
161.99317239648792
  0
LINE
  8
_0-a_極細3
  6
CONTINUOUS
 62
    7
 10
630.38732885143145
 20
161.99317239648792
 11
652.94174029016051
 21
184.54758383521693
  0
LINE
  8
_0-a_極細3
  6
CONTINUOUS
 62
    7
 10
559.67665073277658
 20
161.99317239648792
 11
585.91825102755547
 21
188.23477269126704
  0
LINE
  8
_0-a_極細3
  6
CONTINUOUS
 62
    7
 10
622.0973264368381
 20
224.4138481005497
 11
652.94174024937502
 21
255.25826191308659
  0
LINE
  8
_0-a_極細3
  6
CONTINUOUS
 62
    7
 10
623.31626103956569
 20
161.99317239648792
 11
652.94174028608177
 21
191.618651643004
  0
LINE
  8
_0-a_極細3
  6
CONTINUOUS
 62
    7
 10
552.60558292091082
 20
161.99317239648792
 11
578.84718321569017
 21
188.23477269126704
  0
LINE
  8
_0-a_極細3
  6
CONTINUOUS
 62
    7
 10
622.0973264368381
 20
231.48491591241523
 11
647.18051636947303
 21
256.5681058450499
  0
LINE
  8
_0-a_極細3
  6
CONTINUOUS
 62
    7
 10
616.24519322770038
 20
161.99317239648792
 11
652.94174028200314
 21
198.68971945079096
  0
LINE
  8
_0-a_極細3
  6
CONTINUOUS
 62
    7
 10
545.53451510904551
 20
161.99317239648792
 11
571.77611540382486
 21
188.23477269126704
  0
LINE
  8
_0-a_極細3
  6
CONTINUOUS
 62
    7
 10
622.0973264368381
 20
238.55598372428076
 11
640.10944860822394
 21
256.56810589566601
  0
CIRCLE
  8
_0-a_極細3
  6
CONTINUOUS
 62
    7
 10
525.16978812254229
 20
247.08910903385313
 40
0.5530864197530718
  0
CIRCLE
  8
_0-a_極細3
  6
CONTINUOUS
 62
    7
 10
535.12534367809758
 20
251.88910903385306
 40
0.5530864197530718
  0
CIRCLE
  8
_0-a_極細3
  6
CONTINUOUS
 62
    7
 10
531.03645478920907
 20
226.91133125607564
 40
0.5530864197530718
  0
CIRCLE
  8
_0-a_極細3
  6
CONTINUOUS
 62
    7
 10
548.56978812254238
 20
209.88910903385352
 40
0.5530864197530718
  0
CIRCLE
  8
_0-a_極細3
  6
CONTINUOUS
 62
    7
 10
530.73645478920889
 20
186.58910903385376
 40
0.5530864197530718
  0
CIRCLE
  8
_0-a_極細3
  6
CONTINUOUS
 62
    7
 10
521.40312145587586
 20
168.72244236718728
 40
0.5530864197530718
  0
CIRCLE
  8
_0-a_極細3
  6
CONTINUOUS
 62
    7
 10
532.8697881225421
 20
198.58910903385356
 40
0.5530864197530718
  0
CIRCLE
  8
_0-a_極細3
  6
CONTINUOUS
 62
    7
 10
546.73645478920889
 20
193.78910903385361
 40
0.5530864197530718
  0
CIRCLE
  8
_0-a_極細3
  6
CONTINUOUS
 62
    7
 10
573.66978812254229
 20
194.05577570052031
 40
0.5530864197530718
  0
CIRCLE
  8
_0-a_極細3
  6
CONTINUOUS
 62
    7
 10
561.66978812254229
 20
203.12244236718684
 40
0.5530864197530718
  0
CIRCLE
  8
_0-a_極細3
  6
CONTINUOUS
 62
    7
 10
572.8697881225421
 20
208.72244236718677
 40
0.5530864197530718
  0
CIRCLE
  8
_0-a_極細3
  6
CONTINUOUS
 62
    7
 10
560.892010344764
 20
263.0113312560751
 40
0.5530864197530718
  0
CIRCLE
  8
_0-a_極細3
  6
CONTINUOUS
 62
    7
 10
581.42534367809731
 20
262.3002201449641
 40
0.5530864197530718
  0
CIRCLE
  8
_0-a_極細3
  6
CONTINUOUS
 62
    7
 10
569.8253436780974
 20
248.3002201449641
 40
0.5530864197530718
  0
CIRCLE
  8
_0-a_極細3
  6
CONTINUOUS
 62
    7
 10
609.02534367809722
 20
195.10022014496471
 40
0.5530864197530718
  0
CIRCLE
  8
_0-a_極細3
  6
CONTINUOUS
 62
    7
 10
616.22534367809703
 20
209.10022014496477
 40
0.5530864197530718
  0
CIRCLE
  8
_0-a_極細3
  6
CONTINUOUS
 62
    7
 10
614.62534367809667
 20
229.90022014496446
 40
0.5530864197530718
  0
CIRCLE
  8
_0-a_極細3
  6
CONTINUOUS
 62
    7
 10
596.62534367809712
 20
251.10022014496428
 40
0.5530864197530718
  0
CIRCLE
  8
_0-a_極細3
  6
CONTINUOUS
 62
    7
 10
613.42534367809685
 20
270.70022014496396
 40
0.5530864197530718
  0
CIRCLE
  8
_0-a_極細3
  6
CONTINUOUS
 62
    7
 10
610.62534367809667
 20
243.90022014496424
 40
0.5530864197530718
  0
CIRCLE
  8
_0-a_極細3
  6
CONTINUOUS
 62
    7
 10
640.22534367809658
 20
265.10022014496406
 40
0.5530864197530718
  0
CIRCLE
  8
_0-a_極細3
  6
CONTINUOUS
 62
    7
 10
635.4253436780964
 20
278.87028187335898
 40
1.825531472681392
  0
CIRCLE
  8
_0-a_極細3
  6
CONTINUOUS
 62
    7
 10
619.78089923365224
 20
263.40361520669251
 40
1.825531472681392
  0
CIRCLE
  8
_0-a_極細3
  6
CONTINUOUS
 62
    7
 10
564.3586770114307
 20
269.98139298447029
 40
1.825531472681392
  0
CIRCLE
  8
_0-a_極細3
  6
CONTINUOUS
 62
    7
 10
596.35867701143025
 20
237.98139298447055
 40
1.825531472681392
  0
CIRCLE
  8
_0-a_極細3
  6
CONTINUOUS
 62
    7
 10
525.96423256698699
 20
193.43139298447099
 40
1.825531472681392
  0
CIRCLE
  8
_0-a_極細3
  6
CONTINUOUS
 62
    7
 10
536.18645478920871
 20
223.29805965113761
 40
1.825531472681392
  0
CIRCLE
  8
_0-a_極細3
  6
CONTINUOUS
 62
    7
 10
571.38645478920853
 20
200.89805965113769
 40
1.825531472681392
  0
CIRCLE
  8
_0-a_極細3
  6
CONTINUOUS
 62
    7
 10
617.65164742449224
 20
190.71100725916821
 40
1.825531472681392
  0
CIRCLE
  8
_0-a_極細3
  6
CONTINUOUS
 62
    7
 10
566.98645478920844
 20
244.09805965113733
 40
1.825531472681392
  0
CIRCLE
  8
_0-a_極細3
  6
CONTINUOUS
 62
    7
 10
519.52040540649296
 20
238.67485424410089
 40
0.5530864197530718
  0
CIRCLE
  8
_0-a_極細3
  6
CONTINUOUS
 62
    7
 10
519.72040540649368
 20
214.71929868854559
 40
0.5530864197530718
  0
CIRCLE
  8
_0-a_極細3
  6
CONTINUOUS
 62
    7
 10
596.75867701143034
 20
275.44805965113699
 40
1.825531472681392
  0
LINE
  8
_0-a_極細3
  6
CONTINUOUS
 62
    7
 10
506.26399310350416
 20
263.23477269126704
 11
505.43065977017108
 21
263.23477269126704
  0
LINE
  8
_0-a_極細3
  6
CONTINUOUS
 62
    7
 10
505.43065977017108
 20
263.23477269126704
 11
505.43065977017108
 21
161.99317239648792
  0
CIRCLE
  8
_0-a_極細3
  6
CONTINUOUS
 62
    7
 10
511.41505561225443
 20
223.17799792274229
 40
0.5530864197530718
  0
CIRCLE
  8
_0-a_極細3
  6
CONTINUOUS
 62
    7
 10
512.72163997439429
 20
183.9224423671871
 40
0.5530864197530718
  0
CIRCLE
  8
_0-a_極細3
  6
CONTINUOUS
 62
    7
 10
512.0827510855047
 20
249.87583742891559
 40
1.825531472681392
  0
CIRCLE
  8
_0-a_極細3
  6
CONTINUOUS
 62
    7
 10
515.03089923365269
 20
177.2536152066931
 40
1.825531472681392
  0
LINE
  8
_0-a_極細3
  6
CONTINUOUS
 62
    7
 10
599.07072799065691
 20
213.11647385377057
 11
604.20103014054212
 21
227.21186316555907
  0
LINE
  8
_0-a_極細3
  6
CONTINUOUS
 62
    7
 10
549.07668531686068
 20
247.27548386480535
 11
543.94638316697592
 21
233.18009455301683
  0
LINE
  8
_0-a_極細3
  6
CONTINUOUS
 62
    7
 10
604.20103014054212
 20
227.21186316555907
 11
549.07668531686068
 21
247.27548386480535
  0
LINE
  8
_0-a_極細3
  6
CONTINUOUS
 62
    7
 10
599.07072799065691
 20
213.11647385377057
 11
543.94638316697592
 21
233.18009455301683
  0
LINE
  8
_0-a_極細3
  6
CENTER1
 62
    7
 10
606.59131245759227
 20
218.36053846963492
 11
542.56029197502676
 21
241.66592395467035
  0
LINE
  8
_0-a_極細3
  6
CONTINUOUS
 62
    7
 10
580.43065977017159
 20
188.23477269126704
 11
580.43065977017159
 21
232.32033403958314
  0
LINE
  8
_0-a_極細3
  6
CONTINUOUS
 62
    7
 10
580.43065977017159
 20
232.32033403958314
 11
595.43065977017159
 21
232.32033403958314
  0
LINE
  8
_0-a_極細3
  6
CONTINUOUS
 62
    7
 10
595.43065977017159
 20
232.32033403958314
 11
595.43065977017159
 21
188.23477269126704
  0
LINE
  8
_0-a_極細3
  6
CENTER1
 62
    7
 10
587.93065977017159
 20
179.95803240681411
 11
587.93065977017159
 21
236.59605420419268
  0
CIRCLE
  8
_0-a_極細3
  6
CONTINUOUS
 62
    7
 10
582.04756590032002
 20
245.39651644126059
 40
0.5530864197530718
  0
CIRCLE
  8
_0-a_極細3
  6
CONTINUOUS
 62
    7
 10
604.26375245724694
 20
232.0533065647177
 40
0.5530864197530718
  0
LINE
  8
_0-d_寸法3
  6
CONTINUOUS
 62
    7
 10
555.43065977017204
 20
214.90143935793381
 11
555.43065977017204
 21
197.75674745702844
  0
LINE
  8
_0-d_寸法3
  6
CONTINUOUS
 62
    7
 10
555.43065977017204
 20
202.75674745702844
 11
545.77140150728133
 21
200.16855700600317
  0
LINE
  8
_0-d_寸法3
  6
CONTINUOUS
 62
    7
 10
555.43065977017204
 20
202.75674745702844
 11
545.77140150728133
 21
205.34493790805359
  0
LINE
  8
_0-d_寸法3
  6
CONTINUOUS
 62
    7
 10
505.43065977017199
 20
253.23477269126704
 11
505.43065977017199
 21
197.75674745702844
  0
LINE
  8
_0-d_寸法3
  6
CONTINUOUS
 62
    7
 10
505.43065977017199
 20
202.75674745702844
 11
515.08991803306265
 21
205.34493790805362
  0
LINE
  8
_0-d_寸法3
  6
CONTINUOUS
 62
    7
 10
505.43065977017199
 20
202.75674745702844
 11
515.08991803306265
 21
200.16855700600317
  0
LINE
  8
_0-d_寸法3
  6
CONTINUOUS
 62
    7
 10
555.43065977017204
 20
202.75674745702844
 11
505.43065977017199
 21
202.75674745702844
  0
TEXT
  8
_0-d_寸法3
 62
    7
 10
522.93065977017204
 20
202.75674745702838
 40
15
 41
1
 50
0.0000000000002714
  1
30
  0
ARC
  8
_0-b_細線3
  6
CONTINUOUS
 62
    7
 10
550.43065977017159
 20
268.23477269126704
 40
5
 50
269.99999999999977
 51
359.99999999999966
  0
LINE
  8
_0-b_細線3
  6
CONTINUOUS
 62
    7
 10
555.43065977017159
 20
268.23477269126704
 11
555.43065977017159
 21
292.40143935793355
  0
LINE
  8
_0-b_細線3
  6
CONTINUOUS
 62
    7
 10
550.43065977017159
 20
263.23477269126704
 11
506.26399310350416
 21
263.23477269126704
  0
LINE
  8
_0-b_細線3
  6
CONTINUOUS
 62
    7
 10
505.43065977017108
 20
264.0681060246003
 11
506.26399310350416
 21
263.23477269126704
  0
LINE
  8
_0-b_細線3
  6
CONTINUOUS
 62
    7
 10
505.43065977017108
 20
267.40143935793378
 11
505.43065977017108
 21
264.0681060246003
  0
LINE
  8
_0-b_細線3
  6
CONTINUOUS
 62
    7
 10
506.26399310350416
 20
268.23477269126704
 11
505.43065977017108
 21
267.40143935793378
  0
LINE
  8
_0-b_細線3
  6
CONTINUOUS
 62
    7
 10
550.43065977017159
 20
268.23477269126704
 11
506.26399310350416
 21
268.23477269126704
  0
LINE
  8
_0-b_細線3
  6
CONTINUOUS
 62
    7
 10
554.59732643683856
 20
293.23477269126704
 11
555.43065977017159
 21
292.40143935793355
  0
LINE
  8
_0-b_細線3
  6
CONTINUOUS
 62
    7
 10
551.26399310350507
 20
293.23477269126704
 11
554.59732643683856
 21
293.23477269126704
  0
LINE
  8
_0-b_細線3
  6
CONTINUOUS
 62
    7
 10
550.43065977017159
 20
292.40143935793355
 11
551.26399310350507
 21
293.23477269126704
  0
LINE
  8
_0-b_細線3
  6
CONTINUOUS
 62
    7
 10
550.43065977017159
 20
268.23477269126704
 11
550.43065977017159
 21
292.40143935793355
  0
LINE
  8
_0-a_極細3
  6
CONTINUOUS
 62
    7
 10
555.43065977017159
 20
293.23477269126704
 11
652.94174024861968
 21
293.23477269126704
  0
LINE
  8
_0-d_寸法3
  6
CONTINUOUS
 62
    7
 10
385.43065977017199
 20
298.23477269126704
 11
385.43065977017199
 21
408.2347710229223
  0
LINE
  8
_0-d_寸法3
  6
CONTINUOUS
 62
    7
 10
385.43065977017199
 20
403.2347710229223
 11
395.08991803306265
 21
405.82296147394743
  0
LINE
  8
_0-d_寸法3
  6
CONTINUOUS
 62
    7
 10
385.43065977017199
 20
403.2347710229223
 11
395.08991803306265
 21
400.64658057189712
  0
LINE
  8
_0-d_寸法3
  6
CONTINUOUS
 62
    7
 10
555.43065977017159
 20
298.23477269126704
 11
555.43065977017204
 21
408.2347710229223
  0
LINE
  8
_0-d_寸法3
  6
CONTINUOUS
 62
    7
 10
555.43065977017204
 20
403.2347710229223
 11
545.77140150728133
 21
400.64658057189712
  0
LINE
  8
_0-d_寸法3
  6
CONTINUOUS
 62
    7
 10
555.43065977017204
 20
403.2347710229223
 11
545.77140150728133
 21
405.82296147394749
  0
LINE
  8
_0-d_寸法3
  6
CONTINUOUS
 62
    7
 10
385.43065977017199
 20
403.2347710229223
 11
555.43065977017204
 21
403.2347710229223
  0
TEXT
  8
_0-d_寸法3
 62
    7
 10
459.18065977017159
 20
403.2347710229223
 40
15
 41
1
 50
0
  1
102
  0
LINE
  8
_0-d_寸法3
  6
CONTINUOUS
 62
    7
 10
435.43065977017199
 20
258.23477269126704
 11
435.43065977017199
 21
197.75674745702844
  0
LINE
  8
_0-d_寸法3
  6
CONTINUOUS
 62
    7
 10
435.43065977017199
 20
202.75674745702844
 11
445.08991803306265
 21
205.34493790805359
  0
LINE
  8
_0-d_寸法3
  6
CONTINUOUS
 62
    7
 10
435.43065977017199
 20
202.75674745702844
 11
445.08991803306265
 21
200.16855700600317
  0
LINE
  8
_0-d_寸法3
  6
CONTINUOUS
 62
    7
 10
505.43065977017108
 20
258.23477269126704
 11
505.43065977017108
 21
197.75674745702844
  0
LINE
  8
_0-d_寸法3
  6
CONTINUOUS
 62
    7
 10
505.43065977017108
 20
202.75674745702844
 11
495.77140150728042
 21
200.16855700600317
  0
LINE
  8
_0-d_寸法3
  6
CONTINUOUS
 62
    7
 10
505.43065977017108
 20
202.75674745702844
 11
495.77140150728042
 21
205.34493790805362
  0
LINE
  8
_0-d_寸法3
  6
CONTINUOUS
 62
    7
 10
435.43065977017199
 20
202.75674745702844
 11
505.43065977017108
 21
202.75674745702844
  0
TEXT
  8
_0-d_寸法3
 62
    7
 10
462.93065977017159
 20
202.75674745702844
 40
15
 41
1
 50
0
  1
42
  0
LINE
  8
_0-a_極細3
  6
CENTER1
 62
    7
 10
558.09741483799371
 20
279.9014393579339
 11
383.77666732563142
 21
279.9014393579339
  0
ARC
  8
_0-b_細線3
  6
CONTINUOUS
 62
    7
 10
505.43065977017199
 20
370.7639136482959
 40
97.696522151886498
 50
263.73185704547677
 51
276.26814295452255
  0
ARC
  8
_0-b_細線3
  6
CONTINUOUS
 62
    7
 10
505.43065977017199
 20
189.03896506757135
 40
97.696522151886498
 50
83.731857045477099
 51
96.268142954522872
  0
ARC
  8
_0-b_細線3
  6
CONTINUOUS
 62
    7
 10
482.0973264368385
 20
370.7639136482959
 40
97.696522151886498
 50
263.73185704547706
 51
276.26814295452255
  0
ARC
  8
_0-b_細線3
  6
CONTINUOUS
 62
    7
 10
482.0973264368385
 20
189.03896506757135
 40
97.696522151886498
 50
83.731857045477128
 51
96.268142954522617
  0
LINE
  8
_0-b_細線3
  6
CONTINUOUS
 62
    7
 10
477.0973264368385
 20
291.23477269126693
 11
477.0973264368385
 21
293.23477269126693
  0
LINE
  8
_0-b_細線3
  6
CONTINUOUS
 62
    7
 10
471.43065977017244
 20
291.23477269126693
 11
477.0973264368385
 21
291.23477269126693
  0
LINE
  8
_0-b_細線3
  6
CONTINUOUS
 62
    7
 10
471.43065977017244
 20
268.23477269126693
 11
471.43065977017244
 21
291.23477269126693
  0
LINE
  8
_0-b_細線3
  6
CONTINUOUS
 62
    7
 10
469.4306597701725
 20
268.23477269126693
 11
471.43065977017244
 21
268.23477269126693
  0
LINE
  8
_0-b_細線3
  6
CONTINUOUS
 62
    7
 10
469.4306597701725
 20
291.23477269126693
 11
469.4306597701725
 21
268.23477269126693
  0
LINE
  8
_0-b_細線3
  6
CONTINUOUS
 62
    7
 10
463.76399310350553
 20
291.23477269126693
 11
469.4306597701725
 21
291.23477269126693
  0
LINE
  8
_0-b_細線3
  6
CONTINUOUS
 62
    7
 10
463.76399310350553
 20
293.23477269126693
 11
463.76399310350553
 21
291.23477269126693
  0
LINE
  8
_0-b_細線3
  6
CONTINUOUS
 62
    7
 10
477.0973264368385
 20
293.23477269126693
 11
463.76399310350553
 21
293.23477269126693
  0
LINE
  8
_0-b_細線3
  6
CONTINUOUS
 62
    7
 10
500.4306597701725
 20
291.23477269126693
 11
500.4306597701725
 21
293.23477269126693
  0
LINE
  8
_0-b_細線3
  6
CONTINUOUS
 62
    7
 10
494.76399310350553
 20
291.23477269126693
 11
500.4306597701725
 21
291.23477269126693
  0
LINE
  8
_0-b_細線3
  6
CONTINUOUS
 62
    7
 10
494.76399310350553
 20
268.23477269126693
 11
494.76399310350553
 21
291.23477269126693
  0
LINE
  8
_0-b_細線3
  6
CONTINUOUS
 62
    7
 10
492.76399310350547
 20
268.23477269126693
 11
494.76399310350553
 21
268.23477269126693
  0
LINE
  8
_0-b_細線3
  6
CONTINUOUS
 62
    7
 10
492.76399310350547
 20
291.23477269126693
 11
492.76399310350547
 21
268.23477269126693
  0
LINE
  8
_0-b_細線3
  6
CONTINUOUS
 62
    7
 10
487.09732643683901
 20
291.23477269126693
 11
492.76399310350547
 21
291.23477269126693
  0
LINE
  8
_0-b_細線3
  6
CONTINUOUS
 62
    7
 10
487.09732643683901
 20
293.23477269126693
 11
487.09732643683901
 21
291.23477269126693
  0
LINE
  8
_0-b_細線3
  6
CONTINUOUS
 62
    7
 10
500.4306597701725
 20
293.23477269126693
 11
487.09732643683901
 21
293.23477269126693
  0
LINE
  8
_0-b_細線3
  6
CONTINUOUS
 62
    7
 10
523.76399310350553
 20
291.23477269126693
 11
523.76399310350553
 21
293.23477269126693
  0
LINE
  8
_0-b_細線3
  6
CONTINUOUS
 62
    7
 10
518.09732643683856
 20
291.23477269126693
 11
523.76399310350553
 21
291.23477269126693
  0
LINE
  8
_0-b_細線3
  6
CONTINUOUS
 62
    7
 10
518.09732643683856
 20
268.23477269126693
 11
518.09732643683856
 21
291.23477269126693
  0
LINE
  8
_0-b_細線3
  6
CONTINUOUS
 62
    7
 10
516.09732643683901
 20
268.23477269126693
 11
518.09732643683856
 21
268.23477269126693
  0
LINE
  8
_0-b_細線3
  6
CONTINUOUS
 62
    7
 10
516.09732643683901
 20
291.23477269126693
 11
516.09732643683901
 21
268.23477269126693
  0
LINE
  8
_0-b_細線3
  6
CONTINUOUS
 62
    7
 10
510.4306597701725
 20
291.23477269126693
 11
516.09732643683901
 21
291.23477269126693
  0
LINE
  8
_0-b_細線3
  6
CONTINUOUS
 62
    7
 10
510.4306597701725
 20
293.23477269126693
 11
510.4306597701725
 21
291.23477269126693
  0
LINE
  8
_0-b_細線3
  6
CONTINUOUS
 62
    7
 10
523.76399310350553
 20
293.23477269126693
 11
510.4306597701725
 21
293.23477269126693
  0
ARC
  8
_0-b_細線3
  6
CONTINUOUS
 62
    7
 10
528.76399310350553
 20
370.7639136482959
 40
97.696522151886498
 50
263.73185704547706
 51
276.2681429545222
  0
ARC
  8
_0-b_細線3
  6
CONTINUOUS
 62
    7
 10
528.76399310350553
 20
189.03896506757135
 40
97.696522151886498
 50
83.731857045477128
 51
96.268142954522617
  0
LINE
  8
_0-b_細線3
  6
CONTINUOUS
 62
    7
 10
547.09732643683856
 20
291.23477269126693
 11
547.09732643683856
 21
293.23477269126693
  0
LINE
  8
_0-b_細線3
  6
CONTINUOUS
 62
    7
 10
541.4306597701725
 20
291.23477269126693
 11
547.09732643683856
 21
291.23477269126693
  0
LINE
  8
_0-b_細線3
  6
CONTINUOUS
 62
    7
 10
541.4306597701725
 20
268.23477269126693
 11
541.4306597701725
 21
291.23477269126693
  0
LINE
  8
_0-b_細線3
  6
CONTINUOUS
 62
    7
 10
539.4306597701725
 20
291.23477269126693
 11
539.4306597701725
 21
268.23477269126693
  0
LINE
  8
_0-b_細線3
  6
CONTINUOUS
 62
    7
 10
533.76399310350598
 20
291.23477269126693
 11
539.4306597701725
 21
291.23477269126693
  0
LINE
  8
_0-b_細線3
  6
CONTINUOUS
 62
    7
 10
533.76399310350598
 20
293.23477269126693
 11
533.76399310350598
 21
291.23477269126693
  0
LINE
  8
_0-b_細線3
  6
CONTINUOUS
 62
    7
 10
547.09732643683856
 20
293.23477269126693
 11
533.76399310350598
 21
293.23477269126693
  0
ARC
  8
_0-b_細線3
  6
CONTINUOUS
 62
    7
 10
458.76399310350553
 20
370.7639136482959
 40
97.696522151886498
 50
263.73185704547677
 51
276.2681429545222
  0
ARC
  8
_0-b_細線3
  6
CONTINUOUS
 62
    7
 10
458.76399310350553
 20
189.03896506757135
 40
97.696522151886498
 50
83.731857045477398
 51
96.268142954522872
  0
LINE
  8
_0-b_細線3
  6
CONTINUOUS
 62
    7
 10
453.76399310350553
 20
291.23477269126693
 11
453.76399310350553
 21
293.23477269126693
  0
LINE
  8
_0-b_細線3
  6
CONTINUOUS
 62
    7
 10
448.09732643683901
 20
291.23477269126693
 11
453.76399310350553
 21
291.23477269126693
  0
LINE
  8
_0-b_細線3
  6
CONTINUOUS
 62
    7
 10
448.09732643683901
 20
268.23477269126693
 11
448.09732643683901
 21
291.23477269126693
  0
LINE
  8
_0-b_細線3
  6
CONTINUOUS
 62
    7
 10
446.09732643683901
 20
268.23477269126693
 11
448.09732643683901
 21
268.23477269126693
  0
LINE
  8
_0-b_細線3
  6
CONTINUOUS
 62
    7
 10
446.09732643683901
 20
291.23477269126693
 11
446.09732643683901
 21
268.23477269126693
  0
LINE
  8
_0-b_細線3
  6
CONTINUOUS
 62
    7
 10
440.43065977017199
 20
291.23477269126693
 11
446.09732643683901
 21
291.23477269126693
  0
LINE
  8
_0-b_細線3
  6
CONTINUOUS
 62
    7
 10
440.43065977017199
 20
293.23477269126693
 11
440.43065977017199
 21
291.23477269126693
  0
LINE
  8
_0-b_細線3
  6
CONTINUOUS
 62
    7
 10
453.76399310350553
 20
293.23477269126693
 11
440.43065977017199
 21
293.23477269126693
  0
ARC
  8
_0-b_細線3
  6
CONTINUOUS
 62
    7
 10
435.43065977017199
 20
370.7639136482959
 40
97.696522151886498
 50
263.73185704547677
 51
276.26814295452255
  0
ARC
  8
_0-b_細線3
  6
CONTINUOUS
 62
    7
 10
435.43065977017199
 20
189.03896506757135
 40
97.696522151886498
 50
83.731857045477128
 51
96.268142954522872
  0
LINE
  8
_0-b_細線3
  6
CONTINUOUS
 62
    7
 10
430.43065977017199
 20
291.23477269126693
 11
430.43065977017199
 21
293.23477269126693
  0
LINE
  8
_0-b_細線3
  6
CONTINUOUS
 62
    7
 10
424.76399310350553
 20
291.23477269126693
 11
430.43065977017199
 21
291.23477269126693
  0
LINE
  8
_0-b_細線3
  6
CONTINUOUS
 62
    7
 10
424.76399310350553
 20
268.23477269126693
 11
424.76399310350553
 21
291.23477269126693
  0
LINE
  8
_0-b_細線3
  6
CONTINUOUS
 62
    7
 10
422.76399310350547
 20
268.23477269126693
 11
424.76399310350553
 21
268.23477269126693
  0
LINE
  8
_0-b_細線3
  6
CONTINUOUS
 62
    7
 10
422.76399310350547
 20
291.23477269126693
 11
422.76399310350547
 21
268.23477269126693
  0
LINE
  8
_0-b_細線3
  6
CONTINUOUS
 62
    7
 10
417.0973264368385
 20
291.23477269126693
 11
422.76399310350547
 21
291.23477269126693
  0
LINE
  8
_0-b_細線3
  6
CONTINUOUS
 62
    7
 10
417.0973264368385
 20
293.23477269126693
 11
417.0973264368385
 21
291.23477269126693
  0
LINE
  8
_0-b_細線3
  6
CONTINUOUS
 62
    7
 10
430.43065977017199
 20
293.23477269126693
 11
417.0973264368385
 21
293.23477269126693
  0
ARC
  8
_0-b_細線3
  6
CONTINUOUS
 62
    7
 10
412.0973264368385
 20
370.7639136482959
 40
97.696522151886498
 50
263.73185704547677
 51
276.26814295452255
  0
ARC
  8
_0-b_細線3
  6
CONTINUOUS
 62
    7
 10
412.0973264368385
 20
189.03896506757135
 40
97.696522151886498
 50
83.731857045477128
 51
96.268142954522872
  0
LINE
  8
_0-b_細線3
  6
CONTINUOUS
 62
    7
 10
407.0973264368385
 20
291.23477269126693
 11
407.0973264368385
 21
293.23477269126693
  0
LINE
  8
_0-b_細線3
  6
CONTINUOUS
 62
    7
 10
401.43065977017244
 20
291.23477269126693
 11
407.0973264368385
 21
291.23477269126693
  0
LINE
  8
_0-b_細線3
  6
CONTINUOUS
 62
    7
 10
401.43065977017244
 20
268.23477269126693
 11
401.43065977017244
 21
291.23477269126693
  0
LINE
  8
_0-b_細線3
  6
CONTINUOUS
 62
    7
 10
399.4306597701725
 20
268.23477269126693
 11
401.43065977017244
 21
268.23477269126693
  0
LINE
  8
_0-b_細線3
  6
CONTINUOUS
 62
    7
 10
399.4306597701725
 20
291.23477269126693
 11
399.4306597701725
 21
268.23477269126693
  0
LINE
  8
_0-b_細線3
  6
CONTINUOUS
 62
    7
 10
393.76399310350507
 20
291.23477269126693
 11
399.4306597701725
 21
291.23477269126693
  0
LINE
  8
_0-b_細線3
  6
CONTINUOUS
 62
    7
 10
393.76399310350507
 20
293.23477269126693
 11
393.76399310350507
 21
291.23477269126693
  0
LINE
  8
_0-b_細線3
  6
CONTINUOUS
 62
    7
 10
407.0973264368385
 20
293.23477269126693
 11
393.76399310350507
 21
293.23477269126693
  0
LINE
  8
_0-d_寸法3
  6
CONTINUOUS
 62
    7
 10
493.76399310350564
 20
303.23477269126693
 11
493.76399310350598
 21
344.90143935793424
  0
LINE
  8
_0-d_寸法3
  6
CONTINUOUS
 62
    7
 10
493.76399310350592
 20
339.90143935793424
 11
503.42325136639658
 21
342.48962980895948
  0
LINE
  8
_0-d_寸法3
  6
CONTINUOUS
 62
    7
 10
493.76399310350592
 20
339.90143935793424
 11
503.42325136639658
 21
337.31324890690905
  0
LINE
  8
_0-d_寸法3
  6
CONTINUOUS
 62
    7
 10
517.09732643683901
 20
303.23477269126693
 11
517.09732643683901
 21
344.90143935793424
  0
LINE
  8
_0-d_寸法3
  6
CONTINUOUS
 62
    7
 10
517.09732643683901
 20
339.90143935793424
 11
507.43806817394835
 21
337.31324890690905
  0
LINE
  8
_0-d_寸法3
  6
CONTINUOUS
 62
    7
 10
517.09732643683901
 20
339.90143935793424
 11
507.43806817394841
 21
342.48962980895948
  0
LINE
  8
_0-d_寸法3
  6
CONTINUOUS
 62
    7
 10
493.76399310350592
 20
339.90143935793424
 11
517.09732643683901
 21
339.90143935793424
  0
TEXT
  8
_0-d_寸法3
 62
    7
 10
497.9306597701725
 20
339.90143935793424
 40
15
 41
1
 50
0
  1
14
  0
LINE
  8
_0-d_寸法3
  6
CONTINUOUS
 62
    7
 10
517.09732643683901
 20
339.90143935793424
 11
526.75658469972973
 21
342.48962980895942
  0
LINE
  8
_0-d_寸法3
  6
CONTINUOUS
 62
    7
 10
517.09732643683901
 20
339.90143935793424
 11
526.75658469972973
 21
337.313248906909
  0
LINE
  8
_0-d_寸法3
  6
CONTINUOUS
 62
    7
 10
540.4306597701725
 20
303.23477269126693
 11
540.4306597701725
 21
344.90143935793424
  0
LINE
  8
_0-d_寸法3
  6
CONTINUOUS
 62
    7
 10
540.4306597701725
 20
339.90143935793424
 11
530.77140150728178
 21
337.31324890690905
  0
LINE
  8
_0-d_寸法3
  6
CONTINUOUS
 62
    7
 10
540.4306597701725
 20
339.90143935793424
 11
530.77140150728178
 21
342.48962980895948
  0
LINE
  8
_0-d_寸法3
  6
CONTINUOUS
 62
    7
 10
517.09732643683901
 20
339.90143935793424
 11
540.4306597701725
 21
339.90143935793424
  0
TEXT
  8
_0-d_寸法3
 62
    7
 10
521.26399310350553
 20
339.90143935793424
 40
15
 41
1
 50
0
  1
14
  0
LINE
  8
_0-d_寸法3
  6
CONTINUOUS
 62
    7
 10
417.0973264368385
 20
303.23477269126693
 11
417.0973264368385
 21
344.90143935793424
  0
LINE
  8
_0-d_寸法3
  6
CONTINUOUS
 62
    7
 10
417.0973264368385
 20
339.90143935793424
 11
407.43806817394784
 21
337.31324890690905
  0
LINE
  8
_0-d_寸法3
  6
CONTINUOUS
 62
    7
 10
417.0973264368385
 20
339.90143935793424
 11
407.43806817394784
 21
342.48962980895948
  0
LINE
  8
_0-d_寸法3
  6
CONTINUOUS
 62
    7
 10
430.43065977017199
 20
303.23477269126693
 11
430.43065977017199
 21
344.90143935793424
  0
CIRCLE
  8
_0-d_寸法3
  6
CONTINUOUS
 62
    1
 10
430.43065977017199
 20
339.90143935793424
 40
1.5000000000000002
  0
LINE
  8
_0-d_寸法3
  6
CONTINUOUS
 62
    7
 10
392.0973264368385
 20
339.90143935793424
 11
430.43065977017199
 21
339.90143935793424
  0
TEXT
  8
_0-d_寸法3
 62
    7
 10
399.67331047146217
 20
339.90143935793424
 40
15
 41
1
 50
0
  1
8
  0
LINE
  8
_0-d_寸法3
  6
CONTINUOUS
 62
    7
 10
440.43065977017199
 20
303.23477269126693
 11
440.43065977017199
 21
344.90143935793424
  0
LINE
  8
_0-d_寸法3
  6
CONTINUOUS
 62
    7
 10
440.43065977017199
 20
339.90143935793424
 11
450.08991803306276
 21
342.48962980895942
  0
LINE
  8
_0-d_寸法3
  6
CONTINUOUS
 62
    7
 10
440.43065977017199
 20
339.90143935793424
 11
450.08991803306265
 21
337.313248906909
  0
LINE
  8
_0-d_寸法3
  6
CONTINUOUS
 62
    7
 10
430.43065977017199
 20
339.90143935793424
 11
465.43065977017199
 21
339.90143935793424
  0
TEXT
  8
_0-d_寸法3
 62
    7
 10
446.72252857845751
 20
339.90143935793424
 40
15
 41
1
 50
0
  1
6
  0
LINE
  8
_0-d_寸法3
  6
CONTINUOUS
 62
    7
 10
465.43065977017204
 20
276.89502672911146
 11
452.95712867752712
 21
298.49981633136269
  0
LINE
  8
_0-d_寸法3
  6
CONTINUOUS
 62
    7
 10
455.45712867752712
 20
294.16968931244048
 11
452.868938226502
 21
303.82894757533114
  0
LINE
  8
_0-d_寸法3
  6
CONTINUOUS
 62
    7
 10
455.45712867752712
 20
294.16968931244048
 11
458.04531912855236
 21
303.82894757533114
  0
LINE
  8
_0-d_寸法3
  6
CONTINUOUS
 62
    7
 10
465.43065977017204
 20
301.89502672911146
 11
452.95712867752718
 21
323.49981633136292
  0
LINE
  8
_0-d_寸法3
  6
CONTINUOUS
 62
    7
 10
455.45712867752712
 20
319.16968931244071
 11
458.04531912855231
 21
309.51043104954999
  0
LINE
  8
_0-d_寸法3
  6
CONTINUOUS
 62
    7
 10
455.45712867752712
 20
319.16968931244071
 11
452.86893822650194
 21
309.51043104955005
  0
LINE
  8
_0-d_寸法3
  6
CONTINUOUS
 62
    7
 10
455.45712867752712
 20
294.16968931244048
 11
455.45712867752712
 21
319.16968931244071
  0
TEXT
  8
_0-d_寸法3
 62
    7
 10
455.45712867752712
 20
299.16968931244048
 40
15
 41
1
 50
90
  1
15
  0
LINE
  8
_0-7_枠細線
  6
CONTINUOUS
 62
    5
 10
1139.4018171150183
 20
373.42884000293418
 11
1139.4018171150183
 21
453.42884000293418
  0
LINE
  8
_0-7_枠細線
  6
CONTINUOUS
 62
    5
 10
1229.4018171150183
 20
373.42884000293418
 11
1229.4018171150183
 21
453.42884000293418
  0
TEXT
  8
_0-7_枠細線
 62
    5
 10
1251.9018171150183
 20
430.92884000293418
 40
15
 41
1
 50
0
  1
蓋重量
  0
LINE
  8
_0-7_枠細線
  6
CONTINUOUS
 62
    5
 10
1319.4018171150183
 20
373.42884000293418
 11
1319.4018171150183
 21
453.42884000293418
  0
TEXT
  8
_0-7_枠細線
 62
    5
 10
1341.9018171150183
 20
430.92884000293418
 40
15
 41
1
 50
0
  1
枠重量
  0
LINE
  8
_0-7_枠細線
  6
CONTINUOUS
 62
    5
 10
1139.4018171150183
 20
423.42884000293418
 11
1409.4018171150183
 21
423.42884000293418
  0
LINE
  8
_0-7_枠細線
  6
CONTINUOUS
 62
    5
 10
1139.4018171150183
 20
453.42884000293418
 11
1409.4018171150183
 21
453.42884000293418
  0
LINE
  8
_0-7_枠細線
  6
CONTINUOUS
 62
    5
 10
1139.4018171150183
 20
373.42884000293418
 11
1409.4018171150183
 21
373.42884000293418
  0
LINE
  8
_0-7_枠細線
  6
CONTINUOUS
 62
    5
 10
1409.4018171150183
 20
373.42884000293418
 11
1409.4018171150183
 21
453.42884000293418
  0
TEXT
  8
_0-7_枠細線
 62
    5
 10
1154.4018171150183
 20
430.92884000293418
 40
15
 41
1
 50
0
  1
適用荷重
  0
TEXT
  8
_0-7_枠細線
 62
    5
 10
1161.9018171150183
 20
400.92884000293418
 40
15
 41
1
 50
0
  1
歩道用
  0
TEXT
  8
_0-7_枠細線
 62
    5
 10
1139.4018171150183
 20
380.92884000293418
 40
15
 41
1
 50
0
  1
（5.0kN/㎡）
  0
TEXT
  8
_0-7_枠細線
 62
    5
 10
1334.4018171150183
 20
392.17884000293418
 40
15
 41
0.8000000000000001
 50
0
  1
2.2kg/ｍ組
  0
TEXT
  8
_0-7_枠細線
 62
    5
 10
1250.4018171150183
 20
392.17884000293418
 40
15
 41
0.8000000000000001
 50
0
  1
0.8kg/枚
  0
LINE
  8
_0-1_計細線
  6
CONTINUOUS
 62
    3
 10
978.43374986367235
 20
665.68176632391737
 11
978.43374986367235
 21
659.68176632391749
  0
LINE
  8
_0-1_計細線
  6
CONTINUOUS
 62
    3
 10
978.43374986367235
 20
652.68176632391737
 11
978.43374986367235
 21
646.68176632391737
  0
LINE
  8
_0-0_計極細
  6
CENTER2
 62
    2
 10
283.46608461955338
 20
656.18176632391737
 11
1168.2868253602942
 21
656.18176632391737
  0
LINE
  8
_0-1_計細線
  6
CONTINUOUS
 62
    3
 10
978.43374986367235
 20
689.18176632391737
 11
978.43374986367235
 21
683.18176632391737
  0
LINE
  8
_0-1_計細線
  6
CONTINUOUS
 62
    3
 10
978.43374986367235
 20
676.18176632391737
 11
978.43374986367235
 21
670.18176632391737
  0
LINE
  8
_0-1_計細線
  6
CONTINUOUS
 62
    3
 10
1164.9337498636719
 20
707.18176632391749
 11
284.93374986367286
 21
707.18176632391749
  0
ARC
  8
_0-1_計細線
  6
CONTINUOUS
 62
    3
 10
1151.8712498636905
 20
699.68176632391919
 40
15.062499999984542
 50
330.13716564368326
 51
29.862834356304496
  0
ARC
  8
_0-1_計細線
  6
CONTINUOUS
 62
    3
 10
1177.9962498636905
 20
684.68176632391919
 40
15.062500000017272
 50
150.13716564376668
 51
209.86283435624543
  0
LINE
  8
_0-5_寸法線
  6
CONTINUOUS
 62
    7
 10
475.4337498636724
 20
717.18176632391601
 11
475.4337498636728
 21
797.18176632391749
  0
LINE
  8
_0-5_寸法線
  6
CONTINUOUS
 62
    7
 10
475.4337498636728
 20
792.18176632391749
 11
485.09300812656352
 21
794.76995677494256
  0
LINE
  8
_0-5_寸法線
  6
CONTINUOUS
 62
    7
 10
475.4337498636728
 20
792.18176632391749
 11
485.09300812656352
 21
789.59357587289219
  0
LINE
  8
_0-5_寸法線
  6
CONTINUOUS
 62
    7
 10
974.43374986367246
 20
717.18176632391601
 11
974.43374986367292
 21
797.18176632391749
  0
LINE
  8
_0-5_寸法線
  6
CONTINUOUS
 62
    7
 10
974.43374986367292
 20
792.18176632391749
 11
964.77449160078208
 21
789.59357587289219
  0
LINE
  8
_0-5_寸法線
  6
CONTINUOUS
 62
    7
 10
974.43374986367292
 20
792.18176632391749
 11
964.77449160078208
 21
794.76995677494256
  0
LINE
  8
_0-5_寸法線
  6
CONTINUOUS
 62
    7
 10
475.4337498636728
 20
792.18176632391749
 11
974.43374986367292
 21
792.18176632391749
  0
TEXT
  8
_0-5_寸法線
 62
    7
 10
713.6837498636728
 20
792.18176632391749
 40
15
 41
1
 50
0
  1
499
  0
LINE
  8
_0-5_寸法線
  6
CONTINUOUS
 62
    7
 10
475.4337498636724
 20
717.18176632391749
 11
475.4337498636724
 21
762.18176632391749
  0
LINE
  8
_0-5_寸法線
  6
CONTINUOUS
 62
    7
 10
475.4337498636724
 20
757.18176632391749
 11
485.09300812656306
 21
759.76995677494256
  0
LINE
  8
_0-5_寸法線
  6
CONTINUOUS
 62
    7
 10
475.4337498636724
 20
757.18176632391749
 11
485.09300812656306
 21
754.59357587289219
  0
LINE
  8
_0-5_寸法線
  6
CONTINUOUS
 62
    7
 10
574.93374986367235
 20
717.18176632391749
 11
574.93374986367235
 21
762.18176632391749
  0
LINE
  8
_0-5_寸法線
  6
CONTINUOUS
 62
    7
 10
574.93374986367235
 20
757.18176632391749
 11
565.27449160078163
 21
754.59357587289219
  0
LINE
  8
_0-5_寸法線
  6
CONTINUOUS
 62
    7
 10
574.93374986367235
 20
757.18176632391749
 11
565.27449160078163
 21
759.76995677494256
  0
LINE
  8
_0-5_寸法線
  6
CONTINUOUS
 62
    7
 10
475.4337498636724
 20
757.18176632391749
 11
574.93374986367235
 21
757.18176632391749
  0
TEXT
  8
_0-5_寸法線
 62
    7
 10
510.18374986367235
 20
757.18176632391749
 40
15
 41
1
 50
0
  1
99.5
  0
LINE
  8
_0-5_寸法線
  6
CONTINUOUS
 62
    7
 10
574.93374986367235
 20
757.18176632391749
 11
584.59300812656306
 21
759.76995677494256
  0
LINE
  8
_0-5_寸法線
  6
CONTINUOUS
 62
    7
 10
574.93374986367235
 20
757.18176632391749
 11
584.59300812656306
 21
754.59357587289207
  0
LINE
  8
_0-5_寸法線
  6
CONTINUOUS
 62
    7
 10
674.93374986367246
 20
717.18176632391749
 11
674.93374986367246
 21
762.18176632391749
  0
LINE
  8
_0-5_寸法線
  6
CONTINUOUS
 62
    7
 10
674.93374986367246
 20
757.18176632391749
 11
665.27449160078163
 21
754.59357587289219
  0
LINE
  8
_0-5_寸法線
  6
CONTINUOUS
 62
    7
 10
674.93374986367246
 20
757.18176632391749
 11
665.27449160078163
 21
759.76995677494256
  0
LINE
  8
_0-5_寸法線
  6
CONTINUOUS
 62
    7
 10
574.93374986367235
 20
757.18176632391749
 11
674.93374986367246
 21
757.18176632391749
  0
TEXT
  8
_0-5_寸法線
 62
    7
 10
613.6837498636728
 20
757.18176632391749
 40
15
 41
1
 50
0
  1
100
  0
LINE
  8
_0-5_寸法線
  6
CONTINUOUS
 62
    7
 10
674.93374986367246
 20
757.18176632391749
 11
684.59300812656306
 21
759.76995677494256
  0
LINE
  8
_0-5_寸法線
  6
CONTINUOUS
 62
    7
 10
674.93374986367246
 20
757.18176632391749
 11
684.59300812656306
 21
754.59357587289207
  0
LINE
  8
_0-5_寸法線
  6
CONTINUOUS
 62
    7
 10
774.93374986367246
 20
717.18176632391749
 11
774.93374986367246
 21
762.18176632391749
  0
LINE
  8
_0-5_寸法線
  6
CONTINUOUS
 62
    7
 10
774.93374986367246
 20
757.18176632391749
 11
765.27449160078163
 21
754.59357587289219
  0
LINE
  8
_0-5_寸法線
  6
CONTINUOUS
 62
    7
 10
774.93374986367246
 20
757.18176632391749
 11
765.27449160078163
 21
759.76995677494256
  0
LINE
  8
_0-5_寸法線
  6
CONTINUOUS
 62
    7
 10
674.93374986367246
 20
757.18176632391749
 11
774.93374986367246
 21
757.18176632391749
  0
TEXT
  8
_0-5_寸法線
 62
    7
 10
713.68374986367246
 20
757.18176632391749
 40
15
 41
1
 50
0
  1
100
  0
LINE
  8
_0-5_寸法線
  6
CONTINUOUS
 62
    7
 10
774.93374986367246
 20
757.18176632391749
 11
784.59300812656306
 21
759.76995677494256
  0
LINE
  8
_0-5_寸法線
  6
CONTINUOUS
 62
    7
 10
774.93374986367246
 20
757.18176632391749
 11
784.59300812656306
 21
754.59357587289207
  0
LINE
  8
_0-5_寸法線
  6
CONTINUOUS
 62
    7
 10
874.93374986367246
 20
717.18176632391749
 11
874.93374986367246
 21
762.18176632391749
  0
LINE
  8
_0-5_寸法線
  6
CONTINUOUS
 62
    7
 10
874.93374986367246
 20
757.18176632391749
 11
865.27449160078163
 21
754.59357587289219
  0
LINE
  8
_0-5_寸法線
  6
CONTINUOUS
 62
    7
 10
874.93374986367246
 20
757.18176632391749
 11
865.27449160078163
 21
759.76995677494256
  0
LINE
  8
_0-5_寸法線
  6
CONTINUOUS
 62
    7
 10
774.93374986367246
 20
757.18176632391749
 11
874.93374986367246
 21
757.18176632391749
  0
TEXT
  8
_0-5_寸法線
 62
    7
 10
813.68374986367246
 20
757.18176632391749
 40
15
 41
1
 50
0
  1
100
  0
LINE
  8
_0-5_寸法線
  6
CONTINUOUS
 62
    7
 10
874.93374986367246
 20
757.18176632391749
 11
884.59300812656306
 21
759.76995677494256
  0
LINE
  8
_0-5_寸法線
  6
CONTINUOUS
 62
    7
 10
874.93374986367246
 20
757.18176632391749
 11
884.59300812656306
 21
754.59357587289207
  0
LINE
  8
_0-5_寸法線
  6
CONTINUOUS
 62
    7
 10
974.43374986367246
 20
717.18176632391749
 11
974.43374986367292
 21
762.18176632391749
  0
LINE
  8
_0-5_寸法線
  6
CONTINUOUS
 62
    7
 10
974.43374986367292
 20
757.18176632391749
 11
964.77449160078208
 21
754.59357587289219
  0
LINE
  8
_0-5_寸法線
  6
CONTINUOUS
 62
    7
 10
974.43374986367292
 20
757.18176632391749
 11
964.77449160078208
 21
759.76995677494256
  0
LINE
  8
_0-5_寸法線
  6
CONTINUOUS
 62
    7
 10
874.93374986367246
 20
757.18176632391749
 11
974.43374986367292
 21
757.18176632391749
  0
TEXT
  8
_0-5_寸法線
 62
    7
 10
909.6837498636728
 20
757.18176632391749
 40
15
 41
1
 50
0
  1
99.5
  0
LINE
  8
_0-1_計細線
  6
CONTINUOUS
 62
    3
 10
978.43374986367235
 20
702.18176632391749
 11
978.43374986367235
 21
696.18176632391737
  0
LINE
  8
_0-0_計極細
  6
CONTINUOUS
 62
    2
 10
1123.9604322979126
 20
702.18176632391749
 11
1124.0555607320537
 21
702.01213523319109
  0
LINE
  8
_0-0_計極細
  6
CONTINUOUS
 62
    2
 10
1124.0555607320537
 20
702.01213523319109
 11
1124.3382645786671
 21
701.50788069477119
  0
LINE
  8
_0-0_計極細
  6
CONTINUOUS
 62
    2
 10
1124.3382645786671
 20
701.50788069477119
 11
1124.8000852111063
 21
700.68285788843798
  0
LINE
  8
_0-0_計極細
  6
CONTINUOUS
 62
    2
 10
1124.8000852111063
 20
700.68285788843798
 11
1125.4257279234521
 21
699.55993384520991
  0
LINE
  8
_0-0_計極細
  6
CONTINUOUS
 62
    2
 10
1125.4257279234521
 20
699.55993384520991
 11
1126.1918573980381
 21
698.17058166910203
  0
LINE
  8
_0-0_計極細
  6
CONTINUOUS
 62
    2
 10
1126.1918573980381
 20
698.17058166910203
 11
1127.0664175298848
 21
696.55419900899562
  0
LINE
  8
_0-0_計極細
  6
CONTINUOUS
 62
    2
 10
1127.0664175298848
 20
696.55419900899562
 11
1128.0091180092081
 21
694.75708552042465
  0
LINE
  8
_0-0_計極細
  6
CONTINUOUS
 62
    2
 10
1128.0091180092081
 20
694.75708552042465
 11
1128.9735013713141
 21
692.83104981939675
  0
LINE
  8
_0-0_計極細
  6
CONTINUOUS
 62
    2
 10
1128.9735013713141
 20
692.83104981939675
 11
1129.9106251818814
 21
690.8316716887889
  0
LINE
  8
_0-0_計極細
  6
CONTINUOUS
 62
    2
 10
1129.9106251818814
 20
690.8316716887889
 11
1130.7739569367525
 21
688.81630752856086
  0
LINE
  8
_0-0_計極細
  6
CONTINUOUS
 62
    2
 10
1130.7739569367525
 20
688.81630752856086
 11
1131.5246955781777
 21
686.84198116799905
  0
LINE
  8
_0-0_計極細
  6
CONTINUOUS
 62
    2
 10
1131.5246955781777
 20
686.84198116799905
 11
1132.1365063271396
 21
684.96333425906062
  0
LINE
  8
_0-0_計極細
  6
CONTINUOUS
 62
    2
 10
1132.1365063271396
 20
684.96333425906062
 11
1132.5986534626791
 21
683.23081127368607
  0
LINE
  8
_0-0_計極細
  6
CONTINUOUS
 62
    2
 10
1132.5986534626791
 20
683.23081127368607
 11
1132.9167549314548
 21
681.68922144463772
  0
LINE
  8
_0-0_計極細
  6
CONTINUOUS
 62
    2
 10
1132.9167549314548
 20
681.68922144463772
 11
1133.1108213541718
 21
680.37675946367347
  0
LINE
  8
_0-0_計極細
  6
CONTINUOUS
 62
    2
 10
1133.1108213541718
 20
680.37675946367347
 11
1133.2107885339933
 21
679.32449073395674
  0
LINE
  8
_0-0_計極細
  6
CONTINUOUS
 62
    2
 10
1133.2107885339933
 20
679.32449073395674
 11
1133.2502862538981
 21
678.55623175995345
  0
LINE
  8
_0-0_計極細
  6
CONTINUOUS
 62
    2
 10
1133.2502862538981
 20
678.55623175995345
 11
1133.2597850485563
 21
678.0886983306674
  0
LINE
  8
_0-0_計極細
  6
CONTINUOUS
 62
    2
 10
1133.2597850485563
 20
678.0886983306674
 11
1133.2604322979128
 21
677.93176632391737
  0
LINE
  8
_0-0_計極細
  6
CONTINUOUS
 62
    2
 10
1133.2604322979128
 20
677.93176632391737
 11
1133.2597850485563
 21
677.77500830893007
  0
LINE
  8
_0-0_計極細
  6
CONTINUOUS
 62
    2
 10
1133.2597850485563
 20
677.77500830893007
 11
1133.2502862538981
 21
677.31002831906812
  0
LINE
  8
_0-0_計極細
  6
CONTINUOUS
 62
    2
 10
1133.2502862538981
 20
677.31002831906812
 11
1133.2107885339933
 21
676.55238701170606
  0
LINE
  8
_0-0_計極細
  6
CONTINUOUS
 62
    2
 10
1133.2107885339933
 20
676.55238701170606
 11
1133.1108213541718
 21
675.52699117979057
  0
LINE
  8
_0-0_計極細
  6
CONTINUOUS
 62
    2
 10
1133.1108213541718
 20
675.52699117979057
 11
1132.9167549314545
 21
674.26669759202969
  0
LINE
  8
_0-0_計極細
  6
CONTINUOUS
 62
    2
 10
1132.9167549314545
 20
674.26669759202969
 11
1132.5986534626793
 21
672.81061891050183
  0
LINE
  8
_0-0_計極細
  6
CONTINUOUS
 62
    2
 10
1132.5986534626793
 20
672.81061891050183
 11
1132.1365063271396
 21
671.20232902607881
  0
LINE
  8
_0-0_計極細
  6
CONTINUOUS
 62
    2
 10
1132.1365063271396
 20
671.20232902607881
 11
1131.5246955781774
 21
669.48814737223756
  0
LINE
  8
_0-0_計極細
  6
CONTINUOUS
 62
    2
 10
1131.5246955781774
 20
669.48814737223756
 11
1130.7739569367525
 21
667.71563247442464
  0
LINE
  8
_0-0_計極細
  6
CONTINUOUS
 62
    2
 10
1130.7739569367525
 20
667.71563247442464
 11
1129.9106251818814
 21
665.93234674292535
  0
LINE
  8
_0-0_計極細
  6
CONTINUOUS
 62
    2
 10
1129.9106251818814
 20
665.93234674292535
 11
1128.9735013713141
 21
664.18488361515824
  0
LINE
  8
_0-0_計極細
  6
CONTINUOUS
 62
    2
 10
1128.9735013713141
 20
664.18488361515824
 11
1128.0091180092081
 21
662.51809075340611
  0
LINE
  8
_0-0_計極細
  6
CONTINUOUS
 62
    2
 10
1128.0091180092081
 20
662.51809075340611
 11
1127.0664175298848
 21
660.97439137217987
  0
LINE
  8
_0-0_計極細
  6
CONTINUOUS
 62
    2
 10
1127.0664175298848
 20
660.97439137217987
 11
1126.1918573980381
 21
659.59310552171007
  0
LINE
  8
_0-0_計極細
  6
CONTINUOUS
 62
    2
 10
1126.1918573980381
 20
659.59310552171007
 11
1125.4257279234521
 21
658.40970212909281
  0
LINE
  8
_0-0_計極細
  6
CONTINUOUS
 62
    2
 10
1125.4257279234521
 20
658.40970212909281
 11
1124.8000852111063
 21
657.45496161068888
  0
LINE
  8
_0-0_計極細
  6
CONTINUOUS
 62
    2
 10
1124.8000852111063
 20
657.45496161068888
 11
1124.3382645786673
 21
656.75408413565651
  0
LINE
  8
_0-0_計極細
  6
CONTINUOUS
 62
    2
 10
1124.3382645786673
 20
656.75408413565651
 11
1124.0555607320537
 21
656.32582525492853
  0
LINE
  8
_0-0_計極細
  6
CONTINUOUS
 62
    2
 10
1124.0555607320537
 20
656.32582525492853
 11
1123.9604322979126
 21
656.18176632391737
  0
LINE
  8
_0-1_計細線
  6
CONTINUOUS
 62
    3
 10
1164.9337498636719
 20
677.18176632391749
 11
1133.2604322979128
 21
677.18176632391749
  0
ARC
  8
_0-1_計細線
  6
CONTINUOUS
 62
    3
 10
297.99624986365416
 20
699.68176632391919
 40
15.062499999984542
 50
150.13716564369517
 51
209.86283435631606
  0
ARC
  8
_0-1_計細線
  6
CONTINUOUS
 62
    3
 10
271.87124986365416
 20
684.68176632391919
 40
15.062500000017272
 50
330.13716564375386
 51
29.862834356232998
  0
LINE
  8
_0-0_計極細
  6
CONTINUOUS
 62
    2
 10
325.90706742943212
 20
702.18176632391749
 11
325.81193899529103
 21
702.01213523319109
  0
LINE
  8
_0-0_計極細
  6
CONTINUOUS
 62
    2
 10
325.81193899529103
 20
702.01213523319109
 11
325.52923514867751
 21
701.50788069477119
  0
LINE
  8
_0-0_計極細
  6
CONTINUOUS
 62
    2
 10
325.52923514867751
 20
701.50788069477119
 11
325.0674145162385
 21
700.68285788843798
  0
LINE
  8
_0-0_計極細
  6
CONTINUOUS
 62
    2
 10
325.0674145162385
 20
700.68285788843798
 11
324.44177180389283
 21
699.55993384520991
  0
LINE
  8
_0-0_計極細
  6
CONTINUOUS
 62
    2
 10
324.44177180389283
 20
699.55993384520991
 11
323.6756423293067
 21
698.17058166910203
  0
LINE
  8
_0-0_計極細
  6
CONTINUOUS
 62
    2
 10
323.6756423293067
 20
698.17058166910203
 11
322.80108219746
 21
696.55419900899562
  0
LINE
  8
_0-0_計極細
  6
CONTINUOUS
 62
    2
 10
322.80108219746
 20
696.55419900899562
 11
321.85838171813668
 21
694.75708552042465
  0
LINE
  8
_0-0_計極細
  6
CONTINUOUS
 62
    2
 10
321.85838171813668
 20
694.75708552042465
 11
320.89399835603058
 21
692.83104981939675
  0
LINE
  8
_0-0_計極細
  6
CONTINUOUS
 62
    2
 10
320.89399835603058
 20
692.83104981939675
 11
319.95687454546317
 21
690.8316716887889
  0
LINE
  8
_0-0_計極細
  6
CONTINUOUS
 62
    2
 10
319.95687454546317
 20
690.8316716887889
 11
319.09354279059232
 21
688.81630752856086
  0
LINE
  8
_0-0_計極細
  6
CONTINUOUS
 62
    2
 10
319.09354279059232
 20
688.81630752856086
 11
318.34280414916702
 21
686.84198116799905
  0
LINE
  8
_0-0_計極細
  6
CONTINUOUS
 62
    2
 10
318.34280414916702
 20
686.84198116799905
 11
317.73099340020497
 21
684.96333425906062
  0
LINE
  8
_0-0_計極細
  6
CONTINUOUS
 62
    2
 10
317.73099340020497
 20
684.96333425906062
 11
317.26884626466557
 21
683.23081127368607
  0
LINE
  8
_0-0_計極細
  6
CONTINUOUS
 62
    2
 10
317.26884626466557
 20
683.23081127368607
 11
316.95074479588993
 21
681.68922144463772
  0
LINE
  8
_0-0_計極細
  6
CONTINUOUS
 62
    2
 10
316.95074479588993
 20
681.68922144463772
 11
316.75667837317303
 21
680.37675946367347
  0
LINE
  8
_0-0_計極細
  6
CONTINUOUS
 62
    2
 10
316.75667837317303
 20
680.37675946367347
 11
316.6567111933515
 21
679.32449073395674
  0
LINE
  8
_0-0_計極細
  6
CONTINUOUS
 62
    2
 10
316.6567111933515
 20
679.32449073395674
 11
316.61721347344655
 21
678.55623175995345
  0
LINE
  8
_0-0_計極細
  6
CONTINUOUS
 62
    2
 10
316.61721347344655
 20
678.55623175995345
 11
316.60771467878851
 21
678.0886983306674
  0
LINE
  8
_0-0_計極細
  6
CONTINUOUS
 62
    2
 10
316.60771467878851
 20
678.0886983306674
 11
316.60706742943194
 21
677.93176632391737
  0
LINE
  8
_0-0_計極細
  6
CONTINUOUS
 62
    2
 10
316.60706742943194
 20
677.93176632391737
 11
316.60771467878851
 21
677.77500830893007
  0
LINE
  8
_0-0_計極細
  6
CONTINUOUS
 62
    2
 10
316.60771467878851
 20
677.77500830893007
 11
316.61721347344655
 21
677.31002831906812
  0
LINE
  8
_0-0_計極細
  6
CONTINUOUS
 62
    2
 10
316.61721347344655
 20
677.31002831906812
 11
316.65671119335161
 21
676.55238701170606
  0
LINE
  8
_0-0_計極細
  6
CONTINUOUS
 62
    2
 10
316.65671119335161
 20
676.55238701170606
 11
316.75667837317303
 21
675.52699117979057
  0
LINE
  8
_0-0_計極細
  6
CONTINUOUS
 62
    2
 10
316.75667837317303
 20
675.52699117979057
 11
316.95074479588993
 21
674.26669759202969
  0
LINE
  8
_0-0_計極細
  6
CONTINUOUS
 62
    2
 10
316.95074479588993
 20
674.26669759202969
 11
317.2688462646654
 21
672.81061891050183
  0
LINE
  8
_0-0_計極細
  6
CONTINUOUS
 62
    2
 10
317.2688462646654
 20
672.81061891050183
 11
317.73099340020497
 21
671.20232902607881
  0
LINE
  8
_0-0_計極細
  6
CONTINUOUS
 62
    2
 10
317.73099340020497
 20
671.20232902607881
 11
318.34280414916702
 21
669.48814737223756
  0
LINE
  8
_0-0_計極細
  6
CONTINUOUS
 62
    2
 10
318.34280414916702
 20
669.48814737223756
 11
319.09354279059232
 21
667.71563247442464
  0
LINE
  8
_0-0_計極細
  6
CONTINUOUS
 62
    2
 10
319.09354279059232
 20
667.71563247442464
 11
319.95687454546317
 21
665.93234674292535
  0
LINE
  8
_0-0_計極細
  6
CONTINUOUS
 62
    2
 10
319.95687454546317
 20
665.93234674292535
 11
320.89399835603058
 21
664.18488361515824
  0
LINE
  8
_0-0_計極細
  6
CONTINUOUS
 62
    2
 10
320.89399835603058
 20
664.18488361515824
 11
321.85838171813663
 21
662.51809075340611
  0
LINE
  8
_0-0_計極細
  6
CONTINUOUS
 62
    2
 10
321.85838171813663
 20
662.51809075340611
 11
322.80108219745989
 21
660.97439137217987
  0
LINE
  8
_0-0_計極細
  6
CONTINUOUS
 62
    2
 10
322.80108219745989
 20
660.97439137217987
 11
323.6756423293067
 21
659.59310552171007
  0
LINE
  8
_0-0_計極細
  6
CONTINUOUS
 62
    2
 10
323.6756423293067
 20
659.59310552171007
 11
324.44177180389272
 21
658.40970212909281
  0
LINE
  8
_0-0_計極細
  6
CONTINUOUS
 62
    2
 10
324.44177180389272
 20
658.40970212909281
 11
325.0674145162385
 21
657.45496161068888
  0
LINE
  8
_0-0_計極細
  6
CONTINUOUS
 62
    2
 10
325.0674145162385
 20
657.45496161068888
 11
325.52923514867751
 21
656.75408413565651
  0
LINE
  8
_0-0_計極細
  6
CONTINUOUS
 62
    2
 10
325.52923514867751
 20
656.75408413565651
 11
325.81193899529103
 21
656.32582525492853
  0
LINE
  8
_0-0_計極細
  6
CONTINUOUS
 62
    2
 10
325.81193899529103
 20
656.32582525492853
 11
325.90706742943212
 21
656.18176632391737
  0
LINE
  8
_0-1_計細線
  6
CONTINUOUS
 62
    3
 10
284.93374986367286
 20
677.18176632391749
 11
316.60706742943194
 21
677.18176632391749
  0
LINE
  8
_0-1_計細線
  6
CONTINUOUS
 62
    3
 10
1166.2458422492005
 20
704.18176632391737
 11
283.6216574781443
 21
704.18176632391737
  0
LINE
  8
_0-1_計細線
  6
CONTINUOUS
 62
    3
 10
978.43374986367235
 20
642.18176632391749
 11
978.43374986367235
 21
636.18176632391737
  0
LINE
  8
_0-1_計細線
  6
CONTINUOUS
 62
    3
 10
978.43374986367235
 20
629.18176632391737
 11
978.43374986367235
 21
623.18176632391737
  0
LINE
  8
_0-1_計細線
  6
CONTINUOUS
 62
    3
 10
1164.9337498636719
 20
605.18176632391737
 11
284.93374986367286
 21
605.18176632391737
  0
ARC
  8
_0-1_計細線
  6
CONTINUOUS
 62
    3
 10
1177.9962498636614
 20
612.68176632391919
 40
15.06249999999028
 50
150.13716564371109
 51
209.86283435630014
  0
ARC
  8
_0-1_計細線
  6
CONTINUOUS
 62
    3
 10
1151.8712498637051
 20
627.68176632390782
 40
15.062499999975882
 50
330.13716564369213
 51
29.862834356369127
  0
LINE
  8
_0-5_寸法線
  6
CONTINUOUS
 62
    7
 10
789.91333547298439
 20
625.83756053718776
 11
795.77687757592298
 21
617.73701277749501
  0
LINE
  8
_0-5_寸法線
  6
CONTINUOUS
 62
    7
 10
789.91333547298439
 20
625.83756053718776
 11
790.94103801044241
 21
615.89050934125521
  0
LINE
  8
_0-5_寸法線
  6
CONTINUOUS
 62
    7
 10
789.91333547298439
 20
625.83756053718776
 11
813.27081859303826
 21
564.66624679621304
  0
LINE
  8
_0-5_寸法線
  6
CONTINUOUS
 62
    7
 10
813.27081859303826
 20
564.66624679621304
 11
947.70983080815824
 21
564.66624679621304
  0
TEXT
  8
_0-5_寸法線
 62
    7
 10
815.70983080815824
 20
564.66624679621304
 40
15
 41
0.8000000000000001
 50
0
  1
ステンレスグレーチング
  0
LINE
  8
_0-5_寸法線
  6
CONTINUOUS
 62
    7
 10
582.48907006124455
 20
606.39677801545054
 11
587.48907006124455
 21
597.73652397760611
  0
LINE
  8
_0-5_寸法線
  6
CONTINUOUS
 62
    7
 10
582.48907006124455
 20
606.39677801545054
 11
582.48907006124455
 21
596.39677801545054
  0
LINE
  8
_0-5_寸法線
  6
CONTINUOUS
 62
    7
 10
582.48907006124455
 20
606.39677801545054
 11
593.67073220116072
 21
564.66624679621304
  0
LINE
  8
_0-5_寸法線
  6
CONTINUOUS
 62
    7
 10
593.67073220116072
 20
564.66624679621304
 11
701.72160541259473
 21
564.66624679621304
  0
TEXT
  8
_0-5_寸法線
 62
    7
 10
593.72160541259473
 20
564.66624679621304
 40
15
 41
0.8000000000000001
 50
0
  1
ＳＵＳアングル受枠
  0
LINE
  8
_0-1_計細線
  6
CONTINUOUS
 62
    3
 10
978.43374986367235
 20
616.18176632391737
 11
978.43374986367235
 21
610.18176632391737
  0
LINE
  8
_0-0_計極細
  6
CONTINUOUS
 62
    2
 10
1123.9604322979126
 20
656.18176632391737
 11
1123.8653038637717
 21
656.03770739290644
  0
LINE
  8
_0-0_計極細
  6
CONTINUOUS
 62
    2
 10
1123.8653038637717
 20
656.03770739290644
 11
1123.582600017158
 21
655.60944851217846
  0
LINE
  8
_0-0_計極細
  6
CONTINUOUS
 62
    2
 10
1123.582600017158
 20
655.60944851217846
 11
1123.1207793847191
 21
654.90857103714598
  0
LINE
  8
_0-0_計極細
  6
CONTINUOUS
 62
    2
 10
1123.1207793847191
 20
654.90857103714598
 11
1122.4951366723733
 21
653.95383051874194
  0
LINE
  8
_0-0_計極細
  6
CONTINUOUS
 62
    2
 10
1122.4951366723733
 20
653.95383051874194
 11
1121.729007197787
 21
652.77042712612501
  0
LINE
  8
_0-0_計極細
  6
CONTINUOUS
 62
    2
 10
1121.729007197787
 20
652.77042712612501
 11
1120.8544470659406
 21
651.38914127565488
  0
LINE
  8
_0-0_計極細
  6
CONTINUOUS
 62
    2
 10
1120.8544470659406
 20
651.38914127565488
 11
1119.9117465866173
 21
649.84544189442863
  0
LINE
  8
_0-0_計極細
  6
CONTINUOUS
 62
    2
 10
1119.9117465866173
 20
649.84544189442863
 11
1118.9473632245113
 21
648.1786490326765
  0
LINE
  8
_0-0_計極細
  6
CONTINUOUS
 62
    2
 10
1118.9473632245113
 20
648.1786490326765
 11
1118.010239413944
 21
646.43118590490963
  0
LINE
  8
_0-0_計極細
  6
CONTINUOUS
 62
    2
 10
1118.010239413944
 20
646.43118590490963
 11
1117.1469076590731
 21
644.64790017341033
  0
LINE
  8
_0-0_計極細
  6
CONTINUOUS
 62
    2
 10
1117.1469076590731
 20
644.64790017341033
 11
1116.3961690176479
 21
642.8753852755973
  0
LINE
  8
_0-0_計極細
  6
CONTINUOUS
 62
    2
 10
1116.3961690176479
 20
642.8753852755973
 11
1115.7843582686858
 21
641.16120362175593
  0
LINE
  8
_0-0_計極細
  6
CONTINUOUS
 62
    2
 10
1115.7843582686858
 20
641.16120362175593
 11
1115.3222111331463
 21
639.55291373733291
  0
LINE
  8
_0-0_計極細
  6
CONTINUOUS
 62
    2
 10
1115.3222111331463
 20
639.55291373733291
 11
1115.0041096643711
 21
638.09683505580506
  0
LINE
  8
_0-0_計極細
  6
CONTINUOUS
 62
    2
 10
1115.0041096643711
 20
638.09683505580506
 11
1114.8100432416541
 21
636.83654146804417
  0
LINE
  8
_0-0_計極細
  6
CONTINUOUS
 62
    2
 10
1114.8100432416541
 20
636.83654146804417
 11
1114.7100760618323
 21
635.81114563612891
  0
LINE
  8
_0-0_計極細
  6
CONTINUOUS
 62
    2
 10
1114.7100760618323
 20
635.81114563612891
 11
1114.6705783419275
 21
635.05350432876662
  0
LINE
  8
_0-0_計極細
  6
CONTINUOUS
 62
    2
 10
1114.6705783419275
 20
635.05350432876662
 11
1114.6610795472693
 21
634.58852433890479
  0
LINE
  8
_0-0_計極細
  6
CONTINUOUS
 62
    2
 10
1114.6610795472693
 20
634.58852433890479
 11
1114.6604322979128
 21
634.43176632391737
  0
LINE
  8
_0-0_計極細
  6
CONTINUOUS
 62
    2
 10
1114.6604322979128
 20
634.43176632391737
 11
1114.6610795472693
 21
634.27483431716746
  0
LINE
  8
_0-0_計極細
  6
CONTINUOUS
 62
    2
 10
1114.6610795472693
 20
634.27483431716746
 11
1114.6705783419275
 21
633.8073008878813
  0
LINE
  8
_0-0_計極細
  6
CONTINUOUS
 62
    2
 10
1114.6705783419275
 20
633.8073008878813
 11
1114.7100760618323
 21
633.03904191387812
  0
LINE
  8
_0-0_計極細
  6
CONTINUOUS
 62
    2
 10
1114.7100760618323
 20
633.03904191387812
 11
1114.8100432416538
 21
631.98677318416128
  0
LINE
  8
_0-0_計極細
  6
CONTINUOUS
 62
    2
 10
1114.8100432416538
 20
631.98677318416128
 11
1115.0041096643711
 21
630.67431120319702
  0
LINE
  8
_0-0_計極細
  6
CONTINUOUS
 62
    2
 10
1115.0041096643711
 20
630.67431120319702
 11
1115.3222111331463
 21
629.13272137414867
  0
LINE
  8
_0-0_計極細
  6
CONTINUOUS
 62
    2
 10
1115.3222111331463
 20
629.13272137414867
 11
1115.7843582686858
 21
627.40019838877424
  0
LINE
  8
_0-0_計極細
  6
CONTINUOUS
 62
    2
 10
1115.7843582686858
 20
627.40019838877424
 11
1116.3961690176479
 21
625.52155147983558
  0
LINE
  8
_0-0_計極細
  6
CONTINUOUS
 62
    2
 10
1116.3961690176479
 20
625.52155147983558
 11
1117.1469076590731
 21
623.54722511927378
  0
LINE
  8
_0-0_計極細
  6
CONTINUOUS
 62
    2
 10
1117.1469076590731
 20
623.54722511927378
 11
1118.010239413944
 21
621.53186095904607
  0
LINE
  8
_0-0_計極細
  6
CONTINUOUS
 62
    2
 10
1118.010239413944
 20
621.53186095904607
 11
1118.9473632245113
 21
619.53248282843811
  0
LINE
  8
_0-0_計極細
  6
CONTINUOUS
 62
    2
 10
1118.9473632245113
 20
619.53248282843811
 11
1119.9117465866175
 21
617.60644712741032
  0
LINE
  8
_0-0_計極細
  6
CONTINUOUS
 62
    2
 10
1119.9117465866175
 20
617.60644712741032
 11
1120.8544470659406
 21
615.80933363883912
  0
LINE
  8
_0-0_計極細
  6
CONTINUOUS
 62
    2
 10
1120.8544470659406
 20
615.80933363883912
 11
1121.729007197787
 21
614.19295097873282
  0
LINE
  8
_0-0_計極細
  6
CONTINUOUS
 62
    2
 10
1121.729007197787
 20
614.19295097873282
 11
1122.4951366723733
 21
612.80359880262483
  0
LINE
  8
_0-0_計極細
  6
CONTINUOUS
 62
    2
 10
1122.4951366723733
 20
612.80359880262483
 11
1123.1207793847191
 21
611.68067475939665
  0
LINE
  8
_0-0_計極細
  6
CONTINUOUS
 62
    2
 10
1123.1207793847191
 20
611.68067475939665
 11
1123.582600017158
 21
610.85565195306367
  0
LINE
  8
_0-0_計極細
  6
CONTINUOUS
 62
    2
 10
1123.582600017158
 20
610.85565195306367
 11
1123.8653038637717
 21
610.35139741464366
  0
LINE
  8
_0-0_計極細
  6
CONTINUOUS
 62
    2
 10
1123.8653038637717
 20
610.35139741464366
 11
1123.9604322979126
 21
610.18176632391737
  0
LINE
  8
_0-1_計細線
  6
CONTINUOUS
 62
    3
 10
1164.9337498636719
 20
635.18176632391737
 11
1114.6751464241765
 21
635.18176632391737
  0
ARC
  8
_0-1_計細線
  6
CONTINUOUS
 62
    3
 10
271.87124986368332
 20
612.68176632391919
 40
15.06249999999028
 50
330.13716564369918
 51
29.86283435628857
  0
ARC
  8
_0-1_計細線
  6
CONTINUOUS
 62
    3
 10
297.99624986363966
 20
627.68176632390782
 40
15.062499999975882
 50
150.13716564363051
 51
209.8628343563071
  0
LINE
  8
_0-0_計極細
  6
CONTINUOUS
 62
    2
 10
325.90706742943212
 20
656.18176632391737
 11
326.00219586357321
 21
656.03770739290644
  0
LINE
  8
_0-0_計極細
  6
CONTINUOUS
 62
    2
 10
326.00219586357321
 20
656.03770739290644
 11
326.28489971018672
 21
655.60944851217846
  0
LINE
  8
_0-0_計極細
  6
CONTINUOUS
 62
    2
 10
326.28489971018672
 20
655.60944851217846
 11
326.74672034262574
 21
654.90857103714598
  0
LINE
  8
_0-0_計極細
  6
CONTINUOUS
 62
    2
 10
326.74672034262574
 20
654.90857103714598
 11
327.3723630549714
 21
653.95383051874194
  0
LINE
  8
_0-0_計極細
  6
CONTINUOUS
 62
    2
 10
327.3723630549714
 20
653.95383051874194
 11
328.13849252955748
 21
652.77042712612501
  0
LINE
  8
_0-0_計極細
  6
CONTINUOUS
 62
    2
 10
328.13849252955748
 20
652.77042712612501
 11
329.01305266140417
 21
651.38914127565488
  0
LINE
  8
_0-0_計極細
  6
CONTINUOUS
 62
    2
 10
329.01305266140417
 20
651.38914127565488
 11
329.95575314072738
 21
649.84544189442863
  0
LINE
  8
_0-0_計極細
  6
CONTINUOUS
 62
    2
 10
329.95575314072738
 20
649.84544189442863
 11
330.92013650283343
 21
648.1786490326765
  0
LINE
  8
_0-0_計極細
  6
CONTINUOUS
 62
    2
 10
330.92013650283343
 20
648.1786490326765
 11
331.85726031340073
 21
646.43118590490963
  0
LINE
  8
_0-0_計極細
  6
CONTINUOUS
 62
    2
 10
331.85726031340073
 20
646.43118590490963
 11
332.72059206827169
 21
644.64790017341033
  0
LINE
  8
_0-0_計極細
  6
CONTINUOUS
 62
    2
 10
332.72059206827169
 20
644.64790017341033
 11
333.47133070969682
 21
642.8753852755973
  0
LINE
  8
_0-0_計極細
  6
CONTINUOUS
 62
    2
 10
333.47133070969682
 20
642.8753852755973
 11
334.08314145865887
 21
641.16120362175593
  0
LINE
  8
_0-0_計極細
  6
CONTINUOUS
 62
    2
 10
334.08314145865887
 20
641.16120362175593
 11
334.54528859419833
 21
639.55291373733291
  0
LINE
  8
_0-0_計極細
  6
CONTINUOUS
 62
    2
 10
334.54528859419833
 20
639.55291373733291
 11
334.86339006297379
 21
638.09683505580506
  0
LINE
  8
_0-0_計極細
  6
CONTINUOUS
 62
    2
 10
334.86339006297379
 20
638.09683505580506
 11
335.05745648569075
 21
636.83654146804417
  0
LINE
  8
_0-0_計極細
  6
CONTINUOUS
 62
    2
 10
335.05745648569075
 20
636.83654146804417
 11
335.15742366551228
 21
635.81114563612891
  0
LINE
  8
_0-0_計極細
  6
CONTINUOUS
 62
    2
 10
335.15742366551228
 20
635.81114563612891
 11
335.19692138541728
 21
635.05350432876662
  0
LINE
  8
_0-0_計極細
  6
CONTINUOUS
 62
    2
 10
335.19692138541728
 20
635.05350432876662
 11
335.20642018007527
 21
634.58852433890479
  0
LINE
  8
_0-0_計極細
  6
CONTINUOUS
 62
    2
 10
335.20642018007527
 20
634.58852433890479
 11
335.20706742943185
 21
634.43176632391737
  0
LINE
  8
_0-0_計極細
  6
CONTINUOUS
 62
    2
 10
335.20706742943185
 20
634.43176632391737
 11
335.20642018007527
 21
634.27483431716746
  0
LINE
  8
_0-0_計極細
  6
CONTINUOUS
 62
    2
 10
335.20642018007527
 20
634.27483431716746
 11
335.19692138541728
 21
633.8073008878813
  0
LINE
  8
_0-0_計極細
  6
CONTINUOUS
 62
    2
 10
335.19692138541728
 20
633.8073008878813
 11
335.15742366551228
 21
633.03904191387812
  0
LINE
  8
_0-0_計極細
  6
CONTINUOUS
 62
    2
 10
335.15742366551228
 20
633.03904191387812
 11
335.05745648569075
 21
631.98677318416128
  0
LINE
  8
_0-0_計極細
  6
CONTINUOUS
 62
    2
 10
335.05745648569075
 20
631.98677318416128
 11
334.86339006297379
 21
630.67431120319702
  0
LINE
  8
_0-0_計極細
  6
CONTINUOUS
 62
    2
 10
334.86339006297379
 20
630.67431120319702
 11
334.54528859419833
 21
629.13272137414867
  0
LINE
  8
_0-0_計極細
  6
CONTINUOUS
 62
    2
 10
334.54528859419833
 20
629.13272137414867
 11
334.08314145865893
 21
627.40019838877424
  0
LINE
  8
_0-0_計極細
  6
CONTINUOUS
 62
    2
 10
334.08314145865893
 20
627.40019838877424
 11
333.47133070969682
 21
625.52155147983558
  0
LINE
  8
_0-0_計極細
  6
CONTINUOUS
 62
    2
 10
333.47133070969682
 20
625.52155147983558
 11
332.72059206827169
 21
623.54722511927378
  0
LINE
  8
_0-0_計極細
  6
CONTINUOUS
 62
    2
 10
332.72059206827169
 20
623.54722511927378
 11
331.85726031340073
 21
621.53186095904607
  0
LINE
  8
_0-0_計極細
  6
CONTINUOUS
 62
    2
 10
331.85726031340073
 20
621.53186095904607
 11
330.92013650283343
 21
619.53248282843811
  0
LINE
  8
_0-0_計極細
  6
CONTINUOUS
 62
    2
 10
330.92013650283343
 20
619.53248282843811
 11
329.95575314072738
 21
617.60644712741032
  0
LINE
  8
_0-0_計極細
  6
CONTINUOUS
 62
    2
 10
329.95575314072738
 20
617.60644712741032
 11
329.01305266140417
 21
615.80933363883912
  0
LINE
  8
_0-0_計極細
  6
CONTINUOUS
 62
    2
 10
329.01305266140417
 20
615.80933363883912
 11
328.13849252955754
 21
614.19295097873282
  0
LINE
  8
_0-0_計極細
  6
CONTINUOUS
 62
    2
 10
328.13849252955754
 20
614.19295097873282
 11
327.3723630549714
 21
612.80359880262483
  0
LINE
  8
_0-0_計極細
  6
CONTINUOUS
 62
    2
 10
327.3723630549714
 20
612.80359880262483
 11
326.74672034262574
 21
611.68067475939665
  0
LINE
  8
_0-0_計極細
  6
CONTINUOUS
 62
    2
 10
326.74672034262574
 20
611.68067475939665
 11
326.28489971018672
 21
610.85565195306367
  0
LINE
  8
_0-0_計極細
  6
CONTINUOUS
 62
    2
 10
326.28489971018672
 20
610.85565195306367
 11
326.00219586357321
 21
610.35139741464366
  0
LINE
  8
_0-0_計極細
  6
CONTINUOUS
 62
    2
 10
326.00219586357321
 20
610.35139741464366
 11
325.90706742943212
 21
610.18176632391737
  0
LINE
  8
_0-1_計細線
  6
CONTINUOUS
 62
    3
 10
284.93374986367286
 20
635.18176632391737
 11
335.19235330316815
 21
635.18176632391737
  0
LINE
  8
_0-1_計細線
  6
CONTINUOUS
 62
    3
 10
286.24584224919772
 20
608.18176632391737
 11
1163.621657478147
 21
608.18176632391737
  0
LINE
  8
_0-1_計細線
  6
CONTINUOUS
 62
    3
 10
471.43374986367286
 20
702.18176632391749
 11
474.4337498636728
 21
702.18176632391749
  0
LINE
  8
_0-1_計細線
  6
CONTINUOUS
 62
    3
 10
474.4337498636728
 20
702.18176632391749
 11
474.4337498636728
 21
610.18176632391737
  0
LINE
  8
_0-1_計細線
  6
CONTINUOUS
 62
    3
 10
474.4337498636728
 20
610.18176632391737
 11
471.43374986367286
 21
610.18176632391737
  0
LINE
  8
_0-1_計細線
  6
CONTINUOUS
 62
    3
 10
471.43374986367286
 20
610.18176632391737
 11
471.43374986367286
 21
702.18176632391749
  0
LINE
  8
_0-1_計細線
  6
CONTINUOUS
 62
    3
 10
978.43374986367235
 20
702.18176632391749
 11
975.43374986367235
 21
702.18176632391749
  0
LINE
  8
_0-1_計細線
  6
CONTINUOUS
 62
    3
 10
975.43374986367235
 20
702.18176632391749
 11
975.43374986367235
 21
610.18176632391737
  0
LINE
  8
_0-1_計細線
  6
CONTINUOUS
 62
    3
 10
975.43374986367235
 20
610.18176632391737
 11
978.43374986367235
 21
610.18176632391737
  0
LINE
  8
_0-1_計細線
  6
CONTINUOUS
 62
    3
 10
978.43374986367235
 20
610.18176632391737
 11
978.43374986367235
 21
702.18176632391749
  0
LINE
  8
_0-1_計細線
  6
CONTINUOUS
 62
    3
 10
974.43374986367246
 20
702.18176632391749
 11
971.43374986367235
 21
702.18176632391749
  0
LINE
  8
_0-1_計細線
  6
CONTINUOUS
 62
    3
 10
971.43374986367235
 20
702.18176632391749
 11
971.43374986367235
 21
610.18176632391737
  0
LINE
  8
_0-1_計細線
  6
CONTINUOUS
 62
    3
 10
971.43374986367235
 20
610.18176632391737
 11
974.43374986367246
 21
610.18176632391737
  0
LINE
  8
_0-1_計細線
  6
CONTINUOUS
 62
    3
 10
974.43374986367246
 20
610.18176632391737
 11
974.43374986367246
 21
702.18176632391749
  0
LINE
  8
_0-1_計細線
  6
CONTINUOUS
 62
    3
 10
478.43374986367235
 20
702.18176632391749
 11
475.4337498636724
 21
702.18176632391749
  0
LINE
  8
_0-1_計細線
  6
CONTINUOUS
 62
    3
 10
475.4337498636724
 20
702.18176632391749
 11
475.4337498636724
 21
610.18176632391737
  0
LINE
  8
_0-1_計細線
  6
CONTINUOUS
 62
    3
 10
475.4337498636724
 20
610.18176632391737
 11
478.43374986367235
 21
610.18176632391737
  0
LINE
  8
_0-1_計細線
  6
CONTINUOUS
 62
    3
 10
478.43374986367235
 20
610.18176632391737
 11
478.43374986367235
 21
702.18176632391749
  0
LINE
  8
_0-0_計極細
  6
CENTER2
 62
    2
 10
1074.9337498636723
 20
696.18176632391737
 11
1074.9337498636723
 21
616.18176632391737
  0
LINE
  8
_0-0_計極細
  6
CENTER2
 62
    2
 10
874.93374986367246
 20
696.18176632391737
 11
874.93374986367246
 21
616.18176632391737
  0
LINE
  8
_0-0_計極細
  6
CENTER2
 62
    2
 10
774.93374986367246
 20
696.18176632391737
 11
774.93374986367246
 21
616.18176632391737
  0
LINE
  8
_0-0_計極細
  6
CENTER2
 62
    2
 10
674.93374986367246
 20
696.18176632391737
 11
674.93374986367246
 21
616.18176632391737
  0
LINE
  8
_0-0_計極細
  6
CENTER2
 62
    2
 10
574.93374986367235
 20
696.18176632391737
 11
574.93374986367235
 21
616.18176632391737
  0
LINE
  8
_0-5_寸法線
  6
CONTINUOUS
 62
    7
 10
272.93374986367013
 20
605.18176632391601
 11
227.93374986367013
 21
605.18176632391601
  0
LINE
  8
_0-5_寸法線
  6
CONTINUOUS
 62
    7
 10
232.93374986367013
 20
605.18176632391601
 11
230.34555941264486
 21
614.84102458680672
  0
LINE
  8
_0-5_寸法線
  6
CONTINUOUS
 62
    7
 10
232.93374986367013
 20
605.18176632391601
 11
235.52194031469526
 21
614.84102458680672
  0
LINE
  8
_0-5_寸法線
  6
CONTINUOUS
 62
    7
 10
272.93374986367013
 20
635.18176632391737
 11
227.93374986367013
 21
635.1817663239176
  0
LINE
  8
_0-5_寸法線
  6
CONTINUOUS
 62
    7
 10
232.93374986367013
 20
635.1817663239176
 11
235.52194031469526
 21
625.52250806102688
  0
LINE
  8
_0-5_寸法線
  6
CONTINUOUS
 62
    7
 10
232.93374986367013
 20
635.1817663239176
 11
230.34555941264486
 21
625.52250806102688
  0
LINE
  8
_0-5_寸法線
  6
CONTINUOUS
 62
    7
 10
232.93374986367013
 20
605.18176632391601
 11
232.93374986367013
 21
635.1817663239176
  0
TEXT
  8
_0-5_寸法線
 62
    7
 10
232.93374986367013
 20
612.68176632391692
 40
15
 41
1
 50
90
  1
30
  0
LINE
  8
_0-5_寸法線
  6
CONTINUOUS
 62
    7
 10
232.93374986367013
 20
635.1817663239176
 11
230.34555941264486
 21
644.84102458680832
  0
LINE
  8
_0-5_寸法線
  6
CONTINUOUS
 62
    7
 10
232.93374986367013
 20
635.1817663239176
 11
235.52194031469526
 21
644.84102458680832
  0
LINE
  8
_0-5_寸法線
  6
CONTINUOUS
 62
    7
 10
272.93374986367013
 20
677.18176632391749
 11
227.93374986367013
 21
677.18176632391749
  0
LINE
  8
_0-5_寸法線
  6
CONTINUOUS
 62
    7
 10
232.93374986367013
 20
677.18176632391749
 11
235.52194031469526
 21
667.52250806102666
  0
LINE
  8
_0-5_寸法線
  6
CONTINUOUS
 62
    7
 10
232.93374986367013
 20
677.18176632391749
 11
230.34555941264486
 21
667.52250806102666
  0
LINE
  8
_0-5_寸法線
  6
CONTINUOUS
 62
    7
 10
232.93374986367013
 20
635.1817663239176
 11
232.93374986367013
 21
677.18176632391749
  0
TEXT
  8
_0-5_寸法線
 62
    7
 10
232.93374986367013
 20
648.6817663239176
 40
15
 41
1
 50
90
  1
42
  0
LINE
  8
_0-5_寸法線
  6
CONTINUOUS
 62
    7
 10
232.93374986367013
 20
677.18176632391749
 11
230.34555941264486
 21
686.84102458680809
  0
LINE
  8
_0-5_寸法線
  6
CONTINUOUS
 62
    7
 10
232.93374986367013
 20
677.18176632391749
 11
235.52194031469526
 21
686.84102458680809
  0
LINE
  8
_0-5_寸法線
  6
CONTINUOUS
 62
    7
 10
272.93374986367013
 20
707.18176632391601
 11
227.93374986367013
 21
707.18176632391601
  0
LINE
  8
_0-5_寸法線
  6
CONTINUOUS
 62
    7
 10
232.93374986367013
 20
707.18176632391601
 11
235.52194031469526
 21
697.52250806102541
  0
LINE
  8
_0-5_寸法線
  6
CONTINUOUS
 62
    7
 10
232.93374986367013
 20
707.18176632391601
 11
230.34555941264486
 21
697.52250806102541
  0
LINE
  8
_0-5_寸法線
  6
CONTINUOUS
 62
    7
 10
232.93374986367013
 20
677.18176632391749
 11
232.93374986367013
 21
707.18176632391601
  0
TEXT
  8
_0-5_寸法線
 62
    7
 10
232.93374986367013
 20
684.68176632391692
 40
15
 41
1
 50
90
  1
30
  0
LINE
  8
_0-5_寸法線
  6
CONTINUOUS
 62
    7
 10
1176.9337498636751
 20
605.18176632391601
 11
1256.9337498636751
 21
605.18176632391578
  0
LINE
  8
_0-5_寸法線
  6
CONTINUOUS
 62
    7
 10
1251.9337498636751
 20
605.18176632391578
 11
1249.3455594126499
 21
614.8410245868065
  0
LINE
  8
_0-5_寸法線
  6
CONTINUOUS
 62
    7
 10
1251.9337498636751
 20
605.18176632391578
 11
1254.5219403147003
 21
614.8410245868065
  0
LINE
  8
_0-5_寸法線
  6
CONTINUOUS
 62
    7
 10
1176.9337498636751
 20
707.18176632391601
 11
1256.9337498636751
 21
707.18176632391578
  0
LINE
  8
_0-5_寸法線
  6
CONTINUOUS
 62
    7
 10
1251.9337498636751
 20
707.18176632391578
 11
1254.5219403147003
 21
697.52250806102506
  0
LINE
  8
_0-5_寸法線
  6
CONTINUOUS
 62
    7
 10
1251.9337498636751
 20
707.18176632391578
 11
1249.3455594126499
 21
697.52250806102506
  0
LINE
  8
_0-5_寸法線
  6
CONTINUOUS
 62
    7
 10
1251.9337498636751
 20
605.18176632391578
 11
1251.9337498636751
 21
707.18176632391578
  0
TEXT
  8
_0-5_寸法線
 62
    7
 10
1251.9337498636751
 20
644.93176632391555
 40
15
 41
1
 50
90
  1
102
  0
LINE
  8
_0-0_計極細
  6
CENTER2
 62
    2
 10
374.93374986367235
 20
696.18176632391737
 11
374.93374986367235
 21
616.18176632391737
  0
LINE
  8
_0-1_計細線
  6
CONTINUOUS
 62
    3
 10
478.43374986367235
 20
702.18176632391749
 11
478.43374986367235
 21
694.18176632391794
  0
LINE
  8
_0-1_計細線
  6
CONTINUOUS
 62
    3
 10
478.43374986367235
 20
694.18176632391794
 11
971.43374986367235
 21
694.18176632391794
  0
LINE
  8
_0-1_計細線
  6
CONTINUOUS
 62
    3
 10
971.43374986367235
 20
694.18176632391794
 11
971.43374986367235
 21
702.18176632391749
  0
LINE
  8
_0-1_計細線
  6
CONTINUOUS
 62
    3
 10
971.43374986367235
 20
702.18176632391749
 11
478.43374986367235
 21
702.18176632391749
  0
LINE
  8
_0-1_計細線
  6
CONTINUOUS
 62
    3
 10
478.43374986367235
 20
688.18176632391737
 11
478.43374986367235
 21
680.18176632391783
  0
LINE
  8
_0-1_計細線
  6
CONTINUOUS
 62
    3
 10
478.43374986367235
 20
680.18176632391783
 11
971.43374986367235
 21
680.18176632391783
  0
LINE
  8
_0-1_計細線
  6
CONTINUOUS
 62
    3
 10
971.43374986367235
 20
680.18176632391783
 11
971.43374986367235
 21
688.18176632391737
  0
LINE
  8
_0-1_計細線
  6
CONTINUOUS
 62
    3
 10
971.43374986367235
 20
688.18176632391737
 11
478.43374986367235
 21
688.18176632391737
  0
LINE
  8
_0-1_計細線
  6
CONTINUOUS
 62
    3
 10
478.43374986367235
 20
674.18176632391794
 11
478.43374986367235
 21
666.1817663239184
  0
LINE
  8
_0-1_計細線
  6
CONTINUOUS
 62
    3
 10
478.43374986367235
 20
666.1817663239184
 11
971.43374986367235
 21
666.1817663239184
  0
LINE
  8
_0-1_計細線
  6
CONTINUOUS
 62
    3
 10
971.43374986367235
 20
666.1817663239184
 11
971.43374986367235
 21
674.18176632391794
  0
LINE
  8
_0-1_計細線
  6
CONTINUOUS
 62
    3
 10
971.43374986367235
 20
674.18176632391794
 11
478.43374986367235
 21
674.18176632391794
  0
LINE
  8
_0-1_計細線
  6
CONTINUOUS
 62
    3
 10
478.43374986367235
 20
660.1817663239176
 11
478.43374986367235
 21
652.18176632391783
  0
LINE
  8
_0-1_計細線
  6
CONTINUOUS
 62
    3
 10
478.43374986367235
 20
652.18176632391783
 11
971.43374986367235
 21
652.18176632391783
  0
LINE
  8
_0-1_計細線
  6
CONTINUOUS
 62
    3
 10
971.43374986367235
 20
652.18176632391783
 11
971.43374986367235
 21
660.1817663239176
  0
LINE
  8
_0-1_計細線
  6
CONTINUOUS
 62
    3
 10
971.43374986367235
 20
660.1817663239176
 11
478.43374986367235
 21
660.1817663239176
  0
LINE
  8
_0-1_計細線
  6
CONTINUOUS
 62
    3
 10
478.43374986367235
 20
646.1817663239176
 11
478.43374986367235
 21
638.18176632391783
  0
LINE
  8
_0-1_計細線
  6
CONTINUOUS
 62
    3
 10
478.43374986367235
 20
638.18176632391783
 11
971.43374986367235
 21
638.18176632391783
  0
LINE
  8
_0-1_計細線
  6
CONTINUOUS
 62
    3
 10
971.43374986367235
 20
638.18176632391783
 11
971.43374986367235
 21
646.1817663239176
  0
LINE
  8
_0-1_計細線
  6
CONTINUOUS
 62
    3
 10
971.43374986367235
 20
646.1817663239176
 11
478.43374986367235
 21
646.1817663239176
  0
LINE
  8
_0-1_計細線
  6
CONTINUOUS
 62
    3
 10
478.43374986367235
 20
632.18176632391737
 11
478.43374986367235
 21
624.18176632391783
  0
LINE
  8
_0-1_計細線
  6
CONTINUOUS
 62
    3
 10
478.43374986367235
 20
624.18176632391783
 11
971.43374986367235
 21
624.18176632391783
  0
LINE
  8
_0-1_計細線
  6
CONTINUOUS
 62
    3
 10
971.43374986367235
 20
624.18176632391783
 11
971.43374986367235
 21
632.18176632391737
  0
LINE
  8
_0-1_計細線
  6
CONTINUOUS
 62
    3
 10
971.43374986367235
 20
632.18176632391737
 11
478.43374986367235
 21
632.18176632391737
  0
LINE
  8
_0-1_計細線
  6
CONTINUOUS
 62
    3
 10
478.43374986367235
 20
618.18176632391737
 11
478.43374986367235
 21
610.18176632391783
  0
LINE
  8
_0-1_計細線
  6
CONTINUOUS
 62
    3
 10
478.43374986367235
 20
610.18176632391783
 11
971.43374986367235
 21
610.18176632391783
  0
LINE
  8
_0-1_計細線
  6
CONTINUOUS
 62
    3
 10
971.43374986367235
 20
610.18176632391783
 11
971.43374986367235
 21
618.18176632391737
  0
LINE
  8
_0-1_計細線
  6
CONTINUOUS
 62
    3
 10
971.43374986367235
 20
618.18176632391737
 11
478.43374986367235
 21
618.18176632391737
  0
LINE
  8
_0-1_計細線
  6
CONTINUOUS
 62
    3
 10
325.90706742943212
 20
702.18176632391749
 11
471.43374986367286
 21
702.18176632391749
  0
LINE
  8
_0-1_計細線
  6
CONTINUOUS
 62
    3
 10
471.43374986367286
 20
702.18176632391749
 11
471.43374986367286
 21
694.18176632391794
  0
LINE
  8
_0-1_計細線
  6
CONTINUOUS
 62
    3
 10
471.43374986367286
 20
694.18176632391794
 11
321.57031423282712
 21
694.18176632391794
  0
LINE
  8
_0-1_計細線
  6
CONTINUOUS
 62
    3
 10
471.43374986367286
 20
688.18176632391737
 11
471.43374986367286
 21
680.18176632391783
  0
LINE
  8
_0-1_計細線
  6
CONTINUOUS
 62
    3
 10
471.43374986367286
 20
674.18176632391794
 11
471.43374986367286
 21
666.1817663239184
  0
LINE
  8
_0-1_計細線
  6
CONTINUOUS
 62
    3
 10
471.43374986367286
 20
660.1817663239176
 11
471.43374986367286
 21
652.18176632391783
  0
LINE
  8
_0-1_計細線
  6
CONTINUOUS
 62
    3
 10
471.43374986367286
 20
646.1817663239176
 11
471.43374986367286
 21
638.18176632391783
  0
LINE
  8
_0-1_計細線
  6
CONTINUOUS
 62
    3
 10
471.43374986367286
 20
632.18176632391737
 11
471.43374986367286
 21
624.18176632391783
  0
LINE
  8
_0-1_計細線
  6
CONTINUOUS
 62
    3
 10
471.43374986367286
 20
618.18176632391737
 11
471.43374986367286
 21
610.18176632391783
  0
LINE
  8
_0-1_計細線
  6
CONTINUOUS
 62
    3
 10
318.85225816236789
 20
688.18176632391737
 11
471.43374986367286
 21
688.18176632391737
  0
LINE
  8
_0-1_計細線
  6
CONTINUOUS
 62
    3
 10
471.43374986367286
 20
680.18176632391783
 11
316.73815371904681
 21
680.18176632391783
  0
LINE
  8
_0-1_計細線
  6
CONTINUOUS
 62
    3
 10
316.96929926102575
 20
674.18176632391794
 11
471.43374986367286
 21
674.18176632391794
  0
LINE
  8
_0-1_計細線
  6
CONTINUOUS
 62
    3
 10
471.43374986367286
 20
666.1817663239184
 11
319.83612449360453
 21
666.1817663239184
  0
LINE
  8
_0-1_計細線
  6
CONTINUOUS
 62
    3
 10
323.30293217042345
 20
660.1817663239176
 11
471.43374986367286
 21
660.1817663239176
  0
LINE
  8
_0-1_計細線
  6
CONTINUOUS
 62
    3
 10
471.43374986367286
 20
652.18176632391783
 11
328.51120268844033
 21
652.18176632391783
  0
LINE
  8
_0-1_計細線
  6
CONTINUOUS
 62
    3
 10
331.97801036525925
 20
646.1817663239176
 11
471.43374986367286
 21
646.1817663239176
  0
LINE
  8
_0-1_計細線
  6
CONTINUOUS
 62
    3
 10
471.43374986367286
 20
638.18176632391783
 11
334.84483559783763
 21
638.18176632391783
  0
LINE
  8
_0-1_計細線
  6
CONTINUOUS
 62
    3
 10
335.07598113981709
 20
632.18176632391737
 11
471.43374986367286
 21
632.18176632391737
  0
LINE
  8
_0-1_計細線
  6
CONTINUOUS
 62
    3
 10
471.43374986367286
 20
624.18176632391783
 11
332.96187669649635
 21
624.18176632391783
  0
LINE
  8
_0-1_計細線
  6
CONTINUOUS
 62
    3
 10
330.24382062603718
 20
618.18176632391737
 11
471.43374986367286
 21
618.18176632391737
  0
LINE
  8
_0-1_計細線
  6
CONTINUOUS
 62
    3
 10
471.43374986367286
 20
610.18176632391783
 11
325.90706742943212
 21
610.18176632391783
  0
LINE
  8
_0-1_計細線
  6
CONTINUOUS
 62
    3
 10
1123.9604322979126
 20
702.18176632391749
 11
978.43374986367235
 21
702.18176632391749
  0
LINE
  8
_0-1_計細線
  6
CONTINUOUS
 62
    3
 10
978.43374986367235
 20
702.18176632391749
 11
978.43374986367235
 21
694.18176632391794
  0
LINE
  8
_0-1_計細線
  6
CONTINUOUS
 62
    3
 10
978.43374986367235
 20
694.18176632391794
 11
1128.2971854945176
 21
694.18176632391794
  0
LINE
  8
_0-1_計細線
  6
CONTINUOUS
 62
    3
 10
978.43374986367235
 20
688.18176632391737
 11
978.43374986367235
 21
682.18176632391749
  0
LINE
  8
_0-1_計細線
  6
CONTINUOUS
 62
    3
 10
978.43374986367235
 20
688.18176632391737
 11
978.43374986367235
 21
680.18176632391783
  0
LINE
  8
_0-1_計細線
  6
CONTINUOUS
 62
    3
 10
978.43374986367235
 20
674.18176632391794
 11
978.43374986367235
 21
668.18176632391783
  0
LINE
  8
_0-1_計細線
  6
CONTINUOUS
 62
    3
 10
978.43374986367235
 20
674.18176632391794
 11
978.43374986367235
 21
666.1817663239184
  0
LINE
  8
_0-1_計細線
  6
CONTINUOUS
 62
    3
 10
978.43374986367235
 20
660.18176632391737
 11
978.43374986367235
 21
654.18176632391737
  0
LINE
  8
_0-1_計細線
  6
CONTINUOUS
 62
    3
 10
978.43374986367235
 20
660.1817663239176
 11
978.43374986367235
 21
652.18176632391783
  0
LINE
  8
_0-1_計細線
  6
CONTINUOUS
 62
    3
 10
978.43374986367235
 20
646.18176632391737
 11
978.43374986367235
 21
640.18176632391737
  0
LINE
  8
_0-1_計細線
  6
CONTINUOUS
 62
    3
 10
978.43374986367235
 20
646.1817663239176
 11
978.43374986367235
 21
638.18176632391783
  0
LINE
  8
_0-1_計細線
  6
CONTINUOUS
 62
    3
 10
978.43374986367235
 20
632.18176632391737
 11
978.43374986367235
 21
626.18176632391737
  0
LINE
  8
_0-1_計細線
  6
CONTINUOUS
 62
    3
 10
978.43374986367235
 20
632.18176632391737
 11
978.43374986367235
 21
624.18176632391783
  0
LINE
  8
_0-1_計細線
  6
CONTINUOUS
 62
    3
 10
978.43374986367235
 20
618.18176632391737
 11
978.43374986367235
 21
612.18176632391737
  0
LINE
  8
_0-1_計細線
  6
CONTINUOUS
 62
    3
 10
978.43374986367235
 20
618.18176632391737
 11
978.43374986367235
 21
610.18176632391783
  0
LINE
  8
_0-1_計細線
  6
CONTINUOUS
 62
    3
 10
1131.0152415649768
 20
688.18176632391737
 11
978.43374986367235
 21
688.18176632391737
  0
LINE
  8
_0-1_計細線
  6
CONTINUOUS
 62
    3
 10
978.43374986367235
 20
680.18176632391783
 11
1133.1293460082979
 21
680.18176632391783
  0
LINE
  8
_0-1_計細線
  6
CONTINUOUS
 62
    3
 10
1132.8982004663189
 20
674.18176632391794
 11
978.43374986367235
 21
674.18176632391794
  0
LINE
  8
_0-1_計細線
  6
CONTINUOUS
 62
    3
 10
978.43374986367235
 20
666.1817663239184
 11
1130.0313752337406
 21
666.1817663239184
  0
LINE
  8
_0-1_計細線
  6
CONTINUOUS
 62
    3
 10
1126.5645675569217
 20
660.1817663239176
 11
978.43374986367235
 21
660.1817663239176
  0
LINE
  8
_0-1_計細線
  6
CONTINUOUS
 62
    3
 10
978.43374986367235
 20
652.18176632391783
 11
1121.3562970389044
 21
652.18176632391783
  0
LINE
  8
_0-1_計細線
  6
CONTINUOUS
 62
    3
 10
1117.8894893620859
 20
646.1817663239176
 11
978.43374986367235
 21
646.1817663239176
  0
LINE
  8
_0-1_計細線
  6
CONTINUOUS
 62
    3
 10
978.43374986367235
 20
638.18176632391783
 11
1115.0226641295071
 21
638.18176632391783
  0
LINE
  8
_0-1_計細線
  6
CONTINUOUS
 62
    3
 10
1114.7915185875277
 20
632.18176632391737
 11
978.43374986367235
 21
632.18176632391737
  0
LINE
  8
_0-1_計細線
  6
CONTINUOUS
 62
    3
 10
978.43374986367235
 20
624.18176632391783
 11
1116.9056230308483
 21
624.18176632391783
  0
LINE
  8
_0-1_計細線
  6
CONTINUOUS
 62
    3
 10
1119.6236791013075
 20
618.18176632391737
 11
978.43374986367235
 21
618.18176632391737
  0
LINE
  8
_0-1_計細線
  6
CONTINUOUS
 62
    3
 10
978.43374986367235
 20
610.18176632391783
 11
1123.9604322979126
 21
610.18176632391783
  0
LINE
  8
_0-0_計極細
  6
CONTINUOUS
 62
    2
 10
577.43374986367235
 20
694.18176632391794
 11
577.43374986367235
 21
688.18176632391737
  0
LINE
  8
_0-0_計極細
  6
CONTINUOUS
 62
    2
 10
572.43374986367235
 20
688.18176632391737
 11
572.43374986367235
 21
694.18176632391794
  0
LINE
  8
_0-0_計極細
  6
CONTINUOUS
 62
    2
 10
577.43374986367235
 20
680.18176632391783
 11
577.43374986367235
 21
674.18176632391737
  0
LINE
  8
_0-0_計極細
  6
CONTINUOUS
 62
    2
 10
572.43374986367235
 20
674.18176632391737
 11
572.43374986367235
 21
680.18176632391783
  0
LINE
  8
_0-0_計極細
  6
CONTINUOUS
 62
    2
 10
577.43374986367235
 20
666.1817663239176
 11
577.43374986367235
 21
660.18176632391737
  0
LINE
  8
_0-0_計極細
  6
CONTINUOUS
 62
    2
 10
572.43374986367235
 20
660.18176632391715
 11
572.43374986367235
 21
666.1817663239176
  0
LINE
  8
_0-0_計極細
  6
CONTINUOUS
 62
    2
 10
577.43374986367235
 20
652.18176632391749
 11
577.43374986367235
 21
646.18176632391692
  0
LINE
  8
_0-0_計極細
  6
CONTINUOUS
 62
    2
 10
572.43374986367235
 20
646.18176632391692
 11
572.43374986367235
 21
652.18176632391749
  0
LINE
  8
_0-0_計極細
  6
CONTINUOUS
 62
    2
 10
577.43374986367235
 20
638.18176632391737
 11
577.43374986367235
 21
632.18176632391692
  0
LINE
  8
_0-0_計極細
  6
CONTINUOUS
 62
    2
 10
572.43374986367235
 20
632.18176632391692
 11
572.43374986367235
 21
638.18176632391737
  0
LINE
  8
_0-0_計極細
  6
CONTINUOUS
 62
    2
 10
577.43374986367235
 20
624.18176632391737
 11
577.43374986367235
 21
618.18176632391692
  0
LINE
  8
_0-0_計極細
  6
CONTINUOUS
 62
    2
 10
572.43374986367235
 20
618.18176632391692
 11
572.43374986367235
 21
624.18176632391737
  0
LINE
  8
_0-0_計極細
  6
CONTINUOUS
 62
    2
 10
677.43374986367246
 20
694.18176632391794
 11
677.43374986367246
 21
688.18176632391737
  0
LINE
  8
_0-0_計極細
  6
CONTINUOUS
 62
    2
 10
672.43374986367246
 20
688.18176632391737
 11
672.43374986367246
 21
694.18176632391794
  0
LINE
  8
_0-0_計極細
  6
CONTINUOUS
 62
    2
 10
677.43374986367246
 20
680.18176632391783
 11
677.43374986367246
 21
674.18176632391737
  0
LINE
  8
_0-0_計極細
  6
CONTINUOUS
 62
    2
 10
672.43374986367246
 20
674.18176632391737
 11
672.43374986367246
 21
680.18176632391783
  0
LINE
  8
_0-0_計極細
  6
CONTINUOUS
 62
    2
 10
677.43374986367246
 20
666.1817663239176
 11
677.43374986367246
 21
660.18176632391737
  0
LINE
  8
_0-0_計極細
  6
CONTINUOUS
 62
    2
 10
672.43374986367246
 20
660.18176632391715
 11
672.43374986367246
 21
666.1817663239176
  0
LINE
  8
_0-0_計極細
  6
CONTINUOUS
 62
    2
 10
677.43374986367246
 20
652.18176632391749
 11
677.43374986367246
 21
646.18176632391692
  0
LINE
  8
_0-0_計極細
  6
CONTINUOUS
 62
    2
 10
672.43374986367246
 20
646.18176632391692
 11
672.43374986367246
 21
652.18176632391749
  0
LINE
  8
_0-0_計極細
  6
CONTINUOUS
 62
    2
 10
677.43374986367246
 20
638.18176632391737
 11
677.43374986367246
 21
632.18176632391692
  0
LINE
  8
_0-0_計極細
  6
CONTINUOUS
 62
    2
 10
672.43374986367246
 20
632.18176632391692
 11
672.43374986367246
 21
638.18176632391737
  0
LINE
  8
_0-0_計極細
  6
CONTINUOUS
 62
    2
 10
677.43374986367246
 20
624.18176632391737
 11
677.43374986367246
 21
618.18176632391692
  0
LINE
  8
_0-0_計極細
  6
CONTINUOUS
 62
    2
 10
672.43374986367246
 20
618.18176632391692
 11
672.43374986367246
 21
624.18176632391737
  0
LINE
  8
_0-0_計極細
  6
CONTINUOUS
 62
    2
 10
777.43374986367246
 20
694.18176632391794
 11
777.43374986367246
 21
688.18176632391737
  0
LINE
  8
_0-0_計極細
  6
CONTINUOUS
 62
    2
 10
772.43374986367246
 20
688.18176632391737
 11
772.43374986367246
 21
694.18176632391794
  0
LINE
  8
_0-0_計極細
  6
CONTINUOUS
 62
    2
 10
777.43374986367246
 20
680.18176632391783
 11
777.43374986367246
 21
674.18176632391737
  0
LINE
  8
_0-0_計極細
  6
CONTINUOUS
 62
    2
 10
772.43374986367246
 20
674.18176632391737
 11
772.43374986367246
 21
680.18176632391783
  0
LINE
  8
_0-0_計極細
  6
CONTINUOUS
 62
    2
 10
777.43374986367246
 20
666.1817663239176
 11
777.43374986367246
 21
660.18176632391737
  0
LINE
  8
_0-0_計極細
  6
CONTINUOUS
 62
    2
 10
772.43374986367246
 20
660.18176632391715
 11
772.43374986367246
 21
666.1817663239176
  0
LINE
  8
_0-0_計極細
  6
CONTINUOUS
 62
    2
 10
777.43374986367246
 20
652.18176632391749
 11
777.43374986367246
 21
646.18176632391692
  0
LINE
  8
_0-0_計極細
  6
CONTINUOUS
 62
    2
 10
772.43374986367246
 20
646.18176632391692
 11
772.43374986367246
 21
652.18176632391749
  0
LINE
  8
_0-0_計極細
  6
CONTINUOUS
 62
    2
 10
777.43374986367246
 20
638.18176632391737
 11
777.43374986367246
 21
632.18176632391692
  0
LINE
  8
_0-0_計極細
  6
CONTINUOUS
 62
    2
 10
772.43374986367246
 20
632.18176632391692
 11
772.43374986367246
 21
638.18176632391737
  0
LINE
  8
_0-0_計極細
  6
CONTINUOUS
 62
    2
 10
777.43374986367246
 20
624.18176632391737
 11
777.43374986367246
 21
618.18176632391692
  0
LINE
  8
_0-0_計極細
  6
CONTINUOUS
 62
    2
 10
772.43374986367246
 20
618.18176632391692
 11
772.43374986367246
 21
624.18176632391737
  0
LINE
  8
_0-0_計極細
  6
CONTINUOUS
 62
    2
 10
877.43374986367246
 20
694.18176632391794
 11
877.43374986367246
 21
688.18176632391737
  0
LINE
  8
_0-0_計極細
  6
CONTINUOUS
 62
    2
 10
872.43374986367246
 20
688.18176632391737
 11
872.43374986367246
 21
694.18176632391794
  0
LINE
  8
_0-0_計極細
  6
CONTINUOUS
 62
    2
 10
877.43374986367246
 20
680.18176632391783
 11
877.43374986367246
 21
674.18176632391737
  0
LINE
  8
_0-0_計極細
  6
CONTINUOUS
 62
    2
 10
872.43374986367246
 20
674.18176632391737
 11
872.43374986367246
 21
680.18176632391783
  0
LINE
  8
_0-0_計極細
  6
CONTINUOUS
 62
    2
 10
877.43374986367246
 20
666.1817663239176
 11
877.43374986367246
 21
660.18176632391737
  0
LINE
  8
_0-0_計極細
  6
CONTINUOUS
 62
    2
 10
872.43374986367246
 20
660.18176632391715
 11
872.43374986367246
 21
666.1817663239176
  0
LINE
  8
_0-0_計極細
  6
CONTINUOUS
 62
    2
 10
877.43374986367246
 20
652.18176632391749
 11
877.43374986367246
 21
646.18176632391692
  0
LINE
  8
_0-0_計極細
  6
CONTINUOUS
 62
    2
 10
872.43374986367246
 20
646.18176632391692
 11
872.43374986367246
 21
652.18176632391749
  0
LINE
  8
_0-0_計極細
  6
CONTINUOUS
 62
    2
 10
877.43374986367246
 20
638.18176632391737
 11
877.43374986367246
 21
632.18176632391692
  0
LINE
  8
_0-0_計極細
  6
CONTINUOUS
 62
    2
 10
872.43374986367246
 20
632.18176632391692
 11
872.43374986367246
 21
638.18176632391737
  0
LINE
  8
_0-0_計極細
  6
CONTINUOUS
 62
    2
 10
877.43374986367246
 20
624.18176632391737
 11
877.43374986367246
 21
618.18176632391692
  0
LINE
  8
_0-0_計極細
  6
CONTINUOUS
 62
    2
 10
872.43374986367246
 20
618.18176632391692
 11
872.43374986367246
 21
624.18176632391737
  0
LINE
  8
_0-0_計極細
  6
CONTINUOUS
 62
    2
 10
1077.4337498636723
 20
694.18176632391794
 11
1077.4337498636723
 21
688.18176632391737
  0
LINE
  8
_0-0_計極細
  6
CONTINUOUS
 62
    2
 10
1072.4337498636723
 20
688.18176632391737
 11
1072.4337498636723
 21
694.18176632391794
  0
LINE
  8
_0-0_計極細
  6
CONTINUOUS
 62
    2
 10
1077.4337498636723
 20
680.18176632391783
 11
1077.4337498636723
 21
674.18176632391737
  0
LINE
  8
_0-0_計極細
  6
CONTINUOUS
 62
    2
 10
1072.4337498636723
 20
674.18176632391737
 11
1072.4337498636723
 21
680.18176632391783
  0
LINE
  8
_0-0_計極細
  6
CONTINUOUS
 62
    2
 10
1077.4337498636723
 20
666.1817663239176
 11
1077.4337498636723
 21
660.18176632391737
  0
LINE
  8
_0-0_計極細
  6
CONTINUOUS
 62
    2
 10
1072.4337498636723
 20
660.18176632391715
 11
1072.4337498636723
 21
666.1817663239176
  0
LINE
  8
_0-0_計極細
  6
CONTINUOUS
 62
    2
 10
1077.4337498636723
 20
652.18176632391749
 11
1077.4337498636723
 21
646.18176632391692
  0
LINE
  8
_0-0_計極細
  6
CONTINUOUS
 62
    2
 10
1072.4337498636723
 20
646.18176632391692
 11
1072.4337498636723
 21
652.18176632391749
  0
LINE
  8
_0-0_計極細
  6
CONTINUOUS
 62
    2
 10
1077.4337498636723
 20
638.18176632391737
 11
1077.4337498636723
 21
632.18176632391692
  0
LINE
  8
_0-0_計極細
  6
CONTINUOUS
 62
    2
 10
1072.4337498636723
 20
632.18176632391692
 11
1072.4337498636723
 21
638.18176632391737
  0
LINE
  8
_0-0_計極細
  6
CONTINUOUS
 62
    2
 10
1077.4337498636723
 20
624.18176632391737
 11
1077.4337498636723
 21
618.18176632391692
  0
LINE
  8
_0-0_計極細
  6
CONTINUOUS
 62
    2
 10
1072.4337498636723
 20
618.18176632391692
 11
1072.4337498636723
 21
624.18176632391737
  0
LINE
  8
_0-0_計極細
  6
CONTINUOUS
 62
    2
 10
377.43374986367235
 20
694.18176632391794
 11
377.43374986367235
 21
688.18176632391737
  0
LINE
  8
_0-0_計極細
  6
CONTINUOUS
 62
    2
 10
372.43374986367235
 20
688.18176632391737
 11
372.43374986367235
 21
694.18176632391794
  0
LINE
  8
_0-0_計極細
  6
CONTINUOUS
 62
    2
 10
377.43374986367235
 20
680.18176632391783
 11
377.43374986367235
 21
674.18176632391737
  0
LINE
  8
_0-0_計極細
  6
CONTINUOUS
 62
    2
 10
372.43374986367235
 20
674.18176632391737
 11
372.43374986367235
 21
680.18176632391783
  0
LINE
  8
_0-0_計極細
  6
CONTINUOUS
 62
    2
 10
377.43374986367235
 20
666.1817663239176
 11
377.43374986367235
 21
660.18176632391737
  0
LINE
  8
_0-0_計極細
  6
CONTINUOUS
 62
    2
 10
372.43374986367235
 20
660.18176632391715
 11
372.43374986367235
 21
666.1817663239176
  0
LINE
  8
_0-0_計極細
  6
CONTINUOUS
 62
    2
 10
377.43374986367235
 20
652.18176632391749
 11
377.43374986367235
 21
646.18176632391692
  0
LINE
  8
_0-0_計極細
  6
CONTINUOUS
 62
    2
 10
372.43374986367235
 20
646.18176632391692
 11
372.43374986367235
 21
652.18176632391749
  0
LINE
  8
_0-0_計極細
  6
CONTINUOUS
 62
    2
 10
377.43374986367235
 20
638.18176632391737
 11
377.43374986367235
 21
632.18176632391692
  0
LINE
  8
_0-0_計極細
  6
CONTINUOUS
 62
    2
 10
372.43374986367235
 20
632.18176632391692
 11
372.43374986367235
 21
638.18176632391737
  0
LINE
  8
_0-0_計極細
  6
CONTINUOUS
 62
    2
 10
377.43374986367235
 20
624.18176632391737
 11
377.43374986367235
 21
618.18176632391692
  0
LINE
  8
_0-0_計極細
  6
CONTINUOUS
 62
    2
 10
372.43374986367235
 20
618.18176632391692
 11
372.43374986367235
 21
624.18176632391737
  0
TEXT
  8
_0-5_寸法線
 62
    7
 10
593.67073225861395
 20
549.66624679621304
 40
15
 41
0.8000000000000001
 50
0
  1
ＧＳＬ－１５
  0
TEXT
  8
_0-5_寸法線
 62
    7
 10
813.27081859303826
 20
549.66624679621304
 40
15
 41
0.8000000000000001
 50
0
  1
ＧＳＴ－１５Ｗ９２
  0
TEXT
  8
_0-7_枠細線
 62
    5
 10
965.50000000000011
 20
110
 40
20
 41
0.6
 50
0
  1
ＧＳＴ－１５Ｗ９２
  0
TEXT
  8
_0-7_枠細線
 62
    5
 10
965.49999999999966
 20
70
 40
20.000000000000004
 41
0.5999999999999997
 50
0
  1
表面形状については記号表参照のこと
  0
LINE
  8
_0-7_枠細線
  6
CONTINUOUS
 62
    5
 10
1409.4018171150183
 20
328.47321710336234
 11
1409.4018171150183
 21
223.47321710336274
  0
TEXT
  8
_0-7_枠細線
 62
    5
 10
1318.4018171150192
 20
308.47321710336234
 40
15.000000000000002
 41
0.8
 50
0
  1
ノンスリップ
  0
TEXT
  8
_0-7_枠細線
 62
    5
 10
1330.4018171150185
 20
283.47321710336234
 40
15.000000000000002
 41
0.8
 50
0
  1
品番－Ｄ
  0
LINE
  8
_0-7_枠細線
  6
CONTINUOUS
 62
    5
 10
1299.4018171150178
 20
328.47321710336234
 11
1299.4018171150178
 21
223.47321710336274
  0
TEXT
  8
_0-7_枠細線
 62
    5
 10
1220.4018171150178
 20
308.4732171033624
 40
15.000000000000002
 41
0.8
 50
0
  1
プレーン
  0
TEXT
  8
_0-7_枠細線
 62
    5
 10
1220.4018171150185
 20
283.47321710336234
 40
15.000000000000002
 41
0.8
 50
0
  1
品番－Ｆ
  0
TEXT
  8
_0-7_枠細線
 62
    5
 10
1140.4018171150183
 20
308.47321710336234
 40
15.000000000000002
 41
0.8
 50
0
  1
タ イ プ
  0
LINE
  8
_0-7_枠細線
  6
CONTINUOUS
 62
    5
 10
1139.4018171150174
 20
278.47321710336234
 11
1409.4018171150183
 21
278.47321710336234
  0
LINE
  8
_0-7_枠細線
  6
CONTINUOUS
 62
    5
 10
1139.4018171150174
 20
303.47321710336234
 11
1409.4018171150183
 21
303.47321710336234
  0
LINE
  8
_0-7_枠細線
  6
CONTINUOUS
 62
    5
 10
1139.4018171150174
 20
328.47321710336234
 11
1409.4018171150183
 21
328.47321710336234
  0
LINE
  8
_0-7_枠細線
  6
CONTINUOUS
 62
    5
 10
1139.4018171150174
 20
223.47321710336274
 11
1409.4018171150183
 21
223.47321710336274
  0
LINE
  8
_0-7_枠細線
  6
CONTINUOUS
 62
    5
 10
1189.4018171150183
 20
328.47321710336234
 11
1189.4018171150183
 21
223.47321710336274
  0
LINE
  8
_0-7_枠細線
  6
CONTINUOUS
 62
    5
 10
1139.4018171150174
 20
328.47321710336234
 11
1139.4018171150174
 21
223.47321710336274
  0
TEXT
  8
_0-7_枠細線
 62
    5
 10
1140.4018171150183
 20
243.47321710336257
 40
15.000000000000002
 41
0.8
 50
0
  1
表面形状
  0
TEXT
  8
_0-7_枠細線
 62
    5
 10
1147.1760284558286
 20
330.9732171033624
 40
17.500000000000004
 41
0.7999999999999996
 50
0
  1
記号表
  0
TEXT
  8
_0-7_枠細線
 62
    5
 10
1140.4018171150183
 20
283.47321710336246
 40
15.000000000000002
 41
0.8
 50
0
  1
記　　号
  0
ARC
  8
_0-7_枠細線
  6
CONTINUOUS
 62
    5
 10
1282.9664605906703
 20
242.85777402966897
 40
12.026499332130607
 50
317.5616290000047
 51
42.438370999994966
  0
ARC
  8
_0-7_枠細線
  6
CONTINUOUS
 62
    5
 10
1300.7176602555628
 20
259.08866002804609
 40
12.026499332130607
 50
137.56162900000001
 51
222.43837100000297
  0
ARC
  8
_0-7_枠細線
  6
CONTINUOUS
 62
    5
 10
1188.0859738141417
 20
242.85777402966897
 40
12.026499332130607
 50
317.5616290000047
 51
42.438370999994966
  0
ARC
  8
_0-7_枠細線
  6
CONTINUOUS
 62
    5
 10
1205.8371734790342
 20
259.08866002804609
 40
12.026499332130607
 50
137.56162900000001
 51
222.43837100000297
  0
LINE
  8
_0-7_枠細線
  6
CONTINUOUS
 62
    5
 10
1194.4553061852557
 20
262.97321702885733
 11
1289.3357929617841
 21
262.97321702885733
  0
LINE
  8
_0-7_枠細線
  6
CONTINUOUS
 62
    5
 10
1294.3483278844485
 20
238.97321702885733
 11
1199.4678411079201
 21
238.97321702885733
  0
ARC
  8
_0-7_枠細線
  6
CONTINUOUS
 62
    5
 10
1392.966460590671
 20
242.85777402966897
 40
12.026499332130607
 50
317.5616290000047
 51
42.438370999994966
  0
ARC
  8
_0-7_枠細線
  6
CONTINUOUS
 62
    5
 10
1410.7176602555635
 20
259.08866002804609
 40
12.026499332130607
 50
137.56162900000001
 51
222.43837100000297
  0
ARC
  8
_0-7_枠細線
  6
CONTINUOUS
 62
    5
 10
1298.0859738141421
 20
242.85777402966897
 40
12.026499332130607
 50
317.5616290000047
 51
42.438370999994966
  0
ARC
  8
_0-7_枠細線
  6
CONTINUOUS
 62
    5
 10
1315.8371734790348
 20
259.08866002804609
 40
12.026499332130607
 50
137.56162900000001
 51
222.43837100000297
  0
LINE
  8
_0-7_枠細線
  6
CONTINUOUS
 62
    5
 10
1304.4553061852562
 20
262.97321702885733
 11
1399.3357929617846
 21
262.97321702885733
  0
LINE
  8
_0-7_枠細線
  6
CONTINUOUS
 62
    5
 10
1404.3483278844492
 20
238.97321702885733
 11
1309.4678411079208
 21
238.97321702885733
  0
LINE
  8
_0-7_枠細線
  6
CONTINUOUS
 62
    5
 10
1310.0055655050667
 20
244.4577803132122
 11
1315.4901287894213
 21
238.9732170288575
  0
LINE
  8
_0-7_枠細線
  6
CONTINUOUS
 62
    5
 10
1304.3960893257238
 20
262.79517855391305
 11
1328.218050850779
 21
238.97321702885748
  0
LINE
  8
_0-7_枠細線
  6
CONTINUOUS
 62
    5
 10
1316.9459729121372
 20
262.97321702885756
 11
1340.9459729121368
 21
238.97321702885748
  0
LINE
  8
_0-7_枠細線
  6
CONTINUOUS
 62
    5
 10
1329.6738949734947
 20
262.97321702885745
 11
1353.6738949734945
 21
238.97321702885748
  0
LINE
  8
_0-7_枠細線
  6
CONTINUOUS
 62
    5
 10
1342.4018170348527
 20
262.97321702885745
 11
1366.4018170348525
 21
238.97321702885745
  0
LINE
  8
_0-7_枠細線
  6
CONTINUOUS
 62
    5
 10
1355.1297390962102
 20
262.97321702885739
 11
1379.12973909621
 21
238.97321702885739
  0
LINE
  8
_0-7_枠細線
  6
CONTINUOUS
 62
    5
 10
1367.8576611575681
 20
262.97321702885739
 11
1391.8576611575677
 21
238.97321702885739
  0
LINE
  8
_0-7_枠細線
  6
CONTINUOUS
 62
    5
 10
1380.5855832189261
 20
262.97321702885739
 11
1404.4075447439814
 21
239.15125550380145
  0
LINE
  8
_0-7_枠細線
  6
CONTINUOUS
 62
    5
 10
1393.3135052802836
 20
262.97321702885733
 11
1398.7980685646389
 21
257.48865374450207
  0
LINE
  8
_0-7_枠細線
  6
CONTINUOUS
 62
    5
 10
1393.3135052802843
 20
238.97321702885739
 11
1403.3188705607763
 21
248.97858230934932
  0
LINE
  8
_0-7_枠細線
  6
CONTINUOUS
 62
    5
 10
1380.5855832189263
 20
238.97321702885739
 11
1398.8365633238182
 21
257.22419713374904
  0
LINE
  8
_0-7_枠細線
  6
CONTINUOUS
 62
    5
 10
1367.8576611575684
 20
238.97321702885745
 11
1391.8576611575686
 21
262.97321702885733
  0
LINE
  8
_0-7_枠細線
  6
CONTINUOUS
 62
    5
 10
1355.1297390962109
 20
238.97321702885748
 11
1379.1297390962106
 21
262.97321702885739
  0
LINE
  8
_0-7_枠細線
  6
CONTINUOUS
 62
    5
 10
1342.4018170348527
 20
238.97321702885748
 11
1366.4018170348527
 21
262.97321702885739
  0
LINE
  8
_0-7_枠細線
  6
CONTINUOUS
 62
    5
 10
1329.673894973495
 20
238.97321702885748
 11
1353.673894973495
 21
262.97321702885739
  0
LINE
  8
_0-7_枠細線
  6
CONTINUOUS
 62
    5
 10
1316.9459729121374
 20
238.9732170288575
 11
1340.9459729121372
 21
262.97321702885745
  0
LINE
  8
_0-7_枠細線
  6
CONTINUOUS
 62
    5
 10
1309.9670707458877
 20
244.72223692396568
 11
1328.2180508507793
 21
262.97321702885745
  0
LINE
  8
_0-7_枠細線
  6
CONTINUOUS
 62
    5
 10
1305.4847635089297
 20
252.96785174836555
 11
1315.4901287894218
 21
262.97321702885756
  0
LINE
  8
_0-a_極細3
  6
CONTINUOUS
 62
    7
 10
559.26399310350553
 20
256.5681060246003
 11
555.43065977017204
 21
256.5681060246003
  0
LINE
  8
_0-a_極細3
  6
CONTINUOUS
 62
    7
 10
559.26399310350553
 20
259.90143935793378
 11
555.43065977017204
 21
259.90143935793378
  0
LINE
  8
_0-a_極細3
  6
CONTINUOUS
 62
    7
 10
559.26399310350553
 20
253.23477269126704
 11
555.43065977017204
 21
253.23477269126704
  0
LINE
  8
_0-a_極細3
  6
CONTINUOUS
 62
    7
 10
559.26399310350553
 20
263.23477269126704
 11
555.43065977017204
 21
263.23477269126704
  0
LINE
  8
_0-a_極細3
  6
CONTINUOUS
 62
    7
 10
555.43065977017204
 20
229.90143935793381
 11
559.26399310350553
 21
229.90143935793381
  0
LINE
  8
_0-a_極細3
  6
CONTINUOUS
 62
    7
 10
559.26399310350553
 20
279.90143935793378
 11
555.43065977017204
 21
279.90143935793378
  0
LINE
  8
_0-b_細線3
  6
CONTINUOUS
 62
    7
 10
555.43065977017204
 20
283.23477269126704
 11
555.43065977017204
 21
224.90143935793381
  0
LINE
  8
_0-b_細線3
  6
CONTINUOUS
 62
    7
 10
555.43065977017204
 20
224.90143935793381
 11
559.26399310350553
 21
224.90143935793381
  0
LINE
  8
_0-b_細線3
  6
CONTINUOUS
 62
    7
 10
559.26399310350553
 20
224.90143935793381
 11
559.26399310350553
 21
283.23477269126704
  0
LINE
  8
_0-b_細線3
  6
CONTINUOUS
 62
    7
 10
559.26399310350553
 20
283.23477269126704
 11
555.43065977017204
 21
283.23477269126704
  0
LINE
  8
_0-a_極細3
  6
CONTINUOUS
 62
    7
 10
381.59732643683867
 20
256.5681060246003
 11
385.43065977017199
 21
256.5681060246003
  0
LINE
  8
_0-a_極細3
  6
CONTINUOUS
 62
    7
 10
381.59732643683867
 20
259.90143935793378
 11
385.43065977017199
 21
259.90143935793378
  0
LINE
  8
_0-a_極細3
  6
CONTINUOUS
 62
    7
 10
381.59732643683867
 20
253.23477269126704
 11
385.43065977017199
 21
253.23477269126704
  0
LINE
  8
_0-a_極細3
  6
CONTINUOUS
 62
    7
 10
381.59732643683867
 20
263.23477269126704
 11
385.43065977017199
 21
263.23477269126704
  0
LINE
  8
_0-a_極細3
  6
CONTINUOUS
 62
    7
 10
385.43065977017199
 20
229.90143935793381
 11
381.59732643683867
 21
229.90143935793381
  0
LINE
  8
_0-a_極細3
  6
CONTINUOUS
 62
    7
 10
381.59732643683867
 20
279.90143935793378
 11
385.43065977017199
 21
279.90143935793378
  0
LINE
  8
_0-d_寸法3
  6
CONTINUOUS
 62
    7
 10
375.43065977017199
 20
293.23477269126715
 11
329.48062869158269
 21
293.23477269126704
  0
LINE
  8
_0-d_寸法3
  6
CONTINUOUS
 62
    7
 10
334.48062869158269
 20
293.23477269126704
 11
337.06881914260794
 21
283.57551442837632
  0
LINE
  8
_0-d_寸法3
  6
CONTINUOUS
 62
    7
 10
334.48062869158269
 20
293.23477269126704
 11
331.89243824055745
 21
283.57551442837638
  0
LINE
  8
_0-d_寸法3
  6
CONTINUOUS
 62
    7
 10
371.59732643683867
 20
263.23477269126715
 11
329.48062869158269
 21
263.23477269126704
  0
LINE
  8
_0-d_寸法3
  6
CONTINUOUS
 62
    7
 10
334.48062869158269
 20
263.23477269126704
 11
331.89243824055745
 21
272.8940309541577
  0
LINE
  8
_0-d_寸法3
  6
CONTINUOUS
 62
    7
 10
334.48062869158269
 20
263.23477269126704
 11
337.06881914260794
 21
272.89403095415776
  0
LINE
  8
_0-d_寸法3
  6
CONTINUOUS
 62
    7
 10
334.48062869158269
 20
293.23477269126704
 11
334.48062869158269
 21
263.23477269126704
  0
TEXT
  8
_0-d_寸法3
 62
    7
 10
334.48062869158269
 20
270.73477269126704
 40
15
 41
1
 50
90
  1
18
  0
LINE
  8
_0-d_寸法3
  6
CONTINUOUS
 62
    7
 10
375.43065977017199
 20
263.23477269126687
 11
329.48062869158269
 21
263.23477269126681
  0
LINE
  8
_0-d_寸法3
  6
CONTINUOUS
 62
    7
 10
334.48062869158269
 20
263.23477269126681
 11
337.06881914260794
 21
253.57551442837615
  0
LINE
  8
_0-d_寸法3
  6
CONTINUOUS
 62
    7
 10
334.48062869158269
 20
263.23477269126681
 11
331.89243824055745
 21
253.57551442837618
  0
LINE
  8
_0-d_寸法3
  6
CONTINUOUS
 62
    7
 10
371.59732643683867
 20
224.90143935793358
 11
329.48062869158269
 21
224.90143935793358
  0
LINE
  8
_0-d_寸法3
  6
CONTINUOUS
 62
    7
 10
334.48062869158269
 20
224.90143935793355
 11
331.89243824055745
 21
234.56069762082424
  0
LINE
  8
_0-d_寸法3
  6
CONTINUOUS
 62
    7
 10
334.48062869158269
 20
224.90143935793355
 11
337.06881914260794
 21
234.56069762082424
  0
LINE
  8
_0-d_寸法3
  6
CONTINUOUS
 62
    7
 10
334.48062869158269
 20
263.23477269126681
 11
334.48062869158269
 21
224.90143935793355
  0
TEXT
  8
_0-d_寸法3
 62
    7
 10
334.48062869158269
 20
236.5681060246003
 40
15
 41
1
 50
90
  1
23
  0
LINE
  8
_0-b_細線3
  6
CONTINUOUS
 62
    7
 10
385.43065977017199
 20
283.23477269126704
 11
385.43065977017199
 21
224.90143935793381
  0
LINE
  8
_0-b_細線3
  6
CONTINUOUS
 62
    7
 10
385.43065977017199
 20
224.90143935793381
 11
381.59732643683867
 21
224.90143935793381
  0
LINE
  8
_0-b_細線3
  6
CONTINUOUS
 62
    7
 10
381.59732643683867
 20
224.90143935793381
 11
381.59732643683867
 21
283.23477269126704
  0
LINE
  8
_0-b_細線3
  6
CONTINUOUS
 62
    7
 10
381.59732643683867
 20
283.23477269126704
 11
385.43065977017199
 21
283.23477269126704
  0
LINE
  8
_0-7_枠細線
  6
CONTINUOUS
 62
    5
 10
578.34986119674488
 20
260.96352268742112
 11
570.84986119674488
 21
275.96352268742112
  0
LINE
  8
_0-7_枠細線
  6
CONTINUOUS
 62
    5
 10
563.34986119674488
 20
260.96352268742112
 11
578.34986119674488
 21
260.96352268742112
  0
LINE
  8
_0-7_枠細線
  6
CONTINUOUS
 62
    5
 10
570.84986119674488
 20
275.96352268742112
 11
563.34986119674488
 21
260.96352268742112
  0
TEXT
  8
_0-7_枠細線
 62
    5
 10
565.71501246489311
 20
260.65652044204052
 40
12.5
 41
0.8
 50
0
  1
１
  0
LINE
  8
_0-7_枠細線
  6
CONTINUOUS
 62
    5
 10
1425
 20
907.5
 11
890
 21
907.5
  0
LINE
  8
_0-7_枠細線
  6
CONTINUOUS
 62
    5
 10
915
 20
908.94233397174708
 11
907.5
 21
923.94233397174708
  0
LINE
  8
_0-7_枠細線
  6
CONTINUOUS
 62
    5
 10
900
 20
908.94233397174708
 11
915
 21
908.94233397174708
  0
LINE
  8
_0-7_枠細線
  6
CONTINUOUS
 62
    5
 10
907.5
 20
923.94233397174708
 11
900
 21
908.94233397174708
  0
TEXT
  8
_0-7_枠細線
 62
    5
 10
902.36515126814822
 20
908.63533172636653
 40
12.5
 41
0.8
 50
0
  1
１
  0
TEXT
  8
_0-7_枠細線
 62
    5
 10
1180
 20
910
 40
12.5
 41
0.7199999999999999
 50
0
  1
２０１９．０９．０１
  0
TEXT
  8
_0-7_枠細線
 62
    5
 10
938.85037037037023
 20
910
 40
12.500000000000002
 41
1
 50
0
  1
アンカー材質･厚み変更
  0
LINE
  8
_0-7_枠細線
  6
CONTINUOUS
 62
    5
 10
890
 20
907.5
 11
890
 21
959.99999999999909
  0
LINE
  8
_0-7_枠細線
  6
CONTINUOUS
 62
    5
 10
925
 20
907.5
 11
925
 21
959.99999999999943
  0
LINE
  8
_0-7_枠細線
  6
CONTINUOUS
 62
    5
 10
1175
 20
907.5
 11
1175
 21
959.99999999999943
  0
LINE
  8
_0-7_枠細線
  6
CONTINUOUS
 62
    5
 10
1275
 20
907.5
 11
1275
 21
959.99999999999943
  0
LINE
  8
_0-9_枠極太
  6
CONTINUOUS
 62
    5
 10
60
 20
60
 11
60
 21
960
  0
LINE
  8
_0-9_枠極太
  6
CONTINUOUS
 62
    5
 10
60
 20
960
 11
1425
 21
960
  0
LINE
  8
_0-9_枠極太
  6
CONTINUOUS
 62
    5
 10
1425
 20
960
 11
1425
 21
60
  0
LINE
  8
_0-9_枠極太
  6
CONTINUOUS
 62
    5
 10
1425
 20
60
 11
60
 21
60
  0
LINE
  8
_0-d_寸法3
  6
CONTINUOUS
 62
    7
 10
385.43065977017199
 20
368.23477102292225
 11
375.77140150728127
 21
365.64658057189712
  0
LINE
  8
_0-d_寸法3
  6
CONTINUOUS
 62
    7
 10
385.43065977017199
 20
368.23477102292225
 11
375.77140150728133
 21
370.82296147394749
  0
LINE
  8
_0-d_寸法3
  6
CONTINUOUS
 62
    7
 10
390.43065977017199
 20
297.40143935793355
 11
390.43065977017199
 21
373.23477102292225
  0
CIRCLE
  8
_0-d_寸法3
  6
CONTINUOUS
 62
    1
 10
390.43065977017199
 20
368.23477102292225
 40
1.5000000000000002
  0
LINE
  8
_0-d_寸法3
  6
CONTINUOUS
 62
    7
 10
360.43065977017199
 20
368.23477102292225
 11
390.43065977017199
 21
368.23477102292225
  0
TEXT
  8
_0-d_寸法3
 62
    7
 10
366.04478713530796
 20
368.23477102292225
 40
15
 41
1
 50
0
  1
3
  0
LINE
  8
_0-d_寸法3
  6
CONTINUOUS
 62
    7
 10
393.76399310350507
 20
294.90143768958922
 11
393.76399310350558
 21
373.23477102292225
  0
LINE
  8
_0-d_寸法3
  6
CONTINUOUS
 62
    7
 10
390.43065977017199
 20
368.23477102292225
 11
393.76399310350553
 21
368.23477102292225
  0
TEXT
  8
_0-d_寸法3
 62
    7
 10
388.3473264368385
 20
368.23477102292225
 40
15
 41
1
 50
0
  1
2
  0
LINE
  8
_0-d_寸法3
  6
CONTINUOUS
 62
    7
 10
393.76399310350553
 20
368.23477102292225
 11
403.42325136639613
 21
370.82296147394743
  0
LINE
  8
_0-d_寸法3
  6
CONTINUOUS
 62
    7
 10
393.76399310350553
 20
368.23477102292225
 11
403.42325136639613
 21
365.64658057189712
  0
LINE
  8
_0-d_寸法3
  6
CONTINUOUS
 62
    7
 10
547.09732643683856
 20
294.90143768958922
 11
547.09732643683856
 21
373.23477102292225
  0
LINE
  8
_0-d_寸法3
  6
CONTINUOUS
 62
    7
 10
547.09732643683856
 20
368.23477102292225
 11
537.43806817394784
 21
365.64658057189712
  0
LINE
  8
_0-d_寸法3
  6
CONTINUOUS
 62
    7
 10
547.09732643683856
 20
368.23477102292225
 11
537.43806817394784
 21
370.82296147394749
  0
LINE
  8
_0-d_寸法3
  6
CONTINUOUS
 62
    7
 10
393.76399310350553
 20
368.23477102292225
 11
547.09732643683856
 21
368.23477102292225
  0
TEXT
  8
_0-d_寸法3
 62
    7
 10
462.93065977017159
 20
368.23477102292225
 40
15
 41
1
 50
0
  1
92
  0
LINE
  8
_0-d_寸法3
  6
CONTINUOUS
 62
    7
 10
550.43065977017159
 20
297.40143935793355
 11
550.43065977017204
 21
373.23477102292225
  0
CIRCLE
  8
_0-d_寸法3
  6
CONTINUOUS
 62
    1
 10
550.43065977017204
 20
368.23477102292225
 40
1.5000000000000002
  0
LINE
  8
_0-d_寸法3
  6
CONTINUOUS
 62
    7
 10
547.09732643683856
 20
368.23477102292225
 11
550.43065977017204
 21
368.23477102292225
  0
TEXT
  8
_0-d_寸法3
 62
    7
 10
545.01399310350507
 20
368.23477102292225
 40
15
 41
1
 50
0
  1
2
  0
LINE
  8
_0-d_寸法3
  6
CONTINUOUS
 62
    7
 10
555.43065977017204
 20
368.23477102292225
 11
565.08991803306276
 21
370.82296147394737
  0
LINE
  8
_0-d_寸法3
  6
CONTINUOUS
 62
    7
 10
555.43065977017204
 20
368.23477102292225
 11
565.08991803306276
 21
365.64658057189706
  0
LINE
  8
_0-d_寸法3
  6
CONTINUOUS
 62
    7
 10
550.43065977017204
 20
368.23477102292225
 11
580.43065977017204
 21
368.23477102292225
  0
TEXT
  8
_0-d_寸法3
 62
    7
 10
569.40215857730152
 20
368.23477102292225
 40
15
 41
1
 50
0
  1
3
  0
LINE
  8
_0-5_寸法線
  6
CONTINUOUS
 62
    7
 10
1176.9337498636751
 20
605.18176632391601
 11
1221.9337498636751
 21
605.18176632391601
  0
LINE
  8
_0-5_寸法線
  6
CONTINUOUS
 62
    7
 10
1216.9337498636751
 20
605.18176632391601
 11
1219.5219403147003
 21
595.52250806102529
  0
LINE
  8
_0-5_寸法線
  6
CONTINUOUS
 62
    7
 10
1216.9337498636751
 20
605.18176632391601
 11
1214.3455594126499
 21
595.52250806102529
  0
LINE
  8
_0-5_寸法線
  6
CONTINUOUS
 62
    7
 10
1176.9337498636751
 20
608.18176632391737
 11
1221.9337498636751
 21
608.18176632391737
  0
CIRCLE
  8
_0-5_寸法線
  6
CONTINUOUS
 62
    1
 10
1216.9337498636751
 20
608.18176632391737
 40
1.5000000000000002
  0
LINE
  8
_0-5_寸法線
  6
CONTINUOUS
 62
    7
 10
1216.9337498636751
 20
580.18176632391601
 11
1216.9337498636751
 21
608.18176632391737
  0
TEXT
  8
_0-5_寸法線
 62
    7
 10
1216.9337498636751
 20
583.98123528189194
 40
15
 41
1
 50
90
  1
3
  0
LINE
  8
_0-5_寸法線
  6
CONTINUOUS
 62
    7
 10
1176.9337498636751
 20
610.18176632391737
 11
1221.9337498636751
 21
610.18176632391715
  0
LINE
  8
_0-5_寸法線
  6
CONTINUOUS
 62
    7
 10
1216.9337498636751
 20
608.18176632391737
 11
1216.9337498636751
 21
610.18176632391715
  0
TEXT
  8
_0-5_寸法線
 62
    7
 10
1235.5445702010645
 20
606.63549664078118
 40
15
 41
1
 50
90
  1
2
  0
LINE
  8
_0-5_寸法線
  6
CONTINUOUS
 62
    7
 10
1216.9337498636751
 20
610.18176632391715
 11
1214.3455594126499
 21
619.84102458680786
  0
LINE
  8
_0-5_寸法線
  6
CONTINUOUS
 62
    7
 10
1216.9337498636751
 20
610.18176632391715
 11
1219.5219403147003
 21
619.84102458680786
  0
LINE
  8
_0-5_寸法線
  6
CONTINUOUS
 62
    7
 10
1176.9337498636751
 20
702.18176632391749
 11
1221.9337498636751
 21
702.18176632391715
  0
LINE
  8
_0-5_寸法線
  6
CONTINUOUS
 62
    7
 10
1216.9337498636751
 20
702.18176632391715
 11
1219.5219403147003
 21
692.52250806102654
  0
LINE
  8
_0-5_寸法線
  6
CONTINUOUS
 62
    7
 10
1216.9337498636751
 20
702.18176632391715
 11
1214.3455594126499
 21
692.52250806102654
  0
LINE
  8
_0-5_寸法線
  6
CONTINUOUS
 62
    7
 10
1216.9337498636751
 20
610.18176632391715
 11
1216.9337498636751
 21
702.18176632391715
  0
TEXT
  8
_0-5_寸法線
 62
    7
 10
1216.9337498636751
 20
648.68176632391692
 40
15
 41
1
 50
90
  1
92
  0
LINE
  8
_0-5_寸法線
  6
CONTINUOUS
 62
    7
 10
1176.9337498636751
 20
704.18176632391737
 11
1221.9337498636751
 21
704.18176632391737
  0
CIRCLE
  8
_0-5_寸法線
  6
CONTINUOUS
 62
    1
 10
1216.9337498636751
 20
704.18176632391737
 40
1.5000000000000002
  0
LINE
  8
_0-5_寸法線
  6
CONTINUOUS
 62
    7
 10
1216.9337498636751
 20
702.18176632391715
 11
1216.9337498636751
 21
704.18176632391737
  0
TEXT
  8
_0-5_寸法線
 62
    7
 10
1234.8595146871012
 20
696.68176632391737
 40
15
 41
1
 50
90
  1
2
  0
LINE
  8
_0-5_寸法線
  6
CONTINUOUS
 62
    7
 10
1176.9337498636751
 20
707.18176632391601
 11
1221.9337498636751
 21
707.18176632391601
  0
LINE
  8
_0-5_寸法線
  6
CONTINUOUS
 62
    7
 10
1216.9337498636751
 20
707.18176632391601
 11
1214.3455594126499
 21
716.84102458680672
  0
LINE
  8
_0-5_寸法線
  6
CONTINUOUS
 62
    7
 10
1216.9337498636751
 20
707.18176632391601
 11
1219.5219403147003
 21
716.84102458680672
  0
LINE
  8
_0-5_寸法線
  6
CONTINUOUS
 62
    7
 10
1216.9337498636751
 20
704.18176632391737
 11
1216.9337498636751
 21
732.18176632391601
  0
TEXT
  8
_0-5_寸法線
 62
    7
 10
1216.9337498636751
 20
718.18176632391669
 40
15
 41
1
 50
90
  1
3
  0
ENDSEC
  0
EOF
