  0
SECTION
  2
HEADER
  9
$ACADVER
  1
AC1009
  9
$INSBASE
 10
0
 20
0
 30
0
  9
$EXTMIN
 10
0
 20
0
  9
$EXTMAX
 10
1485
 20
1050
  9
$LIMMIN
 10
0
 20
0
  9
$LIMMAX
 10
1485
 20
1050
  9
$LTSCALE
 40
5
  0
ENDSEC
  0
SECTION
  2
TABLES
  0
TABLE
  2
LTYPE
 70
     9
  0
LTYPE
  2
CONTINUOUS
 70
    64
  3
実線
 72
    65
 73
     0
 40
0.0
  0
LTYPE
  2
DASHED1
 70
    64
  3
--  --  --  --  --  --  --  --  
 72
    65
 73
     2
 40
2.5
 49
1.25
 49
-1.25
  0
LTYPE
  2
DASHED2
 70
    64
  3
----    ----    ----    ----    
 72
    65
 73
     2
 40
5.0
 49
2.5
 49
-2.5
  0
LTYPE
  2
DASHED3
 70
    64
  3
------  ------  ------  ------  
 72
    65
 73
     2
 40
5.0
 49
3.75
 49
-1.25
  0
LTYPE
  2
CENTER1
 70
    64
  3
----- - ----- - ----- - ----- - 
 72
    65
 73
     4
 40
10.0
 49
6.25
 49
-1.25
 49
1.25
 49
-1.25
  0
LTYPE
  2
CENTER2
 70
    64
  3
----------  --  ----------  --  
 72
    65
 73
     4
 40
20.0
 49
12.5
 49
-2.5
 49
2.5
 49
-2.5
  0
LTYPE
  2
PHANTOM1
 70
    64
  3
--- - - --- - - --- - - --- - - 
 72
    65
 73
     6
 40
10.0
 49
3.25
 49
-1.25
 49
1.25
 49
-1.25
 49
1.25
 49
-1.25
  0
LTYPE
  2
PHANTOM2
 70
    64
  3
--------  -  -  --------  -  -  
 72
    65
 73
     6
 40
20.0
 49
10.0
 49
-2.5
 49
1.25
 49
-2.5
 49
1.25
 49
-2.5
  0
LTYPE
  2
DOT
 70
    64
  3
-   -   -   -   -   -   -   -   
 72
    65
 73
     2
 40
2.5
 49
0.625
 49
-1.875
  0
LTYPE
  2
DUMMY
 70
    64
  3
ダミー
 72
    65
 73
     0
 40
0.0
  0
LTYPE
  2
RAND1
 70
    64
  3
ランダム線1
 72
    65
 73
     4
 40
10.0
 49
1.0
 49
-2.0
 49
3.0
 49
-4.0
  0
LTYPE
  2
RAND2
 70
    64
  3
ランダム線2
 72
    65
 73
     4
 40
14.0
 49
2.0
 49
-3.0
 49
4.0
 49
-5.0
  0
LTYPE
  2
RAND3
 70
    64
  3
ランダム線3
 72
    65
 73
     4
 40
18.0
 49
3.0
 49
-4.0
 49
5.0
 49
-6.0
  0
LTYPE
  2
RAND4
 70
    64
  3
ランダム線4
 72
    65
 73
     4
 40
22.0
 49
4.0
 49
-5.0
 49
6.0
 49
-7.0
  0
LTYPE
  2
RAND5
 70
    64
  3
ランダム線5
 72
    65
 73
     4
 40
26.0
 49
5.0
 49
-6.0
 49
7.0
 49
-8.0
  0
LTYPE
  2
LONG1
 70
    64
  3
----------  --  ----------  --  
 72
    65
 73
     4
 40
40.0
 49
32.5
 49
-2.5
 49
2.5
 49
-2.5
  0
LTYPE
  2
LONG2
 70
    64
  3
--------  -  -  --------  -  -  
 72
    65
 73
     6
 40
40.0
 49
30.0
 49
-2.5
 49
1.25
 49
-2.5
 49
1.25
 49
-2.5
  0
LTYPE
  2
LONG3
 70
    64
  3
+++++++++++++++..+++++++++++++++
 72
    65
 73
     2
 40
40.0
 49
37.5
 49
-2.5
  0
LTYPE
  2
LONG4
 70
    64
  3
+++++++++++++++..+++++++++++++++
 72
    65
 73
     2
 40
80.0
 49
75.0
 49
-5.0
  0
LTYPE
  2
LONG5
 70
    64
  3
----------  --  ----------  --  
 72
    65
 73
     4
 40
60.0
 49
37.5
 49
-7.5
 49
7.5
 49
-7.5
  0
LTYPE
  2
dashed
 70
   64
  3
-------   -------------   ------
 72
   65
 73
    2
 40
7.5
 49
6
 49
-1.5
  0
LTYPE
  2
dashed_spaced
 70
   64
  3
----        --------        ----
 72
   65
 73
    2
 40
12
 49
6
 49
-6
  0
LTYPE
  2
long_dashed_dotted
 70
   64
  3
------------- --- --------------
 72
   65
 73
    4
 40
15.25
 49
12
 49
-1.5
 49
0.25
 49
-1.5
  0
LTYPE
  2
long_dashed_double-dotted
 70
   64
  3
----------- --- --- ------------
 72
   65
 73
    6
 40
17
 49
12
 49
-1.5
 49
0.25
 49
-1.5
 49
0.25
 49
-1.5
  0
LTYPE
  2
long_dashed_triplicate-dotted
 70
   64
  3
--------- --- --- --- ----------
 72
   65
 73
    8
 40
18.75
 49
12
 49
-1.5
 49
0.25
 49
-1.5
 49
0.25
 49
-1.5
 49
0.25
 49
-1.5
  0
LTYPE
  2
dotted
 70
   64
  3
   -       -       -       -    
 72
   65
 73
    2
 40
1.75
 49
0.25
 49
-1.5
  0
LTYPE
  2
chain
 70
   64
  3
-------------- -- --------------
 72
   65
 73
    4
 40
18.5
 49
12
 49
-1.5
 49
3.5
 49
-1.5
  0
LTYPE
  2
chain_double_dash
 70
   64
  3
------------ -- -- -------------
 72
   65
 73
    6
 40
23.5
 49
12
 49
-1.5
 49
3.5
 49
-1.5
 49
3.5
 49
-1.5
  0
LTYPE
  2
dashed_dotted
 70
   64
  3
-----------     -     ----------
 72
   65
 73
    4
 40
9.25
 49
6
 49
-1.5
 49
0.25
 49
-1.5
  0
LTYPE
  2
double-dashed_dotted
 70
   64
  3
------   -----------   -   -----
 72
   65
 73
    6
 40
16.75
 49
6
 49
-1.5
 49
6
 49
-1.5
 49
0.25
 49
-1.5
  0
LTYPE
  2
dashed_double-dotted
 70
   64
  3
---------    -    -    ---------
 72
   65
 73
    6
 40
11
 49
6
 49
-1.5
 49
0.25
 49
-1.5
 49
0.25
 49
-1.5
  0
LTYPE
  2
double-dashed_double-dotted
 70
   64
  3
-----   ---------   -   -   ----
 72
   65
 73
    8
 40
18.5
 49
6
 49
-1.5
 49
6
 49
-1.5
 49
0.25
 49
-1.5
 49
0.25
 49
-1.5
  0
LTYPE
  2
dashed_triplicate-dotted
 70
   64
  3
-------    -    -    -    ------
 72
   65
 73
    8
 40
12.75
 49
6
 49
-1.5
 49
0.25
 49
-1.5
 49
0.25
 49
-1.5
 49
0.25
 49
-1.5
  0
LTYPE
  2
double-dashed_triplicate-dotted
 70
   64
  3
-----  ---------  -  -  -  -----
 72
   65
 73
   10
 40
20.25
 49
6
 49
-1.5
 49
6
 49
-1.5
 49
0.25
 49
-1.5
 49
0.25
 49
-1.5
 49
0.25
 49
-1.5
  0
LTYPE
  2
undefined
 70
   64
  3
--------------------------------
 72
   65
 73
    0
 40
0
  0
ENDTAB
  0
TABLE
  2
STYLE
  5
3
100
AcDbSymbolTable
 70
     1
  0
STYLE
  5
10
100
AcDbSymbolTableRecord
100
AcDbTextStyleTableRecord
  2
STANDARD
 70
     0
 40
0.0
 41
1.0
 50
0.0
 71
     0
 42
0.2
  3
txt
  4
bigfont.shx
  0
STYLE
  5
26
100
AcDbSymbolTableRecord
100
AcDbTextStyleTableRecord
  2
TATEGAKI
 70
    68
 40
0.0
 41
1.0
 50
0.0
 71
     0
 42
1.0
  3
txt
  4
bigfont.shx
  0
ENDTAB
  0
TABLE
  2
LAYER
 70
   10
  0
LAYER
  2
_0-0_計極細
 70
   64
 62
    7
  6
CONTINUOUS
  0
LAYER
  2
_0-1_計細線
 70
   64
 62
    7
  6
CONTINUOUS
  0
LAYER
  2
_0-5_寸法線
 70
   64
 62
    7
  6
CONTINUOUS
  0
LAYER
  2
_0-7_枠細線
 70
   64
 62
    7
  6
CONTINUOUS
  0
LAYER
  2
_0-8_枠中線
 70
   64
 62
    7
  6
CONTINUOUS
  0
LAYER
  2
_0-9_枠極太
 70
   64
 62
    7
  6
CONTINUOUS
  0
LAYER
  2
_0-a_極細3
 70
   64
 62
    7
  6
CONTINUOUS
  0
LAYER
  2
_0-b_細線3
 70
   64
 62
    7
  6
CONTINUOUS
  0
LAYER
  2
_0-d_寸法3
 70
   64
 62
    7
  6
CONTINUOUS
  0
LAYER
  2
ADD_LINE
 70
   64
 62
    7
  6
CONTINUOUS
  0
ENDTAB
  0
ENDSEC
  0
SECTION
  2
BLOCKS
  0
ENDSEC
  0
SECTION
  2
ENTITIES
  0
LINE
  8
_0-7_枠細線
  6
CONTINUOUS
 62
    5
 10
1425
 20
942.5
 11
890
 21
942.5
  0
TEXT
  8
_0-7_枠細線
 62
    5
 10
895
 20
945
 40
12.5
 41
1
 50
0
  1
記号
  0
TEXT
  8
_0-7_枠細線
 62
    5
 10
996.875
 20
945
 40
12.5
 41
1
 50
0
  1
訂　 正　 記　 事
  0
TEXT
  8
_0-7_枠細線
 62
    5
 10
1181.25
 20
945
 40
12.5
 41
1
 50
0
  1
訂 正 年 月 日
  0
TEXT
  8
_0-7_枠細線
 62
    5
 10
1306.25
 20
945
 40
12.5
 41
1
 50
0
  1
備　　　　　考
  0
LINE
  8
_0-7_枠細線
  6
CONTINUOUS
 62
    5
 10
1185
 20
180
 11
1185
 21
100
  0
TEXT
  8
_0-7_枠細線
 62
    5
 10
937.5
 20
97.5
 40
17.5
 41
1
 50
0
  1
備考
  7
TATEGAKI
  0
TEXT
  8
_0-7_枠細線
 62
    5
 10
937.5
 20
137.5
 40
17.5
 41
1
 50
0
  1
品番
  7
TATEGAKI
  0
TEXT
  8
_0-7_枠細線
 62
    5
 10
937.5
 20
177.5
 40
17.5
 41
1
 50
0
  1
品名
  7
TATEGAKI
  0
LINE
  8
_0-7_枠細線
  6
CONTINUOUS
 62
    5
 10
1185
 20
140
 11
925
 21
140
  0
LINE
  8
_0-7_枠細線
  6
CONTINUOUS
 62
    5
 10
950
 20
180
 11
950
 21
60
  0
LINE
  8
_0-8_枠中線
  6
CONTINUOUS
 62
    5
 10
1425
 20
180
 11
925
 21
180
  0
LINE
  8
_0-8_枠中線
  6
CONTINUOUS
 62
    5
 10
925
 20
180
 11
925
 21
60
  0
LINE
  8
_0-7_枠細線
  6
CONTINUOUS
 62
    5
 10
1245
 20
180
 11
1245
 21
60
  0
TEXT
  8
_0-7_枠細線
 62
    5
 10
1192.5
 20
160
 40
15
 41
1
 50
0
  1
縮　尺
  0
TEXT
  8
_0-7_枠細線
 62
    5
 10
1194
 20
117.5
 40
20
 41
0.7000000000000001
 50
0
  1
１：５
  0
LINE
  8
_0-7_枠細線
  6
CONTINUOUS
 62
    5
 10
1185
 20
155
 11
1245
 21
155
  0
LINE
  8
_0-7_枠細線
  6
CONTINUOUS
 62
    5
 10
1245
 20
100
 11
925
 21
100
  0
LINE
  8
_0-7_枠細線
  6
CONTINUOUS
 62
    5
 10
1425
 20
90
 11
1245
 21
90
  0
LINE
  8
_0-7_枠細線
  6
CONTINUOUS
 62
    5
 10
1245
 20
120
 11
1425
 21
120
  0
LINE
  8
_0-7_枠細線
  6
CONTINUOUS
 62
    5
 10
1425
 20
140
 11
1245
 21
140
  0
TEXT
  8
_0-7_枠細線
 62
    5
 10
1255
 20
147.5
 40
25
 41
0.8
 50
0
  1
株式会社シマブン
  0
TEXT
  8
_0-7_枠細線
 62
    5
 10
1252.5
 20
60
 40
15
 41
1
 50
0
  1
年月日
  0
TEXT
  8
_0-7_枠細線
 62
    5
 10
1252.5
 20
75
 40
15
 41
1
 50
0
  1
作　成
  0
TEXT
  8
_0-7_枠細線
 62
    5
 10
1256.25
 20
122.5
 40
15
 41
1
 50
0
  1
承 認
  0
LINE
  8
_0-7_枠細線
  6
CONTINUOUS
 62
    5
 10
1305
 20
140
 11
1305
 21
60
  0
TEXT
  8
_0-7_枠細線
 62
    5
 10
1316.25
 20
122.5
 40
15
 41
1
 50
0
  1
検 図
  0
LINE
  8
_0-7_枠細線
  6
CONTINUOUS
 62
    5
 10
1365
 20
140
 11
1365
 21
90
  0
TEXT
  8
_0-7_枠細線
 62
    5
 10
1375
 20
95
 40
20
 41
1
 50
0
  1
藤戸
  0
TEXT
  8
_0-7_枠細線
 62
    5
 10
1376.25
 20
122.5
 40
15
 41
1
 50
0
  1
設 計
  0
TEXT
  8
_0-7_枠細線
 62
    5
 10
1255
 20
95
 40
20
 41
1
 50
0
  1
隠塚
  0
TEXT
  8
_0-7_枠細線
 62
    5
 10
1315
 20
95
 40
20
 41
1
 50
0
  1
渋田
  0
TEXT
  8
_0-7_枠細線
 62
    5
 10
1310
 20
67.5
 40
15
 41
0.6666666666666666
 50
0
  1
２０１２年０２月２９日
  0
LINE
  8
_0-7_枠細線
  6
CONTINUOUS
 62
    5
 10
1425
 20
925
 11
890
 21
925
  0
TEXT
  8
_0-7_枠細線
 62
    5
 10
938.85037037037023
 20
927.5
 40
12.500000000000002
 41
1
 50
0
  1
品番変更
  0
TEXT
  8
_0-7_枠細線
 62
    5
 10
1180
 20
927.5
 40
12.5
 41
0.7199999999999999
 50
0
  1
２０１５．０４．０１
  0
TEXT
  8
_0-7_枠細線
 62
    5
 10
965.50000000000011
 20
150
 40
20
 41
0.5
 50
0
  1
Ｔバー ステンレスグレーチング Ｈ１５タイプ
  0
LINE
  8
_0-a_極細3
  6
CENTER1
 62
    7
 10
470.43065977017199
 20
252.04894320581707
 11
470.43065977017199
 21
307.16560987248999
  0
TEXT
  8
_0-7_枠細線
 62
    5
 10
420.50861213093816
 20
118.23440768958882
 40
25
 41
0.8
 50
0
  1
断面詳細図
  0
TEXT
  8
_0-7_枠細線
 62
    5
 10
535.45758188010632
 20
118.23440768958882
 40
20
 41
0.6
 50
0
  1
Ｓ＝１：３
  0
CIRCLE
  8
_0-a_極細3
  6
CONTINUOUS
 62
    7
 10
325.38089923365618
 20
278.19373866348224
 40
0.5530864197530718
  0
LINE
  8
_0-a_極細3
  6
CONTINUOUS
 62
    7
 10
330.43065977017199
 20
293.23477269126693
 11
330.43065977017199
 21
281.56810602459996
  0
LINE
  8
_0-a_極細3
  6
CONTINUOUS
 62
    7
 10
338.76399310350553
 20
281.56810602459996
 11
241.25291262505741
 21
281.56810602459996
  0
LINE
  8
_0-a_極細3
  6
CONTINUOUS
 62
    7
 10
338.76399310350553
 20
292.40143935793344
 11
338.76399310350553
 21
293.23477269126693
  0
LINE
  8
_0-a_極細3
  6
CONTINUOUS
 62
    7
 10
338.56590284714594
 20
281.56810602459996
 11
338.76399310350502
 21
281.76619628095955
  0
LINE
  8
_0-a_極細3
  6
CONTINUOUS
 62
    7
 10
334.32326216002679
 20
281.56810602459996
 11
338.76399310350553
 21
286.00883696807864
  0
LINE
  8
_0-a_極細3
  6
CONTINUOUS
 62
    7
 10
330.43065977017199
 20
281.9181443218647
 11
338.76399310350553
 21
290.25147765519796
  0
LINE
  8
_0-a_極細3
  6
CONTINUOUS
 62
    7
 10
330.43065977017199
 20
286.16078500898379
 11
337.50464745245466
 21
293.23477269126693
  0
LINE
  8
_0-a_極細3
  6
CONTINUOUS
 62
    7
 10
330.43065977017199
 20
290.40342569610334
 11
333.26200676533563
 21
293.23477269126693
  0
LINE
  8
_0-a_極細3
  6
CONTINUOUS
 62
    7
 10
338.76399310350553
 20
290.95380581900827
 11
336.48302623124709
 21
293.23477269126693
  0
LINE
  8
_0-a_極細3
  6
CONTINUOUS
 62
    7
 10
338.76399310350553
 20
286.71116513188895
 11
332.24038554412749
 21
293.23477269126693
  0
LINE
  8
_0-a_極細3
  6
CONTINUOUS
 62
    7
 10
330.43065977017199
 20
290.80185777810311
 11
338.76399310350553
 21
282.46852444476986
  0
LINE
  8
_0-a_極細3
  6
CONTINUOUS
 62
    7
 10
330.43065977017199
 20
286.55921709098379
 11
335.42177083655537
 21
281.56810602459996
  0
LINE
  8
_0-a_極細3
  6
CONTINUOUS
 62
    7
 10
330.43065977017199
 20
282.31657640386447
 11
331.17913014943633
 21
281.56810602459996
  0
LINE
  8
_0-a_極細3
  6
CONTINUOUS
 62
    7
 10
321.59534009254139
 20
281.56810601847269
 11
330.43065977017199
 21
290.40342569610334
  0
LINE
  8
_0-a_極細3
  6
CONTINUOUS
 62
    7
 10
300.38213664223395
 20
281.56810600376161
 11
312.0488033297392
 21
293.2347726912667
  0
LINE
  8
_0-a_極細3
  6
CONTINUOUS
 62
    7
 10
279.16893319192593
 20
281.56810598905008
 11
290.83559989414243
 21
293.23477269126693
  0
LINE
  8
_0-a_極細3
  6
CONTINUOUS
 62
    7
 10
257.95572974161814
 20
281.56810597433901
 11
269.62239645854601
 21
293.23477269126693
  0
LINE
  8
_0-a_極細3
  6
CONTINUOUS
 62
    7
 10
241.25291262505741
 20
286.07849229337421
 11
248.40919302294964
 21
293.2347726912667
  0
LINE
  8
_0-a_極細3
  6
DASHED2
 62
    7
 10
310.98873836738761
 20
281.56810601111715
 11
322.65540504753739
 21
293.23477269126693
  0
LINE
  8
_0-a_極細3
  6
DASHED2
 62
    7
 10
289.77553491707971
 20
281.56810599640585
 11
301.44220161194096
 21
293.23477269126693
  0
LINE
  8
_0-a_極細3
  6
DASHED2
 62
    7
 10
268.56233146677226
 20
281.56810598169454
 11
280.22899817634425
 21
293.23477269126693
  0
LINE
  8
_0-a_極細3
  6
DASHED2
 62
    7
 10
247.34912801646436
 20
281.56810596698347
 11
259.01579474074776
 21
293.23477269126693
  0
LINE
  8
_0-a_極細3
  6
CONTINUOUS
 62
    7
 10
272.0973264368385
 20
256.56810602460018
 11
272.0973264368385
 21
188.23477269126698
  0
LINE
  8
_0-a_極細3
  6
CONTINUOUS
 62
    7
 10
355.43065977017199
 20
188.23477269126698
 11
272.0973264368385
 21
188.23477269126698
  0
LINE
  8
_0-a_極細3
  6
CONTINUOUS
 62
    7
 10
272.0973264368385
 20
256.56810602460018
 11
241.25291262505741
 21
256.56810602460018
  0
LINE
  8
_0-a_極細3
  6
CONTINUOUS
 62
    7
 10
355.43065977017199
 20
188.23477269126698
 11
355.43065977017199
 21
161.99317239648778
  0
LINE
  8
_0-a_極細3
  6
CONTINUOUS
 62
    7
 10
318.00868520518225
 20
161.9931725129247
 11
344.25028538352484
 21
188.23477269126698
  0
LINE
  8
_0-a_極細3
  6
CONTINUOUS
 62
    7
 10
247.29800730654091
 20
161.99317273293786
 11
273.53960726487003
 21
188.23477269126698
  0
LINE
  8
_0-a_極細3
  6
CONTINUOUS
 62
    7
 10
241.25291262505741
 20
226.65875617010923
 11
271.16226247954853
 21
256.56810602460018
  0
LINE
  8
_0-a_極細3
  6
CONTINUOUS
 62
    7
 10
310.93761741531807
 20
161.99317253492609
 11
337.17921757165914
 21
188.23477269126698
  0
LINE
  8
_0-a_極細3
  6
CONTINUOUS
 62
    7
 10
241.25291262505741
 20
163.01914586331989
 11
272.0973264368385
 21
193.86355967510127
  0
LINE
  8
_0-a_極細3
  6
CONTINUOUS
 62
    7
 10
241.25291262505741
 20
233.72982398197476
 11
264.09119466768288
 21
256.56810602460018
  0
LINE
  8
_0-a_極細3
  6
CONTINUOUS
 62
    7
 10
303.86654962545435
 20
161.99317255692748
 11
330.10814975979378
 21
188.23477269126698
  0
LINE
  8
_0-a_極細3
  6
CONTINUOUS
 62
    7
 10
241.25291262505741
 20
170.09021367518542
 11
272.0973264368385
 21
200.9346274869668
  0
LINE
  8
_0-a_極細3
  6
CONTINUOUS
 62
    7
 10
241.25291262505741
 20
240.80089179384004
 11
257.02012685581747
 21
256.56810602460018
  0
CIRCLE
  8
_0-a_極細3
  6
CONTINUOUS
 62
    7
 10
259.14880046822464
 20
271.77151644126025
 40
0.5530864197530718
  0
CIRCLE
  8
_0-a_極細3
  6
CONTINUOUS
 62
    7
 10
248.81793627069413
 20
261.81596088570473
 40
0.5530864197530718
  0
CIRCLE
  8
_0-a_極細3
  6
CONTINUOUS
 62
    7
 10
259.4253436781014
 20
262.88262755237133
 40
0.5530864197530718
  0
CIRCLE
  8
_0-a_極細3
  6
CONTINUOUS
 62
    7
 10
272.0475659003236
 20
264.83818310792685
 40
0.5530864197530718
  0
CIRCLE
  8
_0-a_極細3
  6
CONTINUOUS
 62
    7
 10
300.49201034476755
 20
276.5715164412602
 40
0.5530864197530718
  0
CIRCLE
  8
_0-a_極細3
  6
CONTINUOUS
 62
    7
 10
331.06978812254505
 20
270.34929421903803
 40
0.5530864197530718
  0
CIRCLE
  8
_0-a_極細3
  6
CONTINUOUS
 62
    7
 10
306.18089923365636
 20
269.81596088570473
 40
0.5530864197530718
  0
CIRCLE
  8
_0-a_極細3
  6
CONTINUOUS
 62
    7
 10
278.99201034476795
 20
257.58262755237138
 40
0.5530864197530718
  0
CIRCLE
  8
_0-a_極細3
  6
CONTINUOUS
 62
    7
 10
299.43645478921184
 20
256.33818310792685
 40
0.5530864197530718
  0
CIRCLE
  8
_0-a_極細3
  6
CONTINUOUS
 62
    7
 10
324.50312145587844
 20
252.60484977459373
 40
0.5530864197530718
  0
CIRCLE
  8
_0-a_極細3
  6
CONTINUOUS
 62
    7
 10
311.88089923365624
 20
246.91596088570489
 40
0.5530864197530718
  0
CIRCLE
  8
_0-a_極細3
  6
CONTINUOUS
 62
    7
 10
297.12534367810122
 20
233.40484977459369
 40
0.5530864197530718
  0
CIRCLE
  8
_0-a_極細3
  6
CONTINUOUS
 62
    7
 10
324.50312145587844
 20
240.69373866348272
 40
0.5530864197530718
  0
CIRCLE
  8
_0-a_極細3
  6
CONTINUOUS
 62
    7
 10
283.39201034476758
 20
213.58262755237183
 40
0.5530864197530718
  0
CIRCLE
  8
_0-a_極細3
  6
CONTINUOUS
 62
    7
 10
277.70312145587872
 20
195.62707199681631
 40
0.5530864197530718
  0
CIRCLE
  8
_0-a_極細3
  6
CONTINUOUS
 62
    7
 10
286.41423256698999
 20
202.38262755237179
 40
0.5530864197530718
  0
CIRCLE
  8
_0-a_極細3
  6
CONTINUOUS
 62
    7
 10
292.63645478921211
 20
193.84929421903848
 40
0.5530864197530718
  0
CIRCLE
  8
_0-a_極細3
  6
CONTINUOUS
 62
    7
 10
331.93645478921184
 20
211.7381831079274
 40
0.5530864197530718
  0
CIRCLE
  8
_0-a_極細3
  6
CONTINUOUS
 62
    7
 10
320.73645478921202
 20
206.22707199681625
 40
0.5530864197530718
  0
CIRCLE
  8
_0-a_極細3
  6
CONTINUOUS
 62
    7
 10
326.95867701143419
 20
203.73818310792743
 40
0.5530864197530718
  0
CIRCLE
  8
_0-a_極細3
  6
CONTINUOUS
 62
    7
 10
323.40312145587853
 20
194.4937386634831
 40
0.5530864197530718
  0
CIRCLE
  8
_0-a_極細3
  6
CONTINUOUS
 62
    7
 10
343.31423256698963
 20
195.56040533014971
 40
0.5530864197530718
  0
CIRCLE
  8
_0-a_極細3
  6
CONTINUOUS
 62
    7
 10
356.29201034476722
 20
198.76040533014972
 40
0.5530864197530718
  0
CIRCLE
  8
_0-a_極細3
  6
CONTINUOUS
 62
    7
 10
369.98089923365615
 20
183.82707199681661
 40
0.5530864197530718
  0
CIRCLE
  8
_0-a_極細3
  6
CONTINUOUS
 62
    7
 10
363.0475659003227
 20
168.89373866348322
 40
0.5530864197530718
  0
CIRCLE
  8
_0-a_極細3
  6
CONTINUOUS
 62
    7
 10
346.38089923365618
 20
212.5085534782977
 40
0.5530864197530718
  0
CIRCLE
  8
_0-a_極細3
  6
CONTINUOUS
 62
    7
 10
361.13645478921165
 20
246.64188681163094
 40
0.5530864197530718
  0
CIRCLE
  8
_0-a_極細3
  6
CONTINUOUS
 62
    7
 10
376.24756590032257
 20
236.68633125607542
 40
0.5530864197530718
  0
CIRCLE
  8
_0-a_極細3
  6
CONTINUOUS
 62
    7
 10
376.78089923365582
 20
218.7307757005199
 40
0.5530864197530718
  0
CIRCLE
  8
_0-a_極細3
  6
CONTINUOUS
 62
    7
 10
341.5364547892118
 20
248.46410903385302
 40
0.5530864197530718
  0
CIRCLE
  8
_0-a_極細3
  6
CONTINUOUS
 62
    7
 10
321.24756590032297
 20
270.44805965113687
 40
1.825531472681392
  0
CIRCLE
  8
_0-a_極細3
  6
CONTINUOUS
 62
    7
 10
269.48544619888793
 20
277.37767392583464
 40
1.825531472681392
  0
CIRCLE
  8
_0-a_極細3
  6
CONTINUOUS
 62
    7
 10
296.0253436781008
 20
247.64805965113695
 40
1.825531472681392
  0
CIRCLE
  8
_0-a_極細3
  6
CONTINUOUS
 62
    7
 10
276.42534367810083
 20
209.6480596511374
 40
1.825531472681392
  0
CIRCLE
  8
_0-a_極細3
  6
CONTINUOUS
 62
    7
 10
329.62534367810031
 20
196.84805965113767
 40
1.825531472681392
  0
CIRCLE
  8
_0-a_極細3
  6
CONTINUOUS
 62
    7
 10
365.60312145587795
 20
193.24805965113774
 40
1.825531472681392
  0
CIRCLE
  8
_0-a_極細3
  6
CONTINUOUS
 62
    7
 10
370.40312145587762
 20
174.58139298447122
 40
1.825531472681392
  0
CIRCLE
  8
_0-a_極細3
  6
CONTINUOUS
 62
    7
 10
249.28836665780864
 20
278.27028187335895
 40
1.825531472681392
  0
LINE
  8
_0-a_極細3
  6
CONTINUOUS
 62
    7
 10
387.93065977017199
 20
263.23477269126693
 11
388.76399310350553
 21
263.23477269126693
  0
LINE
  8
_0-a_極細3
  6
CONTINUOUS
 62
    7
 10
388.76399310350553
 20
263.23477269126693
 11
388.76399310350553
 21
161.99317239648778
  0
CIRCLE
  8
_0-a_極細3
  6
CONTINUOUS
 62
    7
 10
381.87655895587653
 20
247.24805965113751
 40
1.825531472681392
  0
CIRCLE
  8
_0-a_極細3
  6
CONTINUOUS
 62
    7
 10
380.88460293735943
 20
192.53818310792758
 40
0.5530864197530718
  0
CIRCLE
  8
_0-a_極細3
  6
CONTINUOUS
 62
    7
 10
382.21793627069331
 20
169.88211207475771
 40
0.5530864197530718
  0
CIRCLE
  8
_0-a_極細3
  6
CONTINUOUS
 62
    7
 10
369.84756590031839
 20
228.13694854002665
 40
1.825531472681392
  0
LINE
  8
_0-a_極細3
  6
CONTINUOUS
 62
    7
 10
295.12392488302009
 20
213.11647385377046
 11
289.99362273313494
 21
227.21186316555898
  0
LINE
  8
_0-a_極細3
  6
CONTINUOUS
 62
    7
 10
345.11796755681638
 20
247.27548386480521
 11
350.24826970670114
 21
233.18009455301674
  0
LINE
  8
_0-a_極細3
  6
CONTINUOUS
 62
    7
 10
289.99362273313494
 20
227.21186316555898
 11
345.11796755681638
 21
247.27548386480521
  0
LINE
  8
_0-a_極細3
  6
CONTINUOUS
 62
    7
 10
295.12392488302009
 20
213.11647385377046
 11
350.24826970670114
 21
233.18009455301674
  0
LINE
  8
_0-a_極細3
  6
CENTER1
 62
    7
 10
287.60334041608479
 20
218.3605384696348
 11
351.6343608986503
 21
241.66592395467023
  0
LINE
  8
_0-a_極細3
  6
CONTINUOUS
 62
    7
 10
313.76399310350553
 20
188.23477269126698
 11
313.76399310350553
 21
232.32033403958303
  0
LINE
  8
_0-a_極細3
  6
CONTINUOUS
 62
    7
 10
313.76399310350553
 20
232.32033403958303
 11
298.76399310350553
 21
232.32033403958303
  0
LINE
  8
_0-a_極細3
  6
CONTINUOUS
 62
    7
 10
298.76399310350553
 20
232.32033403958303
 11
298.76399310350553
 21
188.23477269126698
  0
CIRCLE
  8
_0-a_極細3
  6
CONTINUOUS
 62
    7
 10
328.14386219661941
 20
218.15670162644577
 40
1.825531472681392
  0
CIRCLE
  8
_0-a_極細3
  6
CONTINUOUS
 62
    7
 10
349.8525041719281
 20
224.37892384866814
 40
1.825531472681392
  0
LINE
  8
_0-a_極細3
  6
CENTER1
 62
    7
 10
306.26399310350553
 20
179.95803240681403
 11
306.26399310350553
 21
236.59605420419257
  0
LINE
  8
_0-d_寸法3
  6
CONTINUOUS
 62
    7
 10
328.76399310350553
 20
293.23477269126698
 11
282.81396202491578
 21
293.23477269126693
  0
LINE
  8
_0-d_寸法3
  6
CONTINUOUS
 62
    7
 10
287.81396202491578
 20
293.23477269126693
 11
290.40215247594091
 21
283.57551442837621
  0
LINE
  8
_0-d_寸法3
  6
CONTINUOUS
 62
    7
 10
287.81396202491578
 20
293.23477269126693
 11
285.22577157389048
 21
283.57551442837627
  0
LINE
  8
_0-d_寸法3
  6
CONTINUOUS
 62
    7
 10
326.76399310350547
 20
263.23477269126698
 11
282.81396202491624
 21
263.23477269126693
  0
LINE
  8
_0-d_寸法3
  6
CONTINUOUS
 62
    7
 10
287.81396202491624
 20
263.23477269126693
 11
285.22577157389094
 21
272.89403095415759
  0
LINE
  8
_0-d_寸法3
  6
CONTINUOUS
 62
    7
 10
287.81396202491624
 20
263.23477269126693
 11
290.40215247594131
 21
272.89403095415764
  0
LINE
  8
_0-d_寸法3
  6
CONTINUOUS
 62
    7
 10
287.81396202491578
 20
293.23477269126693
 11
287.81396202491624
 21
263.23477269126693
  0
TEXT
  8
_0-d_寸法3
 62
    7
 10
287.81396202491624
 20
270.73477269126693
 40
15
 41
1
 50
90
  1
18
  0
LINE
  8
_0-d_寸法3
  6
CONTINUOUS
 62
    7
 10
328.76399310350553
 20
263.23477269126676
 11
282.81396202491624
 21
263.2347726912667
  0
LINE
  8
_0-d_寸法3
  6
CONTINUOUS
 62
    7
 10
287.81396202491624
 20
263.2347726912667
 11
290.40215247594131
 21
253.57551442837604
  0
LINE
  8
_0-d_寸法3
  6
CONTINUOUS
 62
    7
 10
287.81396202491624
 20
263.2347726912667
 11
285.22577157389094
 21
253.57551442837604
  0
LINE
  8
_0-d_寸法3
  6
CONTINUOUS
 62
    7
 10
326.76399310350547
 20
224.9014393579335
 11
282.81396202491624
 21
224.9014393579335
  0
LINE
  8
_0-d_寸法3
  6
CONTINUOUS
 62
    7
 10
287.81396202491624
 20
224.90143935793344
 11
285.22577157389094
 21
234.56069762082416
  0
LINE
  8
_0-d_寸法3
  6
CONTINUOUS
 62
    7
 10
287.81396202491624
 20
224.90143935793344
 11
290.40215247594131
 21
234.56069762082416
  0
LINE
  8
_0-d_寸法3
  6
CONTINUOUS
 62
    7
 10
287.81396202491624
 20
263.2347726912667
 11
287.81396202491624
 21
224.90143935793344
  0
TEXT
  8
_0-d_寸法3
 62
    7
 10
287.81396202491624
 20
236.56810602460018
 40
15
 41
1
 50
90
  1
23
  0
LINE
  8
_0-d_寸法3
  6
CONTINUOUS
 62
    7
 10
338.7639931035053
 20
214.9014393579337
 11
338.76399310350496
 21
197.7567474570283
  0
LINE
  8
_0-d_寸法3
  6
CONTINUOUS
 62
    7
 10
338.76399310350502
 20
202.7567474570283
 11
348.42325136639568
 21
205.34493790805351
  0
LINE
  8
_0-d_寸法3
  6
CONTINUOUS
 62
    7
 10
338.76399310350502
 20
202.7567474570283
 11
348.42325136639568
 21
200.16855700600303
  0
LINE
  8
_0-d_寸法3
  6
CONTINUOUS
 62
    7
 10
388.76399310350536
 20
253.23477269126695
 11
388.7639931035045
 21
197.7567474570283
  0
LINE
  8
_0-d_寸法3
  6
CONTINUOUS
 62
    7
 10
388.76399310350456
 20
202.7567474570283
 11
379.10473484061384
 21
200.16855700600308
  0
LINE
  8
_0-d_寸法3
  6
CONTINUOUS
 62
    7
 10
388.76399310350456
 20
202.7567474570283
 11
379.1047348406139
 21
205.34493790805354
  0
LINE
  8
_0-d_寸法3
  6
CONTINUOUS
 62
    7
 10
338.76399310350502
 20
202.7567474570283
 11
388.76399310350456
 21
202.7567474570283
  0
TEXT
  8
_0-d_寸法3
 62
    7
 10
356.26399310350502
 20
202.7567474570283
 40
15
 41
1
 50
0
  1
30
  0
ARC
  8
_0-b_細線3
  6
CONTINUOUS
 62
    7
 10
343.76399310350553
 20
268.23477269126693
 40
5
 50
179.99999999999983
 51
269.99999999999977
  0
LINE
  8
_0-b_細線3
  6
CONTINUOUS
 62
    7
 10
338.76399310350553
 20
268.23477269126693
 11
338.76399310350553
 21
292.40143935793344
  0
LINE
  8
_0-b_細線3
  6
CONTINUOUS
 62
    7
 10
343.76399310350553
 20
263.23477269126693
 11
387.93065977017199
 21
263.23477269126693
  0
LINE
  8
_0-b_細線3
  6
CONTINUOUS
 62
    7
 10
388.76399310350553
 20
264.06810602460018
 11
387.93065977017199
 21
263.23477269126693
  0
LINE
  8
_0-b_細線3
  6
CONTINUOUS
 62
    7
 10
388.76399310350553
 20
267.40143935793367
 11
388.76399310350553
 21
264.06810602460018
  0
LINE
  8
_0-b_細線3
  6
CONTINUOUS
 62
    7
 10
387.93065977017199
 20
268.23477269126693
 11
388.76399310350553
 21
267.40143935793367
  0
LINE
  8
_0-b_細線3
  6
CONTINUOUS
 62
    7
 10
343.76399310350553
 20
268.23477269126693
 11
387.93065977017199
 21
268.23477269126693
  0
LINE
  8
_0-b_細線3
  6
CONTINUOUS
 62
    7
 10
339.5973264368385
 20
293.23477269126693
 11
338.76399310350553
 21
292.40143935793344
  0
LINE
  8
_0-b_細線3
  6
CONTINUOUS
 62
    7
 10
342.93065977017199
 20
293.23477269126693
 11
339.5973264368385
 21
293.23477269126693
  0
LINE
  8
_0-b_細線3
  6
CONTINUOUS
 62
    7
 10
343.76399310350553
 20
292.40143935793344
 11
342.93065977017199
 21
293.23477269126693
  0
LINE
  8
_0-b_細線3
  6
CONTINUOUS
 62
    7
 10
343.76399310350553
 20
268.23477269126693
 11
343.76399310350553
 21
292.40143935793344
  0
LINE
  8
_0-a_極細3
  6
CONTINUOUS
 62
    7
 10
338.76399310350553
 20
293.23477269126693
 11
241.25291262505741
 21
293.23477269126693
  0
CIRCLE
  8
_0-a_極細3
  6
CONTINUOUS
 62
    7
 10
674.09201034476382
 20
278.50022014496358
 40
0.5530864197530718
  0
CIRCLE
  8
_0-a_極細3
  6
CONTINUOUS
 62
    7
 10
622.09201034476382
 20
279.43355347829697
 40
0.5530864197530718
  0
LINE
  8
_0-a_極細3
  6
CONTINUOUS
 62
    7
 10
610.43065977017204
 20
293.23477269126693
 11
610.43065977017204
 21
281.56810602459996
  0
LINE
  8
_0-a_極細3
  6
CONTINUOUS
 62
    7
 10
602.0973264368381
 20
281.56810602459996
 11
699.6084069152862
 21
281.56810602459996
  0
LINE
  8
_0-a_極細3
  6
CONTINUOUS
 62
    7
 10
602.0973264368381
 20
292.40143935793344
 11
602.0973264368381
 21
293.23477269126693
  0
LINE
  8
_0-a_極細3
  6
CONTINUOUS
 62
    7
 10
610.43065977017204
 20
285.23719230532492
 11
606.76157348944662
 21
281.56810602459996
  0
LINE
  8
_0-a_極細3
  6
CONTINUOUS
 62
    7
 10
610.43065977017204
 20
289.47983299244402
 11
602.51893280232753
 21
281.56810602459996
  0
LINE
  8
_0-a_極細3
  6
CONTINUOUS
 62
    7
 10
602.0973264368381
 20
285.38914034623008
 11
609.9429587818754
 21
293.23477269126693
  0
LINE
  8
_0-a_極細3
  6
CONTINUOUS
 62
    7
 10
602.0973264368381
 20
289.6317810333494
 11
605.7003180947554
 21
293.2347726912667
  0
LINE
  8
_0-a_極細3
  6
CONTINUOUS
 62
    7
 10
610.43065977017204
 20
291.7254504817613
 11
608.92133756066642
 21
293.23477269126693
  0
LINE
  8
_0-a_極細3
  6
CONTINUOUS
 62
    7
 10
610.43065977017204
 20
287.48280979464198
 11
604.67869687354732
 21
293.23477269126693
  0
LINE
  8
_0-a_極細3
  6
CONTINUOUS
 62
    7
 10
610.43065977017204
 20
283.24016910752266
 11
602.0973264368381
 21
291.57350244085615
  0
LINE
  8
_0-a_極細3
  6
CONTINUOUS
 62
    7
 10
607.8600821659752
 20
281.56810602459996
 11
602.0973264368381
 21
287.33086175373683
  0
LINE
  8
_0-a_極細3
  6
CONTINUOUS
 62
    7
 10
603.61744147885611
 20
281.56810602459996
 11
602.0973264368381
 21
283.08822106661751
  0
LINE
  8
_0-a_極細3
  6
CONTINUOUS
 62
    7
 10
678.88646517047493
 20
281.56810602459996
 11
690.55313121035272
 21
293.23477206447774
  0
LINE
  8
_0-a_極細3
  6
CONTINUOUS
 62
    7
 10
657.67326173487845
 20
281.56810602460018
 11
669.33992794070446
 21
293.23477223042642
  0
LINE
  8
_0-a_極細3
  6
CONTINUOUS
 62
    7
 10
636.46005829928208
 20
281.56810602459996
 11
648.12672467105631
 21
293.23477239637464
  0
LINE
  8
_0-a_極細3
  6
CONTINUOUS
 62
    7
 10
615.24685486368571
 20
281.56810602459996
 11
626.91352140140907
 21
293.23477256232331
  0
LINE
  8
_0-a_極細3
  6
DASHED2
 62
    7
 10
689.49306688827301
 20
281.56810602460018
 11
699.6084069152862
 21
291.6834460516136
  0
LINE
  8
_0-a_極細3
  6
DASHED2
 62
    7
 10
668.27986345267664
 20
281.56810602459996
 11
679.94652957552853
 21
293.23477214745185
  0
LINE
  8
_0-a_極細3
  6
DASHED2
 62
    7
 10
647.06666001708027
 20
281.56810602459996
 11
658.73332630588038
 21
293.23477231340053
  0
LINE
  8
_0-a_極細3
  6
DASHED2
 62
    7
 10
625.8534565814839
 20
281.56810602459996
 11
637.52012303623223
 21
293.23477247934898
  0
LINE
  8
_0-a_極細3
  6
DASHED2
 62
    7
 10
610.43065977017204
 20
287.35851264888447
 11
616.306919766585
 21
293.23477264529743
  0
LINE
  8
_0-a_極細3
  6
CONTINUOUS
 62
    7
 10
668.76399310350507
 20
256.56810602460018
 11
668.76399310350507
 21
188.23477269126698
  0
LINE
  8
_0-a_極細3
  6
CONTINUOUS
 62
    7
 10
585.43065977017204
 20
188.23477269126698
 11
668.76399310350507
 21
188.23477269126698
  0
LINE
  8
_0-a_極細3
  6
CONTINUOUS
 62
    7
 10
668.76399310350507
 20
256.56810602460018
 11
699.6084069152862
 21
256.56810602460018
  0
LINE
  8
_0-a_極細3
  6
CONTINUOUS
 62
    7
 10
585.43065977017204
 20
188.23477269126698
 11
585.43065977017204
 21
161.99317239648778
  0
LINE
  8
_0-a_極細3
  6
CONTINUOUS
 62
    7
 10
677.05399551809808
 20
161.99317239648778
 11
699.60840695682737
 21
184.54758383521678
  0
LINE
  8
_0-a_極細3
  6
CONTINUOUS
 62
    7
 10
606.34331739944309
 20
161.99317239648778
 11
632.58491769422244
 21
188.23477269126698
  0
LINE
  8
_0-a_極細3
  6
CONTINUOUS
 62
    7
 10
668.76399310350507
 20
224.41384810054956
 11
699.60840691604199
 21
255.2582619130865
  0
LINE
  8
_0-a_極細3
  6
CONTINUOUS
 62
    7
 10
669.9829277062322
 20
161.99317239648778
 11
699.60840695274828
 21
191.61865164300394
  0
LINE
  8
_0-a_極細3
  6
CONTINUOUS
 62
    7
 10
599.27224958757733
 20
161.99317239648778
 11
625.51384988235668
 21
188.23477269126698
  0
LINE
  8
_0-a_極細3
  6
CONTINUOUS
 62
    7
 10
668.76399310350507
 20
231.48491591241509
 11
693.84718303614011
 21
256.56810584504979
  0
LINE
  8
_0-a_極細3
  6
CONTINUOUS
 62
    7
 10
662.91185989436735
 20
161.99317239648778
 11
699.60840694867011
 21
198.68971945079082
  0
LINE
  8
_0-a_極細3
  6
CONTINUOUS
 62
    7
 10
592.20118177571248
 20
161.99317239648778
 11
618.44278207049183
 21
188.23477269126698
  0
LINE
  8
_0-a_極細3
  6
CONTINUOUS
 62
    7
 10
668.76399310350507
 20
238.55598372428062
 11
686.77611527489034
 21
256.56810589566589
  0
CIRCLE
  8
_0-a_極細3
  6
CONTINUOUS
 62
    7
 10
571.83645478920926
 20
247.08910903385302
 40
0.5530864197530718
  0
CIRCLE
  8
_0-a_極細3
  6
CONTINUOUS
 62
    7
 10
581.79201034476455
 20
251.88910903385295
 40
0.5530864197530718
  0
CIRCLE
  8
_0-a_極細3
  6
CONTINUOUS
 62
    7
 10
577.70312145587604
 20
226.91133125607553
 40
0.5530864197530718
  0
CIRCLE
  8
_0-a_極細3
  6
CONTINUOUS
 62
    7
 10
595.23645478920889
 20
209.88910903385343
 40
0.5530864197530718
  0
CIRCLE
  8
_0-a_極細3
  6
CONTINUOUS
 62
    7
 10
577.40312145587586
 20
186.58910903385367
 40
0.5530864197530718
  0
CIRCLE
  8
_0-a_極細3
  6
CONTINUOUS
 62
    7
 10
568.06978812254283
 20
168.72244236718714
 40
0.5530864197530718
  0
CIRCLE
  8
_0-a_極細3
  6
CONTINUOUS
 62
    7
 10
579.53645478920907
 20
198.5891090338535
 40
0.5530864197530718
  0
CIRCLE
  8
_0-a_極細3
  6
CONTINUOUS
 62
    7
 10
593.40312145587586
 20
193.78910903385346
 40
0.5530864197530718
  0
CIRCLE
  8
_0-a_極細3
  6
CONTINUOUS
 62
    7
 10
620.33645478920926
 20
194.05577570052017
 40
0.5530864197530718
  0
CIRCLE
  8
_0-a_極細3
  6
CONTINUOUS
 62
    7
 10
608.33645478920926
 20
203.12244236718675
 40
0.5530864197530718
  0
CIRCLE
  8
_0-a_極細3
  6
CONTINUOUS
 62
    7
 10
619.53645478920907
 20
208.72244236718669
 40
0.5530864197530718
  0
CIRCLE
  8
_0-a_極細3
  6
CONTINUOUS
 62
    7
 10
607.55867701143097
 20
263.01133125607498
 40
0.5530864197530718
  0
CIRCLE
  8
_0-a_極細3
  6
CONTINUOUS
 62
    7
 10
628.09201034476382
 20
262.30022014496399
 40
0.5530864197530718
  0
CIRCLE
  8
_0-a_極細3
  6
CONTINUOUS
 62
    7
 10
616.49201034476437
 20
248.30022014496399
 40
0.5530864197530718
  0
CIRCLE
  8
_0-a_極細3
  6
CONTINUOUS
 62
    7
 10
655.69201034476418
 20
195.10022014496462
 40
0.5530864197530718
  0
CIRCLE
  8
_0-a_極細3
  6
CONTINUOUS
 62
    7
 10
662.892010344764
 20
209.10022014496462
 40
0.5530864197530718
  0
CIRCLE
  8
_0-a_極細3
  6
CONTINUOUS
 62
    7
 10
661.29201034476364
 20
229.90022014496435
 40
0.5530864197530718
  0
CIRCLE
  8
_0-a_極細3
  6
CONTINUOUS
 62
    7
 10
643.29201034476364
 20
251.1002201449642
 40
0.5530864197530718
  0
CIRCLE
  8
_0-a_極細3
  6
CONTINUOUS
 62
    7
 10
660.09201034476393
 20
270.70022014496385
 40
0.5530864197530718
  0
CIRCLE
  8
_0-a_極細3
  6
CONTINUOUS
 62
    7
 10
657.29201034476364
 20
243.90022014496412
 40
0.5530864197530718
  0
CIRCLE
  8
_0-a_極細3
  6
CONTINUOUS
 62
    7
 10
686.89201034476309
 20
265.10022014496394
 40
0.5530864197530718
  0
CIRCLE
  8
_0-a_極細3
  6
CONTINUOUS
 62
    7
 10
682.09201034476291
 20
278.87028187335886
 40
1.825531472681392
  0
CIRCLE
  8
_0-a_極細3
  6
CONTINUOUS
 62
    7
 10
666.44756590031875
 20
263.40361520669239
 40
1.825531472681392
  0
CIRCLE
  8
_0-a_極細3
  6
CONTINUOUS
 62
    7
 10
611.02534367809722
 20
269.98139298447018
 40
1.825531472681392
  0
CIRCLE
  8
_0-a_極細3
  6
CONTINUOUS
 62
    7
 10
643.02534367809722
 20
237.9813929844704
 40
1.825531472681392
  0
CIRCLE
  8
_0-a_極細3
  6
CONTINUOUS
 62
    7
 10
572.63089923365396
 20
193.4313929844709
 40
1.825531472681392
  0
CIRCLE
  8
_0-a_極細3
  6
CONTINUOUS
 62
    7
 10
582.85312145587568
 20
223.29805965113749
 40
1.825531472681392
  0
CIRCLE
  8
_0-a_極細3
  6
CONTINUOUS
 62
    7
 10
618.0531214558755
 20
200.8980596511376
 40
1.825531472681392
  0
CIRCLE
  8
_0-a_極細3
  6
CONTINUOUS
 62
    7
 10
664.31831409115932
 20
190.71100725916813
 40
1.825531472681392
  0
CIRCLE
  8
_0-a_極細3
  6
CONTINUOUS
 62
    7
 10
613.65312145587495
 20
244.09805965113719
 40
1.825531472681392
  0
CIRCLE
  8
_0-a_極細3
  6
CONTINUOUS
 62
    7
 10
566.18707207315992
 20
238.67485424410077
 40
0.5530864197530718
  0
CIRCLE
  8
_0-a_極細3
  6
CONTINUOUS
 62
    7
 10
566.38707207316065
 20
214.71929868854545
 40
0.5530864197530718
  0
CIRCLE
  8
_0-a_極細3
  6
CONTINUOUS
 62
    7
 10
643.42534367809685
 20
275.44805965113687
 40
1.825531472681392
  0
LINE
  8
_0-a_極細3
  6
CONTINUOUS
 62
    7
 10
552.93065977017113
 20
263.23477269126693
 11
552.0973264368381
 21
263.23477269126693
  0
LINE
  8
_0-a_極細3
  6
CONTINUOUS
 62
    7
 10
552.0973264368381
 20
263.23477269126693
 11
552.0973264368381
 21
161.99317239648778
  0
CIRCLE
  8
_0-a_極細3
  6
CONTINUOUS
 62
    7
 10
558.08172227892146
 20
223.17799792274218
 40
0.5530864197530718
  0
CIRCLE
  8
_0-a_極細3
  6
CONTINUOUS
 62
    7
 10
559.38830664106126
 20
183.92244236718696
 40
0.5530864197530718
  0
CIRCLE
  8
_0-a_極細3
  6
CONTINUOUS
 62
    7
 10
558.74941775217167
 20
249.87583742891547
 40
1.825531472681392
  0
CIRCLE
  8
_0-a_極細3
  6
CONTINUOUS
 62
    7
 10
561.69756590031966
 20
177.25361520669296
 40
1.825531472681392
  0
LINE
  8
_0-a_極細3
  6
CONTINUOUS
 62
    7
 10
645.73739465732388
 20
213.11647385377046
 11
650.86769680720909
 21
227.21186316555898
  0
LINE
  8
_0-a_極細3
  6
CONTINUOUS
 62
    7
 10
595.74335198352719
 20
247.27548386480521
 11
590.61304983364289
 21
233.18009455301674
  0
LINE
  8
_0-a_極細3
  6
CONTINUOUS
 62
    7
 10
650.86769680720909
 20
227.21186316555898
 11
595.74335198352719
 21
247.27548386480521
  0
LINE
  8
_0-a_極細3
  6
CONTINUOUS
 62
    7
 10
645.73739465732388
 20
213.11647385377046
 11
590.61304983364289
 21
233.18009455301674
  0
LINE
  8
_0-a_極細3
  6
CENTER1
 62
    7
 10
653.25797912425924
 20
218.3605384696348
 11
589.22695864169373
 21
241.66592395467023
  0
LINE
  8
_0-a_極細3
  6
CONTINUOUS
 62
    7
 10
627.0973264368381
 20
188.23477269126698
 11
627.0973264368381
 21
232.32033403958303
  0
LINE
  8
_0-a_極細3
  6
CONTINUOUS
 62
    7
 10
627.0973264368381
 20
232.32033403958303
 11
642.0973264368381
 21
232.32033403958303
  0
LINE
  8
_0-a_極細3
  6
CONTINUOUS
 62
    7
 10
642.0973264368381
 20
232.32033403958303
 11
642.0973264368381
 21
188.23477269126698
  0
LINE
  8
_0-a_極細3
  6
CENTER1
 62
    7
 10
634.5973264368381
 20
179.95803240681403
 11
634.5973264368381
 21
236.59605420419257
  0
CIRCLE
  8
_0-a_極細3
  6
CONTINUOUS
 62
    7
 10
628.71423256698699
 20
245.3965164412605
 40
0.5530864197530718
  0
CIRCLE
  8
_0-a_極細3
  6
CONTINUOUS
 62
    7
 10
650.93041912391402
 20
232.05330656471759
 40
0.5530864197530718
  0
LINE
  8
_0-d_寸法3
  6
CONTINUOUS
 62
    7
 10
602.09732643683901
 20
214.9014393579337
 11
602.09732643683901
 21
197.7567474570283
  0
LINE
  8
_0-d_寸法3
  6
CONTINUOUS
 62
    7
 10
602.09732643683901
 20
202.7567474570283
 11
592.4380681739483
 21
200.16855700600303
  0
LINE
  8
_0-d_寸法3
  6
CONTINUOUS
 62
    7
 10
602.09732643683901
 20
202.7567474570283
 11
592.4380681739483
 21
205.34493790805351
  0
LINE
  8
_0-d_寸法3
  6
CONTINUOUS
 62
    7
 10
552.09732643683901
 20
253.23477269126695
 11
552.09732643683901
 21
197.7567474570283
  0
LINE
  8
_0-d_寸法3
  6
CONTINUOUS
 62
    7
 10
552.09732643683901
 20
202.7567474570283
 11
561.75658469972973
 21
205.34493790805354
  0
LINE
  8
_0-d_寸法3
  6
CONTINUOUS
 62
    7
 10
552.09732643683901
 20
202.7567474570283
 11
561.75658469972973
 21
200.16855700600308
  0
LINE
  8
_0-d_寸法3
  6
CONTINUOUS
 62
    7
 10
602.09732643683901
 20
202.7567474570283
 11
552.09732643683901
 21
202.7567474570283
  0
TEXT
  8
_0-d_寸法3
 62
    7
 10
569.59732643683901
 20
202.7567474570283
 40
15
 41
1
 50
0
  1
30
  0
ARC
  8
_0-b_細線3
  6
CONTINUOUS
 62
    7
 10
597.0973264368381
 20
268.23477269126693
 40
5
 50
269.99999999999977
 51
359.99999999999966
  0
LINE
  8
_0-b_細線3
  6
CONTINUOUS
 62
    7
 10
602.0973264368381
 20
268.23477269126693
 11
602.0973264368381
 21
292.40143935793344
  0
LINE
  8
_0-b_細線3
  6
CONTINUOUS
 62
    7
 10
597.0973264368381
 20
263.23477269126693
 11
552.93065977017113
 21
263.23477269126693
  0
LINE
  8
_0-b_細線3
  6
CONTINUOUS
 62
    7
 10
552.0973264368381
 20
264.06810602460018
 11
552.93065977017113
 21
263.23477269126693
  0
LINE
  8
_0-b_細線3
  6
CONTINUOUS
 62
    7
 10
552.0973264368381
 20
267.40143935793367
 11
552.0973264368381
 21
264.06810602460018
  0
LINE
  8
_0-b_細線3
  6
CONTINUOUS
 62
    7
 10
552.93065977017113
 20
268.23477269126693
 11
552.0973264368381
 21
267.40143935793367
  0
LINE
  8
_0-b_細線3
  6
CONTINUOUS
 62
    7
 10
597.0973264368381
 20
268.23477269126693
 11
552.93065977017113
 21
268.23477269126693
  0
LINE
  8
_0-b_細線3
  6
CONTINUOUS
 62
    7
 10
601.26399310350507
 20
293.23477269126693
 11
602.0973264368381
 21
292.40143935793344
  0
LINE
  8
_0-b_細線3
  6
CONTINUOUS
 62
    7
 10
597.93065977017204
 20
293.23477269126693
 11
601.26399310350507
 21
293.23477269126693
  0
LINE
  8
_0-b_細線3
  6
CONTINUOUS
 62
    7
 10
597.0973264368381
 20
292.40143935793344
 11
597.93065977017204
 21
293.23477269126693
  0
LINE
  8
_0-b_細線3
  6
CONTINUOUS
 62
    7
 10
597.0973264368381
 20
268.23477269126693
 11
597.0973264368381
 21
292.40143935793344
  0
LINE
  8
_0-a_極細3
  6
CONTINUOUS
 62
    7
 10
602.0973264368381
 20
293.23477269126693
 11
699.6084069152862
 21
293.23477269126693
  0
LINE
  8
_0-d_寸法3
  6
CONTINUOUS
 62
    7
 10
338.76399310350553
 20
298.23477269126693
 11
338.76399310350553
 21
408.23477102292213
  0
LINE
  8
_0-d_寸法3
  6
CONTINUOUS
 62
    7
 10
338.76399310350553
 20
403.23477102292213
 11
348.42325136639613
 21
405.82296147394737
  0
LINE
  8
_0-d_寸法3
  6
CONTINUOUS
 62
    7
 10
338.76399310350553
 20
403.23477102292213
 11
348.42325136639613
 21
400.64658057189695
  0
LINE
  8
_0-d_寸法3
  6
CONTINUOUS
 62
    7
 10
602.0973264368381
 20
298.23477269126693
 11
602.09732643683901
 21
408.23477102292213
  0
LINE
  8
_0-d_寸法3
  6
CONTINUOUS
 62
    7
 10
602.09732643683901
 20
403.23477102292213
 11
592.4380681739483
 21
400.64658057189695
  0
LINE
  8
_0-d_寸法3
  6
CONTINUOUS
 62
    7
 10
602.09732643683901
 20
403.23477102292213
 11
592.4380681739483
 21
405.82296147394743
  0
LINE
  8
_0-d_寸法3
  6
CONTINUOUS
 62
    7
 10
338.76399310350553
 20
403.23477102292213
 11
602.09732643683901
 21
403.23477102292213
  0
TEXT
  8
_0-d_寸法3
 62
    7
 10
459.18065977017199
 20
403.23477102292213
 40
15
 41
1
 50
0
  1
158
  0
LINE
  8
_0-d_寸法3
  6
CONTINUOUS
 62
    7
 10
388.76399310350553
 20
258.23477269126693
 11
388.76399310350553
 21
197.7567474570283
  0
LINE
  8
_0-d_寸法3
  6
CONTINUOUS
 62
    7
 10
388.76399310350553
 20
202.7567474570283
 11
398.42325136639613
 21
205.34493790805351
  0
LINE
  8
_0-d_寸法3
  6
CONTINUOUS
 62
    7
 10
388.76399310350553
 20
202.7567474570283
 11
398.42325136639613
 21
200.16855700600303
  0
LINE
  8
_0-d_寸法3
  6
CONTINUOUS
 62
    7
 10
552.0973264368381
 20
258.23477269126693
 11
552.0973264368381
 21
197.7567474570283
  0
LINE
  8
_0-d_寸法3
  6
CONTINUOUS
 62
    7
 10
552.0973264368381
 20
202.7567474570283
 11
542.43806817394739
 21
200.16855700600308
  0
LINE
  8
_0-d_寸法3
  6
CONTINUOUS
 62
    7
 10
552.0973264368381
 20
202.7567474570283
 11
542.43806817394739
 21
205.34493790805354
  0
LINE
  8
_0-d_寸法3
  6
CONTINUOUS
 62
    7
 10
388.76399310350553
 20
202.7567474570283
 11
552.0973264368381
 21
202.7567474570283
  0
TEXT
  8
_0-d_寸法3
 62
    7
 10
462.93065977017199
 20
202.7567474570283
 40
15
 41
1
 50
0
  1
98
  0
LINE
  8
_0-a_極細3
  6
CENTER1
 62
    7
 10
604.76408150466023
 20
279.9014393579339
 11
337.11000065896491
 21
279.9014393579339
  0
ARC
  8
_0-b_細線3
  6
CONTINUOUS
 62
    7
 10
505.43065977017199
 20
370.76391364829601
 40
97.696522151886498
 50
263.73185704547706
 51
276.26814295452226
  0
ARC
  8
_0-b_細線3
  6
CONTINUOUS
 62
    7
 10
505.43065977017199
 20
189.03896506757135
 40
97.696522151886498
 50
83.731857045477085
 51
96.268142954522631
  0
ARC
  8
_0-b_細線3
  6
CONTINUOUS
 62
    7
 10
482.09732643683901
 20
370.76391364829601
 40
97.696522151886498
 50
263.73185704547654
 51
276.2681429545222
  0
ARC
  8
_0-b_細線3
  6
CONTINUOUS
 62
    7
 10
482.09732643683901
 20
189.03896506757135
 40
97.696522151886498
 50
83.731857045477369
 51
96.268142954523157
  0
LINE
  8
_0-b_細線3
  6
CONTINUOUS
 62
    7
 10
477.09732643683901
 20
291.23477269126693
 11
477.09732643683901
 21
293.23477269126693
  0
LINE
  8
_0-b_細線3
  6
CONTINUOUS
 62
    7
 10
471.43065977017244
 20
291.23477269126693
 11
477.09732643683901
 21
291.23477269126693
  0
LINE
  8
_0-b_細線3
  6
CONTINUOUS
 62
    7
 10
471.43065977017244
 20
268.23477269126693
 11
471.43065977017244
 21
291.23477269126693
  0
LINE
  8
_0-b_細線3
  6
CONTINUOUS
 62
    7
 10
469.4306597701725
 20
268.23477269126693
 11
471.43065977017244
 21
268.23477269126693
  0
LINE
  8
_0-b_細線3
  6
CONTINUOUS
 62
    7
 10
469.4306597701725
 20
291.23477269126693
 11
469.4306597701725
 21
268.23477269126693
  0
LINE
  8
_0-b_細線3
  6
CONTINUOUS
 62
    7
 10
463.76399310350507
 20
291.23477269126693
 11
469.4306597701725
 21
291.23477269126693
  0
LINE
  8
_0-b_細線3
  6
CONTINUOUS
 62
    7
 10
463.76399310350507
 20
293.23477269126693
 11
463.76399310350507
 21
291.23477269126693
  0
LINE
  8
_0-b_細線3
  6
CONTINUOUS
 62
    7
 10
477.09732643683901
 20
293.23477269126693
 11
463.76399310350507
 21
293.23477269126693
  0
LINE
  8
_0-b_細線3
  6
CONTINUOUS
 62
    7
 10
500.4306597701725
 20
291.23477269126693
 11
500.4306597701725
 21
293.23477269126693
  0
LINE
  8
_0-b_細線3
  6
CONTINUOUS
 62
    7
 10
494.76399310350502
 20
291.23477269126693
 11
500.4306597701725
 21
291.23477269126693
  0
LINE
  8
_0-b_細線3
  6
CONTINUOUS
 62
    7
 10
494.76399310350502
 20
268.23477269126693
 11
494.76399310350502
 21
291.23477269126693
  0
LINE
  8
_0-b_細線3
  6
CONTINUOUS
 62
    7
 10
492.76399310350598
 20
268.23477269126693
 11
494.76399310350502
 21
268.23477269126693
  0
LINE
  8
_0-b_細線3
  6
CONTINUOUS
 62
    7
 10
492.76399310350598
 20
291.23477269126693
 11
492.76399310350598
 21
268.23477269126693
  0
LINE
  8
_0-b_細線3
  6
CONTINUOUS
 62
    7
 10
487.09732643683901
 20
291.23477269126693
 11
492.76399310350598
 21
291.23477269126693
  0
LINE
  8
_0-b_細線3
  6
CONTINUOUS
 62
    7
 10
487.09732643683901
 20
293.23477269126693
 11
487.09732643683901
 21
291.23477269126693
  0
LINE
  8
_0-b_細線3
  6
CONTINUOUS
 62
    7
 10
500.4306597701725
 20
293.23477269126693
 11
487.09732643683901
 21
293.23477269126693
  0
ARC
  8
_0-b_細線3
  6
CONTINUOUS
 62
    7
 10
458.76399310350553
 20
370.76391364829601
 40
97.696522151886498
 50
263.73185704547677
 51
276.2681429545222
  0
ARC
  8
_0-b_細線3
  6
CONTINUOUS
 62
    7
 10
458.76399310350553
 20
189.03896506757135
 40
97.696522151886498
 50
83.731857045477369
 51
96.268142954522887
  0
LINE
  8
_0-b_細線3
  6
CONTINUOUS
 62
    7
 10
453.76399310350553
 20
291.23477269126693
 11
453.76399310350553
 21
293.23477269126693
  0
LINE
  8
_0-b_細線3
  6
CONTINUOUS
 62
    7
 10
448.09732643683901
 20
291.23477269126693
 11
453.76399310350553
 21
291.23477269126693
  0
LINE
  8
_0-b_細線3
  6
CONTINUOUS
 62
    7
 10
448.09732643683901
 20
268.23477269126693
 11
448.09732643683901
 21
291.23477269126693
  0
LINE
  8
_0-b_細線3
  6
CONTINUOUS
 62
    7
 10
446.09732643683901
 20
268.23477269126693
 11
448.09732643683901
 21
268.23477269126693
  0
LINE
  8
_0-b_細線3
  6
CONTINUOUS
 62
    7
 10
446.09732643683901
 20
291.23477269126693
 11
446.09732643683901
 21
268.23477269126693
  0
LINE
  8
_0-b_細線3
  6
CONTINUOUS
 62
    7
 10
440.43065977017199
 20
291.23477269126693
 11
446.09732643683901
 21
291.23477269126693
  0
LINE
  8
_0-b_細線3
  6
CONTINUOUS
 62
    7
 10
440.43065977017199
 20
293.23477269126693
 11
440.43065977017199
 21
291.23477269126693
  0
LINE
  8
_0-b_細線3
  6
CONTINUOUS
 62
    7
 10
453.76399310350553
 20
293.23477269126693
 11
440.43065977017199
 21
293.23477269126693
  0
ARC
  8
_0-b_細線3
  6
CONTINUOUS
 62
    7
 10
435.43065977017199
 20
370.76391364829601
 40
97.696522151886498
 50
263.73185704547677
 51
276.2681429545222
  0
ARC
  8
_0-b_細線3
  6
CONTINUOUS
 62
    7
 10
435.43065977017199
 20
189.03896506757135
 40
97.696522151886498
 50
83.731857045477369
 51
96.268142954522887
  0
ARC
  8
_0-b_細線3
  6
CONTINUOUS
 62
    7
 10
528.76399310350507
 20
370.76391364829601
 40
97.696522151886498
 50
263.73185704547677
 51
276.2681429545222
  0
ARC
  8
_0-b_細線3
  6
CONTINUOUS
 62
    7
 10
528.76399310350507
 20
189.03896506757135
 40
97.696522151886498
 50
83.731857045477369
 51
96.268142954522887
  0
LINE
  8
_0-b_細線3
  6
CONTINUOUS
 62
    7
 10
523.76399310350507
 20
291.23477269126693
 11
523.76399310350507
 21
293.23477269126693
  0
LINE
  8
_0-b_細線3
  6
CONTINUOUS
 62
    7
 10
518.0973264368381
 20
291.23477269126693
 11
523.76399310350507
 21
291.23477269126693
  0
LINE
  8
_0-b_細線3
  6
CONTINUOUS
 62
    7
 10
518.0973264368381
 20
268.23477269126693
 11
518.0973264368381
 21
291.23477269126693
  0
LINE
  8
_0-b_細線3
  6
CONTINUOUS
 62
    7
 10
516.09732643683856
 20
268.23477269126693
 11
518.0973264368381
 21
268.23477269126693
  0
LINE
  8
_0-b_細線3
  6
CONTINUOUS
 62
    7
 10
516.09732643683856
 20
291.23477269126693
 11
516.09732643683856
 21
268.23477269126693
  0
LINE
  8
_0-b_細線3
  6
CONTINUOUS
 62
    7
 10
510.43065977017199
 20
291.23477269126693
 11
516.09732643683856
 21
291.23477269126693
  0
LINE
  8
_0-b_細線3
  6
CONTINUOUS
 62
    7
 10
510.43065977017199
 20
293.23477269126693
 11
510.43065977017199
 21
291.23477269126693
  0
LINE
  8
_0-b_細線3
  6
CONTINUOUS
 62
    7
 10
523.76399310350507
 20
293.23477269126693
 11
510.43065977017199
 21
293.23477269126693
  0
ARC
  8
_0-b_細線3
  6
CONTINUOUS
 62
    7
 10
552.09732643683765
 20
370.76391364829601
 40
97.696522151886498
 50
263.73185704547677
 51
276.26814295452255
  0
ARC
  8
_0-b_細線3
  6
CONTINUOUS
 62
    7
 10
552.09732643683765
 20
189.03896506757135
 40
97.696522151886498
 50
83.731857045477113
 51
96.268142954522887
  0
LINE
  8
_0-b_細線3
  6
CONTINUOUS
 62
    7
 10
547.0973264368381
 20
291.23477269126693
 11
547.0973264368381
 21
293.23477269126693
  0
LINE
  8
_0-b_細線3
  6
CONTINUOUS
 62
    7
 10
541.43065977017113
 20
291.23477269126693
 11
547.0973264368381
 21
291.23477269126693
  0
LINE
  8
_0-b_細線3
  6
CONTINUOUS
 62
    7
 10
541.43065977017113
 20
268.23477269126693
 11
541.43065977017113
 21
291.23477269126693
  0
LINE
  8
_0-b_細線3
  6
CONTINUOUS
 62
    7
 10
539.43065977017113
 20
268.23477269126693
 11
541.43065977017113
 21
268.23477269126693
  0
LINE
  8
_0-b_細線3
  6
CONTINUOUS
 62
    7
 10
539.43065977017113
 20
291.23477269126693
 11
539.43065977017113
 21
268.23477269126693
  0
LINE
  8
_0-b_細線3
  6
CONTINUOUS
 62
    7
 10
533.76399310350462
 20
291.23477269126693
 11
539.43065977017113
 21
291.23477269126693
  0
LINE
  8
_0-b_細線3
  6
CONTINUOUS
 62
    7
 10
533.76399310350462
 20
293.23477269126693
 11
533.76399310350462
 21
291.23477269126693
  0
LINE
  8
_0-b_細線3
  6
CONTINUOUS
 62
    7
 10
547.0973264368381
 20
293.23477269126693
 11
533.76399310350462
 21
293.23477269126693
  0
ARC
  8
_0-b_細線3
  6
CONTINUOUS
 62
    7
 10
575.43065977017022
 20
370.76391364829601
 40
97.696522151886498
 50
263.73185704547706
 51
276.26814295452255
  0
ARC
  8
_0-b_細線3
  6
CONTINUOUS
 62
    7
 10
575.43065977017022
 20
189.03896506757135
 40
97.696522151886498
 50
83.731857045476858
 51
96.268142954522631
  0
LINE
  8
_0-b_細線3
  6
CONTINUOUS
 62
    7
 10
570.43065977017113
 20
291.23477269126693
 11
570.43065977017113
 21
293.23477269126693
  0
LINE
  8
_0-b_細線3
  6
CONTINUOUS
 62
    7
 10
564.76399310350371
 20
291.23477269126693
 11
570.43065977017113
 21
291.23477269126693
  0
LINE
  8
_0-b_細線3
  6
CONTINUOUS
 62
    7
 10
564.76399310350371
 20
268.23477269126693
 11
564.76399310350371
 21
291.23477269126693
  0
LINE
  8
_0-b_細線3
  6
CONTINUOUS
 62
    7
 10
562.76399310350416
 20
268.23477269126693
 11
564.76399310350371
 21
268.23477269126693
  0
LINE
  8
_0-b_細線3
  6
CONTINUOUS
 62
    7
 10
562.76399310350416
 20
291.23477269126693
 11
562.76399310350416
 21
268.23477269126693
  0
LINE
  8
_0-b_細線3
  6
CONTINUOUS
 62
    7
 10
557.09732643683719
 20
291.23477269126693
 11
562.76399310350416
 21
291.23477269126693
  0
LINE
  8
_0-b_細線3
  6
CONTINUOUS
 62
    7
 10
557.09732643683719
 20
293.23477269126693
 11
557.09732643683719
 21
291.23477269126693
  0
LINE
  8
_0-b_細線3
  6
CONTINUOUS
 62
    7
 10
570.43065977017113
 20
293.23477269126693
 11
557.09732643683719
 21
293.23477269126693
  0
LINE
  8
_0-b_細線3
  6
CONTINUOUS
 62
    7
 10
593.76399310350371
 20
291.23477269126693
 11
593.76399310350371
 21
293.23477269126693
  0
LINE
  8
_0-b_細線3
  6
CONTINUOUS
 62
    7
 10
588.09732643683628
 20
291.23477269126693
 11
593.76399310350371
 21
291.23477269126693
  0
LINE
  8
_0-b_細線3
  6
CONTINUOUS
 62
    7
 10
588.09732643683628
 20
268.23477269126693
 11
588.09732643683628
 21
291.23477269126693
  0
LINE
  8
_0-b_細線3
  6
CONTINUOUS
 62
    7
 10
586.09732643683719
 20
268.23477269126693
 11
588.09732643683628
 21
268.23477269126693
  0
LINE
  8
_0-b_細線3
  6
CONTINUOUS
 62
    7
 10
586.09732643683719
 20
291.23477269126693
 11
586.09732643683719
 21
268.23477269126693
  0
LINE
  8
_0-b_細線3
  6
CONTINUOUS
 62
    7
 10
580.43065977017022
 20
291.23477269126693
 11
586.09732643683719
 21
291.23477269126693
  0
LINE
  8
_0-b_細線3
  6
CONTINUOUS
 62
    7
 10
580.43065977017022
 20
293.23477269126693
 11
580.43065977017022
 21
291.23477269126693
  0
LINE
  8
_0-b_細線3
  6
CONTINUOUS
 62
    7
 10
593.76399310350371
 20
293.23477269126693
 11
580.43065977017022
 21
293.23477269126693
  0
LINE
  8
_0-b_細線3
  6
CONTINUOUS
 62
    7
 10
430.43065977017199
 20
291.23477269126693
 11
430.43065977017199
 21
293.23477269126693
  0
LINE
  8
_0-b_細線3
  6
CONTINUOUS
 62
    7
 10
424.76399310350553
 20
291.23477269126693
 11
430.43065977017199
 21
291.23477269126693
  0
LINE
  8
_0-b_細線3
  6
CONTINUOUS
 62
    7
 10
424.76399310350553
 20
268.23477269126693
 11
424.76399310350553
 21
291.23477269126693
  0
LINE
  8
_0-b_細線3
  6
CONTINUOUS
 62
    7
 10
422.76399310350547
 20
268.23477269126693
 11
424.76399310350553
 21
268.23477269126693
  0
LINE
  8
_0-b_細線3
  6
CONTINUOUS
 62
    7
 10
422.76399310350547
 20
291.23477269126693
 11
422.76399310350547
 21
268.23477269126693
  0
LINE
  8
_0-b_細線3
  6
CONTINUOUS
 62
    7
 10
417.0973264368385
 20
291.23477269126693
 11
422.76399310350547
 21
291.23477269126693
  0
LINE
  8
_0-b_細線3
  6
CONTINUOUS
 62
    7
 10
417.0973264368385
 20
293.23477269126693
 11
417.0973264368385
 21
291.23477269126693
  0
LINE
  8
_0-b_細線3
  6
CONTINUOUS
 62
    7
 10
430.43065977017199
 20
293.23477269126693
 11
417.0973264368385
 21
293.23477269126693
  0
ARC
  8
_0-b_細線3
  6
CONTINUOUS
 62
    7
 10
412.0973264368385
 20
370.76391364829601
 40
97.696522151886498
 50
263.73185704547677
 51
276.26814295452255
  0
ARC
  8
_0-b_細線3
  6
CONTINUOUS
 62
    7
 10
412.0973264368385
 20
189.03896506757135
 40
97.696522151886498
 50
83.731857045477113
 51
96.268142954522887
  0
LINE
  8
_0-b_細線3
  6
CONTINUOUS
 62
    7
 10
407.0973264368385
 20
291.23477269126693
 11
407.0973264368385
 21
293.23477269126693
  0
LINE
  8
_0-b_細線3
  6
CONTINUOUS
 62
    7
 10
401.43065977017204
 20
291.23477269126693
 11
407.0973264368385
 21
291.23477269126693
  0
LINE
  8
_0-b_細線3
  6
CONTINUOUS
 62
    7
 10
401.43065977017204
 20
268.23477269126693
 11
401.43065977017204
 21
291.23477269126693
  0
LINE
  8
_0-b_細線3
  6
CONTINUOUS
 62
    7
 10
399.43065977017199
 20
268.23477269126693
 11
401.43065977017204
 21
268.23477269126693
  0
LINE
  8
_0-b_細線3
  6
CONTINUOUS
 62
    7
 10
399.43065977017199
 20
291.23477269126693
 11
399.43065977017199
 21
268.23477269126693
  0
LINE
  8
_0-b_細線3
  6
CONTINUOUS
 62
    7
 10
393.76399310350507
 20
291.23477269126693
 11
399.43065977017199
 21
291.23477269126693
  0
LINE
  8
_0-b_細線3
  6
CONTINUOUS
 62
    7
 10
393.76399310350507
 20
293.23477269126693
 11
393.76399310350507
 21
291.23477269126693
  0
LINE
  8
_0-b_細線3
  6
CONTINUOUS
 62
    7
 10
407.0973264368385
 20
293.23477269126693
 11
393.76399310350507
 21
293.23477269126693
  0
ARC
  8
_0-b_細線3
  6
CONTINUOUS
 62
    7
 10
388.76399310350507
 20
370.76391364829601
 40
97.696522151886498
 50
263.73185704547706
 51
276.26814295452255
  0
ARC
  8
_0-b_細線3
  6
CONTINUOUS
 62
    7
 10
388.76399310350507
 20
189.03896506757135
 40
97.696522151886498
 50
83.731857045477113
 51
96.268142954522631
  0
LINE
  8
_0-b_細線3
  6
CONTINUOUS
 62
    7
 10
383.76399310350502
 20
291.23477269126693
 11
383.76399310350502
 21
293.23477269126693
  0
LINE
  8
_0-b_細線3
  6
CONTINUOUS
 62
    7
 10
378.09732643683896
 20
291.23477269126693
 11
383.76399310350502
 21
291.23477269126693
  0
LINE
  8
_0-b_細線3
  6
CONTINUOUS
 62
    7
 10
378.09732643683896
 20
268.23477269126693
 11
378.09732643683896
 21
291.23477269126693
  0
LINE
  8
_0-b_細線3
  6
CONTINUOUS
 62
    7
 10
376.09732643683901
 20
268.23477269126693
 11
378.09732643683896
 21
268.23477269126693
  0
LINE
  8
_0-b_細線3
  6
CONTINUOUS
 62
    7
 10
376.09732643683901
 20
291.23477269126693
 11
376.09732643683901
 21
268.23477269126693
  0
LINE
  8
_0-b_細線3
  6
CONTINUOUS
 62
    7
 10
370.43065977017199
 20
291.23477269126693
 11
376.09732643683901
 21
291.23477269126693
  0
LINE
  8
_0-b_細線3
  6
CONTINUOUS
 62
    7
 10
370.43065977017199
 20
293.23477269126693
 11
370.43065977017199
 21
291.23477269126693
  0
LINE
  8
_0-b_細線3
  6
CONTINUOUS
 62
    7
 10
383.76399310350502
 20
293.23477269126693
 11
370.43065977017199
 21
293.23477269126693
  0
ARC
  8
_0-b_細線3
  6
CONTINUOUS
 62
    7
 10
365.43065977017199
 20
370.76391364829601
 40
97.696522151886498
 50
263.73185704547677
 51
276.2681429545222
  0
ARC
  8
_0-b_細線3
  6
CONTINUOUS
 62
    7
 10
365.43065977017199
 20
189.03896506757135
 40
97.696522151886498
 50
83.731857045477369
 51
96.268142954522887
  0
LINE
  8
_0-b_細線3
  6
CONTINUOUS
 62
    7
 10
360.43065977017199
 20
291.23477269126693
 11
360.43065977017199
 21
293.23477269126693
  0
LINE
  8
_0-b_細線3
  6
CONTINUOUS
 62
    7
 10
354.76399310350553
 20
291.23477269126693
 11
360.43065977017199
 21
291.23477269126693
  0
LINE
  8
_0-b_細線3
  6
CONTINUOUS
 62
    7
 10
354.76399310350553
 20
268.23477269126693
 11
354.76399310350553
 21
291.23477269126693
  0
LINE
  8
_0-b_細線3
  6
CONTINUOUS
 62
    7
 10
352.76399310350547
 20
268.23477269126693
 11
354.76399310350553
 21
268.23477269126693
  0
LINE
  8
_0-b_細線3
  6
CONTINUOUS
 62
    7
 10
352.76399310350547
 20
291.23477269126693
 11
352.76399310350547
 21
268.23477269126693
  0
LINE
  8
_0-b_細線3
  6
CONTINUOUS
 62
    7
 10
347.0973264368385
 20
291.23477269126693
 11
352.76399310350547
 21
291.23477269126693
  0
LINE
  8
_0-b_細線3
  6
CONTINUOUS
 62
    7
 10
347.0973264368385
 20
293.23477269126693
 11
347.0973264368385
 21
291.23477269126693
  0
LINE
  8
_0-b_細線3
  6
CONTINUOUS
 62
    7
 10
360.43065977017199
 20
293.23477269126693
 11
347.0973264368385
 21
293.23477269126693
  0
LINE
  8
_0-d_寸法3
  6
CONTINUOUS
 62
    7
 10
493.76399310350592
 20
303.23477269126693
 11
493.76399310350592
 21
344.90143935793435
  0
LINE
  8
_0-d_寸法3
  6
CONTINUOUS
 62
    7
 10
493.76399310350592
 20
339.90143935793435
 11
503.42325136639658
 21
342.48962980895953
  0
LINE
  8
_0-d_寸法3
  6
CONTINUOUS
 62
    7
 10
493.76399310350592
 20
339.90143935793435
 11
503.42325136639658
 21
337.31324890690922
  0
LINE
  8
_0-d_寸法3
  6
CONTINUOUS
 62
    7
 10
517.09732643683901
 20
303.23477269126693
 11
517.09732643683901
 21
344.90143935793435
  0
LINE
  8
_0-d_寸法3
  6
CONTINUOUS
 62
    7
 10
517.09732643683901
 20
339.90143935793435
 11
507.43806817394835
 21
337.31324890690922
  0
LINE
  8
_0-d_寸法3
  6
CONTINUOUS
 62
    7
 10
517.09732643683901
 20
339.90143935793435
 11
507.43806817394841
 21
342.48962980895959
  0
LINE
  8
_0-d_寸法3
  6
CONTINUOUS
 62
    7
 10
493.76399310350592
 20
339.90143935793435
 11
517.09732643683901
 21
339.90143935793435
  0
TEXT
  8
_0-d_寸法3
 62
    7
 10
497.9306597701725
 20
339.90143935793435
 40
15
 41
1
 50
0
  1
14
  0
LINE
  8
_0-d_寸法3
  6
CONTINUOUS
 62
    7
 10
517.09732643683901
 20
339.90143935793435
 11
526.75658469972973
 21
342.48962980895948
  0
LINE
  8
_0-d_寸法3
  6
CONTINUOUS
 62
    7
 10
517.09732643683901
 20
339.90143935793435
 11
526.75658469972973
 21
337.31324890690917
  0
LINE
  8
_0-d_寸法3
  6
CONTINUOUS
 62
    7
 10
540.4306597701725
 20
303.23477269126693
 11
540.4306597701725
 21
344.90143935793435
  0
LINE
  8
_0-d_寸法3
  6
CONTINUOUS
 62
    7
 10
540.4306597701725
 20
339.90143935793435
 11
530.77140150728178
 21
337.31324890690922
  0
LINE
  8
_0-d_寸法3
  6
CONTINUOUS
 62
    7
 10
540.4306597701725
 20
339.90143935793435
 11
530.77140150728178
 21
342.48962980895959
  0
LINE
  8
_0-d_寸法3
  6
CONTINUOUS
 62
    7
 10
517.09732643683901
 20
339.90143935793435
 11
540.4306597701725
 21
339.90143935793435
  0
TEXT
  8
_0-d_寸法3
 62
    7
 10
521.26399310350598
 20
339.90143935793435
 40
15
 41
1
 50
0
  1
14
  0
LINE
  8
_0-d_寸法3
  6
CONTINUOUS
 62
    7
 10
417.0973264368385
 20
303.23477269126693
 11
417.0973264368385
 21
344.90143935793435
  0
LINE
  8
_0-d_寸法3
  6
CONTINUOUS
 62
    7
 10
417.0973264368385
 20
339.90143935793435
 11
407.43806817394784
 21
337.31324890690922
  0
LINE
  8
_0-d_寸法3
  6
CONTINUOUS
 62
    7
 10
417.0973264368385
 20
339.90143935793435
 11
407.43806817394784
 21
342.48962980895959
  0
LINE
  8
_0-d_寸法3
  6
CONTINUOUS
 62
    7
 10
430.43065977017199
 20
303.23477269126693
 11
430.43065977017199
 21
344.90143935793435
  0
CIRCLE
  8
_0-d_寸法3
  6
CONTINUOUS
 62
    1
 10
430.43065977017199
 20
339.90143935793435
 40
1.5000000000000002
  0
LINE
  8
_0-d_寸法3
  6
CONTINUOUS
 62
    7
 10
392.0973264368385
 20
339.90143935793435
 11
430.43065977017199
 21
339.90143935793435
  0
TEXT
  8
_0-d_寸法3
 62
    7
 10
399.67331047146263
 20
339.90143935793435
 40
15
 41
1
 50
0
  1
8
  0
LINE
  8
_0-d_寸法3
  6
CONTINUOUS
 62
    7
 10
440.43065977017199
 20
303.23477269126693
 11
440.43065977017199
 21
344.90143935793435
  0
LINE
  8
_0-d_寸法3
  6
CONTINUOUS
 62
    7
 10
440.43065977017199
 20
339.90143935793435
 11
450.08991803306276
 21
342.48962980895948
  0
LINE
  8
_0-d_寸法3
  6
CONTINUOUS
 62
    7
 10
440.43065977017199
 20
339.90143935793435
 11
450.08991803306265
 21
337.31324890690917
  0
LINE
  8
_0-d_寸法3
  6
CONTINUOUS
 62
    7
 10
430.43065977017199
 20
339.90143935793435
 11
465.43065977017199
 21
339.90143935793435
  0
TEXT
  8
_0-d_寸法3
 62
    7
 10
446.72252857845751
 20
339.90143935793435
 40
15
 41
1
 50
0
  1
6
  0
LINE
  8
_0-d_寸法3
  6
CONTINUOUS
 62
    7
 10
465.43065977017204
 20
276.89502672911135
 11
452.95712867752712
 21
298.49981633136258
  0
LINE
  8
_0-d_寸法3
  6
CONTINUOUS
 62
    7
 10
455.45712867752712
 20
294.16968931244037
 11
452.868938226502
 21
303.82894757533103
  0
LINE
  8
_0-d_寸法3
  6
CONTINUOUS
 62
    7
 10
455.45712867752712
 20
294.16968931244037
 11
458.04531912855236
 21
303.82894757533103
  0
LINE
  8
_0-d_寸法3
  6
CONTINUOUS
 62
    7
 10
465.43065977017204
 20
301.89502672911135
 11
452.95712867752718
 21
323.49981633136281
  0
LINE
  8
_0-d_寸法3
  6
CONTINUOUS
 62
    7
 10
455.45712867752712
 20
319.1696893124406
 11
458.04531912855231
 21
309.51043104954988
  0
LINE
  8
_0-d_寸法3
  6
CONTINUOUS
 62
    7
 10
455.45712867752712
 20
319.1696893124406
 11
452.86893822650194
 21
309.51043104954994
  0
LINE
  8
_0-d_寸法3
  6
CONTINUOUS
 62
    7
 10
455.45712867752712
 20
294.16968931244037
 11
455.45712867752712
 21
319.1696893124406
  0
TEXT
  8
_0-d_寸法3
 62
    7
 10
455.45712867752712
 20
299.16968931244037
 40
15
 41
1
 50
90
  1
15
  0
LINE
  8
_0-7_枠細線
  6
CONTINUOUS
 62
    5
 10
1139.4018171150183
 20
373.42884000293418
 11
1139.4018171150183
 21
453.42884000293418
  0
LINE
  8
_0-7_枠細線
  6
CONTINUOUS
 62
    5
 10
1229.4018171150183
 20
373.42884000293418
 11
1229.4018171150183
 21
453.42884000293418
  0
TEXT
  8
_0-7_枠細線
 62
    5
 10
1251.9018171150183
 20
430.92884000293418
 40
15
 41
1
 50
0
  1
蓋重量
  0
LINE
  8
_0-7_枠細線
  6
CONTINUOUS
 62
    5
 10
1319.4018171150183
 20
373.42884000293418
 11
1319.4018171150183
 21
453.42884000293418
  0
TEXT
  8
_0-7_枠細線
 62
    5
 10
1341.9018171150183
 20
430.92884000293418
 40
15
 41
1
 50
0
  1
枠重量
  0
LINE
  8
_0-7_枠細線
  6
CONTINUOUS
 62
    5
 10
1139.4018171150183
 20
423.42884000293418
 11
1409.4018171150183
 21
423.42884000293418
  0
LINE
  8
_0-7_枠細線
  6
CONTINUOUS
 62
    5
 10
1139.4018171150183
 20
453.42884000293418
 11
1409.4018171150183
 21
453.42884000293418
  0
LINE
  8
_0-7_枠細線
  6
CONTINUOUS
 62
    5
 10
1139.4018171150183
 20
373.42884000293418
 11
1409.4018171150183
 21
373.42884000293418
  0
LINE
  8
_0-7_枠細線
  6
CONTINUOUS
 62
    5
 10
1409.4018171150183
 20
373.42884000293418
 11
1409.4018171150183
 21
453.42884000293418
  0
TEXT
  8
_0-7_枠細線
 62
    5
 10
1161.9018171150183
 20
400.92884000293418
 40
15
 41
1
 50
0
  1
歩道用
  0
TEXT
  8
_0-7_枠細線
 62
    5
 10
1139.4018171150183
 20
380.92884000293418
 40
15
 41
1
 50
0
  1
（5.0kN/㎡）
  0
TEXT
  8
_0-7_枠細線
 62
    5
 10
1334.4018171150183
 20
392.17884000293418
 40
15
 41
0.8000000000000001
 50
0
  1
2.2kg/ｍ組
  0
TEXT
  8
_0-7_枠細線
 62
    5
 10
1154.4018171150183
 20
430.92884000293418
 40
15
 41
1
 50
0
  1
適用荷重
  0
TEXT
  8
_0-7_枠細線
 62
    5
 10
1250.4018171150187
 20
392.17884000293418
 40
15
 41
0.8000000000000001
 50
0
  1
1.3kg/枚
  0
LINE
  8
_0-1_計細線
  6
CONTINUOUS
 62
    3
 10
978.4337498636728
 20
678.68176632366715
 11
978.4337498636728
 21
672.68176632366715
  0
LINE
  8
_0-1_計細線
  6
CONTINUOUS
 62
    3
 10
978.4337498636728
 20
665.68176632366715
 11
978.4337498636728
 21
659.68176632366726
  0
LINE
  8
_0-1_計細線
  6
CONTINUOUS
 62
    3
 10
978.4337498636728
 20
652.68176632366715
 11
978.4337498636728
 21
646.68176632366726
  0
LINE
  8
_0-0_計極細
  6
CENTER2
 62
    2
 10
282.45440804576538
 20
656.18176632391726
 11
1167.2751487865062
 21
656.18176632391726
  0
LINE
  8
_0-1_計細線
  6
CONTINUOUS
 62
    3
 10
1164.9337498636719
 20
735.18176632366715
 11
284.93374986367286
 21
735.18176632366715
  0
ARC
  8
_0-1_計細線
  6
CONTINUOUS
 62
    3
 10
1151.871249863691
 20
727.68176632366908
 40
15.062499999984542
 50
330.13716564368235
 51
29.862834356304496
  0
ARC
  8
_0-1_計細線
  6
CONTINUOUS
 62
    3
 10
1177.996249863691
 20
712.68176632366908
 40
15.062500000017272
 50
150.13716564376668
 51
209.86283435624458
  0
LINE
  8
_0-5_寸法線
  6
CONTINUOUS
 62
    7
 10
475.43374986367292
 20
745.18176632366578
 11
475.43374986367326
 21
825.18176632366715
  0
LINE
  8
_0-5_寸法線
  6
CONTINUOUS
 62
    7
 10
475.43374986367326
 20
820.18176632366715
 11
485.09300812656392
 21
822.76995677469245
  0
LINE
  8
_0-5_寸法線
  6
CONTINUOUS
 62
    7
 10
475.43374986367326
 20
820.18176632366715
 11
485.09300812656392
 21
817.59357587264208
  0
LINE
  8
_0-5_寸法線
  6
CONTINUOUS
 62
    7
 10
974.43374986367292
 20
745.18176632366578
 11
974.43374986367292
 21
825.18176632366715
  0
LINE
  8
_0-5_寸法線
  6
CONTINUOUS
 62
    7
 10
974.43374986367292
 20
820.18176632366715
 11
964.77449160078208
 21
817.59357587264208
  0
LINE
  8
_0-5_寸法線
  6
CONTINUOUS
 62
    7
 10
974.43374986367292
 20
820.18176632366715
 11
964.77449160078208
 21
822.76995677469245
  0
LINE
  8
_0-5_寸法線
  6
CONTINUOUS
 62
    7
 10
475.43374986367326
 20
820.18176632366715
 11
974.43374986367292
 21
820.18176632366715
  0
TEXT
  8
_0-5_寸法線
 62
    7
 10
713.6837498636728
 20
820.18176632366715
 40
15
 41
1
 50
0
  1
499
  0
LINE
  8
_0-5_寸法線
  6
CONTINUOUS
 62
    7
 10
475.4337498636728
 20
745.18176632366715
 11
475.4337498636728
 21
790.18176632366715
  0
LINE
  8
_0-5_寸法線
  6
CONTINUOUS
 62
    7
 10
475.4337498636728
 20
785.18176632366715
 11
485.09300812656352
 21
787.76995677469245
  0
LINE
  8
_0-5_寸法線
  6
CONTINUOUS
 62
    7
 10
475.4337498636728
 20
785.18176632366715
 11
485.09300812656352
 21
782.59357587264208
  0
LINE
  8
_0-5_寸法線
  6
CONTINUOUS
 62
    7
 10
574.9337498636728
 20
745.18176632366715
 11
574.9337498636728
 21
790.18176632366715
  0
LINE
  8
_0-5_寸法線
  6
CONTINUOUS
 62
    7
 10
574.9337498636728
 20
785.18176632366715
 11
565.27449160078208
 21
782.59357587264208
  0
LINE
  8
_0-5_寸法線
  6
CONTINUOUS
 62
    7
 10
574.9337498636728
 20
785.18176632366715
 11
565.27449160078208
 21
787.76995677469245
  0
LINE
  8
_0-5_寸法線
  6
CONTINUOUS
 62
    7
 10
475.4337498636728
 20
785.18176632366715
 11
574.9337498636728
 21
785.18176632366715
  0
TEXT
  8
_0-5_寸法線
 62
    7
 10
510.18374986367286
 20
785.18176632366715
 40
15
 41
1
 50
0
  1
99.5
  0
LINE
  8
_0-5_寸法線
  6
CONTINUOUS
 62
    7
 10
574.9337498636728
 20
785.18176632366715
 11
584.59300812656352
 21
787.76995677469245
  0
LINE
  8
_0-5_寸法線
  6
CONTINUOUS
 62
    7
 10
574.9337498636728
 20
785.18176632366715
 11
584.59300812656352
 21
782.59357587264185
  0
LINE
  8
_0-5_寸法線
  6
CONTINUOUS
 62
    7
 10
674.9337498636728
 20
745.18176632366715
 11
674.9337498636728
 21
790.18176632366715
  0
LINE
  8
_0-5_寸法線
  6
CONTINUOUS
 62
    7
 10
674.9337498636728
 20
785.18176632366715
 11
665.27449160078208
 21
782.59357587264208
  0
LINE
  8
_0-5_寸法線
  6
CONTINUOUS
 62
    7
 10
674.9337498636728
 20
785.18176632366715
 11
665.27449160078208
 21
787.76995677469245
  0
LINE
  8
_0-5_寸法線
  6
CONTINUOUS
 62
    7
 10
574.9337498636728
 20
785.18176632366715
 11
674.9337498636728
 21
785.18176632366715
  0
TEXT
  8
_0-5_寸法線
 62
    7
 10
613.6837498636728
 20
785.18176632366715
 40
15
 41
1
 50
0
  1
100
  0
LINE
  8
_0-5_寸法線
  6
CONTINUOUS
 62
    7
 10
674.9337498636728
 20
785.18176632366715
 11
684.59300812656352
 21
787.76995677469245
  0
LINE
  8
_0-5_寸法線
  6
CONTINUOUS
 62
    7
 10
674.9337498636728
 20
785.18176632366715
 11
684.59300812656352
 21
782.59357587264185
  0
LINE
  8
_0-5_寸法線
  6
CONTINUOUS
 62
    7
 10
774.9337498636728
 20
745.18176632366715
 11
774.9337498636728
 21
790.18176632366715
  0
LINE
  8
_0-5_寸法線
  6
CONTINUOUS
 62
    7
 10
774.9337498636728
 20
785.18176632366715
 11
765.27449160078208
 21
782.59357587264208
  0
LINE
  8
_0-5_寸法線
  6
CONTINUOUS
 62
    7
 10
774.9337498636728
 20
785.18176632366715
 11
765.27449160078208
 21
787.76995677469245
  0
LINE
  8
_0-5_寸法線
  6
CONTINUOUS
 62
    7
 10
674.9337498636728
 20
785.18176632366715
 11
774.9337498636728
 21
785.18176632366715
  0
TEXT
  8
_0-5_寸法線
 62
    7
 10
713.6837498636728
 20
785.18176632366715
 40
15
 41
1
 50
0
  1
100
  0
LINE
  8
_0-5_寸法線
  6
CONTINUOUS
 62
    7
 10
774.9337498636728
 20
785.18176632366715
 11
784.59300812656352
 21
787.76995677469245
  0
LINE
  8
_0-5_寸法線
  6
CONTINUOUS
 62
    7
 10
774.9337498636728
 20
785.18176632366715
 11
784.59300812656352
 21
782.59357587264185
  0
LINE
  8
_0-5_寸法線
  6
CONTINUOUS
 62
    7
 10
874.9337498636728
 20
745.18176632366715
 11
874.9337498636728
 21
790.18176632366715
  0
LINE
  8
_0-5_寸法線
  6
CONTINUOUS
 62
    7
 10
874.9337498636728
 20
785.18176632366715
 11
865.2744916007822
 21
782.59357587264208
  0
LINE
  8
_0-5_寸法線
  6
CONTINUOUS
 62
    7
 10
874.9337498636728
 20
785.18176632366715
 11
865.2744916007822
 21
787.76995677469245
  0
LINE
  8
_0-5_寸法線
  6
CONTINUOUS
 62
    7
 10
774.9337498636728
 20
785.18176632366715
 11
874.9337498636728
 21
785.18176632366715
  0
TEXT
  8
_0-5_寸法線
 62
    7
 10
813.6837498636728
 20
785.18176632366715
 40
15
 41
1
 50
0
  1
100
  0
LINE
  8
_0-5_寸法線
  6
CONTINUOUS
 62
    7
 10
874.9337498636728
 20
785.18176632366715
 11
884.59300812656352
 21
787.76995677469245
  0
LINE
  8
_0-5_寸法線
  6
CONTINUOUS
 62
    7
 10
874.9337498636728
 20
785.18176632366715
 11
884.59300812656352
 21
782.59357587264185
  0
LINE
  8
_0-5_寸法線
  6
CONTINUOUS
 62
    7
 10
974.43374986367292
 20
745.18176632366715
 11
974.43374986367292
 21
790.18176632366715
  0
LINE
  8
_0-5_寸法線
  6
CONTINUOUS
 62
    7
 10
974.43374986367292
 20
785.18176632366715
 11
964.77449160078208
 21
782.59357587264208
  0
LINE
  8
_0-5_寸法線
  6
CONTINUOUS
 62
    7
 10
974.43374986367292
 20
785.18176632366715
 11
964.77449160078208
 21
787.76995677469245
  0
LINE
  8
_0-5_寸法線
  6
CONTINUOUS
 62
    7
 10
874.9337498636728
 20
785.18176632366715
 11
974.43374986367292
 21
785.18176632366715
  0
TEXT
  8
_0-5_寸法線
 62
    7
 10
909.6837498636728
 20
785.18176632366715
 40
15
 41
1
 50
0
  1
99.5
  0
LINE
  8
_0-0_計極細
  6
CONTINUOUS
 62
    2
 10
1124.9337498636728
 20
730.18176632366715
 11
1125.0291219277688
 21
729.92689322064609
  0
LINE
  8
_0-0_計極細
  6
CONTINUOUS
 62
    2
 10
1125.0291219277688
 20
729.92689322064609
 11
1125.3125499159348
 21
729.16922851338813
  0
LINE
  8
_0-0_計極細
  6
CONTINUOUS
 62
    2
 10
1125.3125499159348
 20
729.16922851338813
 11
1125.7755545625225
 21
727.92945940611639
  0
LINE
  8
_0-0_計極細
  6
CONTINUOUS
 62
    2
 10
1125.7755545625225
 20
727.92945940611639
 11
1126.4028056651753
 21
726.24147608014721
  0
LINE
  8
_0-0_計極細
  6
CONTINUOUS
 62
    2
 10
1126.4028056651753
 20
726.24147608014721
 11
1127.1709165969564
 21
724.15149085304097
  0
LINE
  8
_0-0_計極細
  6
CONTINUOUS
 62
    2
 10
1127.1709165969564
 20
724.15149085304097
 11
1128.0477639685373
 21
721.71681302226614
  0
LINE
  8
_0-0_計極細
  6
CONTINUOUS
 62
    2
 10
1128.0477639685373
 20
721.71681302226614
 11
1128.9929755860246
 21
719.0042960423466
  0
LINE
  8
_0-0_計極細
  6
CONTINUOUS
 62
    2
 10
1128.9929755860246
 20
719.0042960423466
 11
1129.9600008826903
 21
716.08848791444404
  0
LINE
  8
_0-0_計極細
  6
CONTINUOUS
 62
    2
 10
1129.9600008826903
 20
716.08848791444404
 11
1130.8997985083661
 21
713.04953279329322
  0
LINE
  8
_0-0_計極細
  6
CONTINUOUS
 62
    2
 10
1130.8997985083661
 20
713.04953279329322
 11
1131.765738150011
 21
709.97088916794405
  0
LINE
  8
_0-0_計極細
  6
CONTINUOUS
 62
    2
 10
1131.765738150011
 20
709.97088916794405
 11
1132.5189295225532
 21
706.93694440080253
  0
LINE
  8
_0-0_計極細
  6
CONTINUOUS
 62
    2
 10
1132.5189295225532
 20
706.93694440080253
 11
1133.1329639959731
 21
704.0306140313179
  0
LINE
  8
_0-0_計極細
  6
CONTINUOUS
 62
    2
 10
1133.1329639959731
 20
704.0306140313179
 11
1133.5970522530179
 21
701.33101515203759
  0
LINE
  8
_0-0_計極細
  6
CONTINUOUS
 62
    2
 10
1133.5970522530179
 20
701.33101515203759
 11
1133.916780908462
 21
698.91129588747435
  0
LINE
  8
_0-0_計極細
  6
CONTINUOUS
 62
    2
 10
1133.916780908462
 20
698.91129588747435
 11
1134.1121502258925
 21
696.83668869939697
  0
LINE
  8
_0-0_計極細
  6
CONTINUOUS
 62
    2
 10
1134.1121502258925
 20
696.83668869939697
 11
1134.2131022568979
 21
695.16283643612996
  0
LINE
  8
_0-0_計極細
  6
CONTINUOUS
 62
    2
 10
1134.2131022568979
 20
695.16283643612996
 11
1134.253283045326
 21
693.93442009532407
  0
LINE
  8
_0-0_計極細
  6
CONTINUOUS
 62
    2
 10
1134.253283045326
 20
693.93442009532407
 11
1134.2631819146397
 21
693.184099609893
  0
LINE
  8
_0-0_計極細
  6
CONTINUOUS
 62
    2
 10
1134.2631819146397
 20
693.184099609893
 11
1134.2639607234601
 21
692.93176632366726
  0
LINE
  8
_0-0_計極細
  6
CONTINUOUS
 62
    2
 10
1134.2639607234601
 20
692.93176632366726
 11
1134.2634434980753
 21
692.67946783579373
  0
LINE
  8
_0-0_計極細
  6
CONTINUOUS
 62
    2
 10
1134.2634434980753
 20
692.67946783579373
 11
1134.2543222437537
 21
691.92965803824768
  0
LINE
  8
_0-0_計極細
  6
CONTINUOUS
 62
    2
 10
1134.2543222437537
 20
691.92965803824768
 11
1134.2154138905648
 21
690.70336523076992
  0
LINE
  8
_0-0_計極細
  6
CONTINUOUS
 62
    2
 10
1134.2154138905648
 20
690.70336523076992
 11
1134.1161944063292
 21
689.03488754706348
  0
LINE
  8
_0-0_計極細
  6
CONTINUOUS
 62
    2
 10
1134.1161944063292
 20
689.03488754706348
 11
1133.9229704878394
 21
686.97071403762664
  0
LINE
  8
_0-0_計極細
  6
CONTINUOUS
 62
    2
 10
1133.9229704878394
 20
686.97071403762664
 11
1133.6057415626169
 21
684.56809700256736
  0
LINE
  8
_0-0_計極細
  6
CONTINUOUS
 62
    2
 10
1133.6057415626169
 20
684.56809700256736
 11
1133.1444391809498
 21
681.89334474347766
  0
LINE
  8
_0-0_計極細
  6
CONTINUOUS
 62
    2
 10
1133.1444391809498
 20
681.89334474347766
 11
1132.5334007366462
 21
679.01990742501209
  0
LINE
  8
_0-0_計極細
  6
CONTINUOUS
 62
    2
 10
1132.5334007366462
 20
679.01990742501209
 11
1131.7833338230946
 21
676.02632495042042
  0
LINE
  8
_0-0_計極細
  6
CONTINUOUS
 62
    2
 10
1131.7833338230946
 20
676.02632495042042
 11
1130.9205618432179
 21
672.99409701081697
  0
LINE
  8
_0-0_計極細
  6
CONTINUOUS
 62
    2
 10
1130.9205618432179
 20
672.99409701081697
 11
1129.9838886765326
 21
670.00552489023448
  0
LINE
  8
_0-0_計極細
  6
CONTINUOUS
 62
    2
 10
1129.9838886765326
 20
670.00552489023448
 11
1129.0198594089834
 21
667.14156533018684
  0
LINE
  8
_0-0_計極細
  6
CONTINUOUS
 62
    2
 10
1129.0198594089834
 20
667.14156533018684
 11
1128.077433666874
 21
664.47973117173638
  0
LINE
  8
_0-0_計極細
  6
CONTINUOUS
 62
    2
 10
1128.077433666874
 20
664.47973117173638
 11
1127.2030860255143
 21
662.09207270288869
  0
LINE
  8
_0-0_計極細
  6
CONTINUOUS
 62
    2
 10
1127.2030860255143
 20
662.09207270288869
 11
1126.437120492674
 21
660.0432772324807
  0
LINE
  8
_0-0_計極細
  6
CONTINUOUS
 62
    2
 10
1126.437120492674
 20
660.0432772324807
 11
1125.811601936791
 21
658.38893061147633
  0
LINE
  8
_0-0_計極細
  6
CONTINUOUS
 62
    2
 10
1125.811601936791
 20
658.38893061147633
 11
1125.3498697254424
 21
657.17399057046475
  0
LINE
  8
_0-0_計極細
  6
CONTINUOUS
 62
    2
 10
1125.3498697254424
 20
657.17399057046475
 11
1125.0672193522687
 21
656.43152499474525
  0
LINE
  8
_0-0_計極細
  6
CONTINUOUS
 62
    2
 10
1125.0672193522687
 20
656.43152499474525
 11
1124.9721088716083
 21
656.18176632366715
  0
LINE
  8
_0-1_計細線
  6
CONTINUOUS
 62
    3
 10
978.4337498636728
 20
730.18176632366715
 11
978.4337498636728
 21
724.18176632366726
  0
LINE
  8
_0-1_計細線
  6
CONTINUOUS
 62
    3
 10
978.4337498636728
 20
717.18176632366726
 11
978.4337498636728
 21
711.18176632366715
  0
LINE
  8
_0-1_計細線
  6
CONTINUOUS
 62
    3
 10
978.4337498636728
 20
704.18176632366726
 11
978.4337498636728
 21
698.18176632366715
  0
LINE
  8
_0-1_計細線
  6
CONTINUOUS
 62
    3
 10
978.4337498636728
 20
691.18176632366715
 11
978.4337498636728
 21
685.68176632366715
  0
LINE
  8
_0-1_計細線
  6
CONTINUOUS
 62
    3
 10
1164.9337498636719
 20
705.18176632366715
 11
1132.8994195385558
 21
705.18176632366715
  0
ARC
  8
_0-1_計細線
  6
CONTINUOUS
 62
    3
 10
297.99624986365461
 20
727.68176632366908
 40
15.062499999984542
 50
150.13716564369517
 51
209.86283435631691
  0
ARC
  8
_0-1_計細線
  6
CONTINUOUS
 62
    3
 10
271.87124986365461
 20
712.68176632366908
 40
15.062500000017272
 50
330.13716564375471
 51
29.862834356232998
  0
LINE
  8
_0-0_計極細
  6
CONTINUOUS
 62
    2
 10
324.9337498636728
 20
730.18176632366715
 11
324.83837779957685
 21
729.92689322064609
  0
LINE
  8
_0-0_計極細
  6
CONTINUOUS
 62
    2
 10
324.83837779957685
 20
729.92689322064609
 11
324.55494981141089
 21
729.16922851338813
  0
LINE
  8
_0-0_計極細
  6
CONTINUOUS
 62
    2
 10
324.55494981141089
 20
729.16922851338813
 11
324.09194516482307
 21
727.92945940611639
  0
LINE
  8
_0-0_計極細
  6
CONTINUOUS
 62
    2
 10
324.09194516482307
 20
727.92945940611639
 11
323.46469406217039
 21
726.24147608014721
  0
LINE
  8
_0-0_計極細
  6
CONTINUOUS
 62
    2
 10
323.46469406217039
 20
726.24147608014721
 11
322.6965831303894
 21
724.15149085304097
  0
LINE
  8
_0-0_計極細
  6
CONTINUOUS
 62
    2
 10
322.6965831303894
 20
724.15149085304097
 11
321.81973575880829
 21
721.71681302226614
  0
LINE
  8
_0-0_計極細
  6
CONTINUOUS
 62
    2
 10
321.81973575880829
 20
721.71681302226614
 11
320.87452414132099
 21
719.0042960423466
  0
LINE
  8
_0-0_計極細
  6
CONTINUOUS
 62
    2
 10
320.87452414132099
 20
719.0042960423466
 11
319.90749884465527
 21
716.08848791444404
  0
LINE
  8
_0-0_計極細
  6
CONTINUOUS
 62
    2
 10
319.90749884465527
 20
716.08848791444404
 11
318.96770121897964
 21
713.04953279329322
  0
LINE
  8
_0-0_計極細
  6
CONTINUOUS
 62
    2
 10
318.96770121897964
 20
713.04953279329322
 11
318.10176157733451
 21
709.97088916794405
  0
LINE
  8
_0-0_計極細
  6
CONTINUOUS
 62
    2
 10
318.10176157733451
 20
709.97088916794405
 11
317.3485702047924
 21
706.93694440080253
  0
LINE
  8
_0-0_計極細
  6
CONTINUOUS
 62
    2
 10
317.3485702047924
 20
706.93694440080253
 11
316.73453573137249
 21
704.0306140313179
  0
LINE
  8
_0-0_計極細
  6
CONTINUOUS
 62
    2
 10
316.73453573137249
 20
704.0306140313179
 11
316.27044747432768
 21
701.33101515203759
  0
LINE
  8
_0-0_計極細
  6
CONTINUOUS
 62
    2
 10
316.27044747432768
 20
701.33101515203759
 11
315.95071881888362
 21
698.91129588747435
  0
LINE
  8
_0-0_計極細
  6
CONTINUOUS
 62
    2
 10
315.95071881888362
 20
698.91129588747435
 11
315.755349501453
 21
696.83668869939697
  0
LINE
  8
_0-0_計極細
  6
CONTINUOUS
 62
    2
 10
315.755349501453
 20
696.83668869939697
 11
315.65439747044763
 21
695.16283643612996
  0
LINE
  8
_0-0_計極細
  6
CONTINUOUS
 62
    2
 10
315.65439747044763
 20
695.16283643612996
 11
315.61421668201956
 21
693.93442009532407
  0
LINE
  8
_0-0_計極細
  6
CONTINUOUS
 62
    2
 10
315.61421668201956
 20
693.93442009532407
 11
315.60431781270586
 21
693.184099609893
  0
LINE
  8
_0-0_計極細
  6
CONTINUOUS
 62
    2
 10
315.60431781270586
 20
693.184099609893
 11
315.60353900388554
 21
692.93176632366726
  0
LINE
  8
_0-0_計極細
  6
CONTINUOUS
 62
    2
 10
315.60353900388554
 20
692.93176632366726
 11
315.60405622927033
 21
692.67946783579373
  0
LINE
  8
_0-0_計極細
  6
CONTINUOUS
 62
    2
 10
315.60405622927033
 20
692.67946783579373
 11
315.61317748359187
 21
691.92965803824768
  0
LINE
  8
_0-0_計極細
  6
CONTINUOUS
 62
    2
 10
315.61317748359187
 20
691.92965803824768
 11
315.65208583678071
 21
690.70336523076992
  0
LINE
  8
_0-0_計極細
  6
CONTINUOUS
 62
    2
 10
315.65208583678071
 20
690.70336523076992
 11
315.75130532101639
 21
689.03488754706348
  0
LINE
  8
_0-0_計極細
  6
CONTINUOUS
 62
    2
 10
315.75130532101639
 20
689.03488754706348
 11
315.9445292395061
 21
686.97071403762664
  0
LINE
  8
_0-0_計極細
  6
CONTINUOUS
 62
    2
 10
315.9445292395061
 20
686.97071403762664
 11
316.2617581647288
 21
684.56809700256736
  0
LINE
  8
_0-0_計極細
  6
CONTINUOUS
 62
    2
 10
316.2617581647288
 20
684.56809700256736
 11
316.7230605463958
 21
681.89334474347766
  0
LINE
  8
_0-0_計極細
  6
CONTINUOUS
 62
    2
 10
316.7230605463958
 20
681.89334474347766
 11
317.33409899069932
 21
679.01990742501209
  0
LINE
  8
_0-0_計極細
  6
CONTINUOUS
 62
    2
 10
317.33409899069932
 20
679.01990742501209
 11
318.08416590425082
 21
676.02632495042042
  0
LINE
  8
_0-0_計極細
  6
CONTINUOUS
 62
    2
 10
318.08416590425082
 20
676.02632495042042
 11
318.94693788412781
 21
672.99409701081697
  0
LINE
  8
_0-0_計極細
  6
CONTINUOUS
 62
    2
 10
318.94693788412781
 20
672.99409701081697
 11
319.88361105081299
 21
670.00552489023448
  0
LINE
  8
_0-0_計極細
  6
CONTINUOUS
 62
    2
 10
319.88361105081299
 20
670.00552489023448
 11
320.84764031836238
 21
667.14156533018684
  0
LINE
  8
_0-0_計極細
  6
CONTINUOUS
 62
    2
 10
320.84764031836238
 20
667.14156533018684
 11
321.79006606047176
 21
664.47973117173638
  0
LINE
  8
_0-0_計極細
  6
CONTINUOUS
 62
    2
 10
321.79006606047176
 20
664.47973117173638
 11
322.66441370183139
 21
662.09207270288869
  0
LINE
  8
_0-0_計極細
  6
CONTINUOUS
 62
    2
 10
322.66441370183139
 20
662.09207270288869
 11
323.43037923467165
 21
660.0432772324807
  0
LINE
  8
_0-0_計極細
  6
CONTINUOUS
 62
    2
 10
323.43037923467165
 20
660.0432772324807
 11
324.0558977905547
 21
658.38893061147633
  0
LINE
  8
_0-0_計極細
  6
CONTINUOUS
 62
    2
 10
324.0558977905547
 20
658.38893061147633
 11
324.51763000190317
 21
657.17399057046475
  0
LINE
  8
_0-0_計極細
  6
CONTINUOUS
 62
    2
 10
324.51763000190317
 20
657.17399057046475
 11
324.80028037507685
 21
656.43152499474525
  0
LINE
  8
_0-0_計極細
  6
CONTINUOUS
 62
    2
 10
324.80028037507685
 20
656.43152499474525
 11
324.89539085573733
 21
656.18176632366715
  0
LINE
  8
_0-1_計細線
  6
CONTINUOUS
 62
    3
 10
284.93374986367371
 20
705.18176632366715
 11
316.96808018878983
 21
705.18176632366715
  0
LINE
  8
_0-1_計細線
  6
CONTINUOUS
 62
    3
 10
1166.2458422492005
 20
732.18176632366726
 11
283.62165747814515
 21
732.18176632366726
  0
LINE
  8
_0-1_計細線
  6
CONTINUOUS
 62
    3
 10
1164.9337498636719
 20
577.18176632366726
 11
284.93374986367286
 21
577.18176632366726
  0
ARC
  8
_0-1_計細線
  6
CONTINUOUS
 62
    3
 10
1177.9962498636619
 20
584.68176632366897
 40
15.06249999999028
 50
150.13716564371197
 51
209.86283435630014
  0
ARC
  8
_0-1_計細線
  6
CONTINUOUS
 62
    3
 10
1151.8712498637055
 20
599.6817663236576
 40
15.062499999975882
 50
330.13716564369213
 51
29.862834356369991
  0
LINE
  8
_0-5_寸法線
  6
CONTINUOUS
 62
    7
 10
789.91333547298484
 20
597.83756053693753
 11
795.77687757592344
 21
589.73701277724467
  0
LINE
  8
_0-5_寸法線
  6
CONTINUOUS
 62
    7
 10
789.91333547298484
 20
597.83756053693753
 11
790.94103801044298
 21
587.89050934100499
  0
LINE
  8
_0-5_寸法線
  6
CONTINUOUS
 62
    7
 10
789.91333547298484
 20
597.83756053693753
 11
813.27081859303871
 21
536.66624679596282
  0
LINE
  8
_0-5_寸法線
  6
CONTINUOUS
 62
    7
 10
813.27081859303871
 20
536.66624679596282
 11
947.70983080815859
 21
536.66624679596282
  0
TEXT
  8
_0-5_寸法線
 62
    7
 10
815.70983080815859
 20
536.66624679596282
 40
15
 41
0.8000000000000001
 50
0
  1
ステンレスグレーチング
  0
LINE
  8
_0-5_寸法線
  6
CONTINUOUS
 62
    7
 10
582.489070061245
 20
578.39677801520031
 11
587.489070061245
 21
569.73652397735589
  0
LINE
  8
_0-5_寸法線
  6
CONTINUOUS
 62
    7
 10
582.489070061245
 20
578.39677801520031
 11
582.489070061245
 21
568.39677801520031
  0
LINE
  8
_0-5_寸法線
  6
CONTINUOUS
 62
    7
 10
582.489070061245
 20
578.39677801520031
 11
593.67073220116117
 21
536.66624679596282
  0
LINE
  8
_0-5_寸法線
  6
CONTINUOUS
 62
    7
 10
593.67073220116117
 20
536.66624679596282
 11
701.72160541259518
 21
536.66624679596282
  0
TEXT
  8
_0-5_寸法線
 62
    7
 10
593.72160541259518
 20
536.66624679596282
 40
15
 41
0.8000000000000001
 50
0
  1
ＳＵＳアングル受枠
  0
LINE
  8
_0-0_計極細
  6
CONTINUOUS
 62
    2
 10
1125.0104678795437
 20
656.28393442776371
 11
1124.9150958154478
 21
656.03417575668561
  0
LINE
  8
_0-0_計極細
  6
CONTINUOUS
 62
    2
 10
1124.9150958154478
 20
656.03417575668561
 11
1124.6316678272817
 21
655.29171018096622
  0
LINE
  8
_0-0_計極細
  6
CONTINUOUS
 62
    2
 10
1124.6316678272817
 20
655.29171018096622
 11
1124.168663180694
 21
654.07677013995453
  0
LINE
  8
_0-0_計極細
  6
CONTINUOUS
 62
    2
 10
1124.168663180694
 20
654.07677013995453
 11
1123.5414120780413
 21
652.42242351895015
  0
LINE
  8
_0-0_計極細
  6
CONTINUOUS
 62
    2
 10
1123.5414120780413
 20
652.42242351895015
 11
1122.7733011462601
 21
650.37362804854229
  0
LINE
  8
_0-0_計極細
  6
CONTINUOUS
 62
    2
 10
1122.7733011462601
 20
650.37362804854229
 11
1121.8964537746792
 21
647.98596957969448
  0
LINE
  8
_0-0_計極細
  6
CONTINUOUS
 62
    2
 10
1121.8964537746792
 20
647.98596957969448
 11
1120.9512421571917
 21
645.32413542124402
  0
LINE
  8
_0-0_計極細
  6
CONTINUOUS
 62
    2
 10
1120.9512421571917
 20
645.32413542124402
 11
1119.984216860526
 21
642.46017586119649
  0
LINE
  8
_0-0_計極細
  6
CONTINUOUS
 62
    2
 10
1119.984216860526
 20
642.46017586119649
 11
1119.0444192348502
 21
639.471603740614
  0
LINE
  8
_0-0_計極細
  6
CONTINUOUS
 62
    2
 10
1119.0444192348502
 20
639.471603740614
 11
1118.1784795932051
 21
636.43937580101044
  0
LINE
  8
_0-0_計極細
  6
CONTINUOUS
 62
    2
 10
1118.1784795932051
 20
636.43937580101044
 11
1117.4252882206629
 21
633.44579332641877
  0
LINE
  8
_0-0_計極細
  6
CONTINUOUS
 62
    2
 10
1117.4252882206629
 20
633.44579332641877
 11
1116.8112537472434
 21
630.57235600795343
  0
LINE
  8
_0-0_計極細
  6
CONTINUOUS
 62
    2
 10
1116.8112537472434
 20
630.57235600795343
 11
1116.3471654901982
 21
627.8976037488635
  0
LINE
  8
_0-0_計極細
  6
CONTINUOUS
 62
    2
 10
1116.3471654901982
 20
627.8976037488635
 11
1116.0274368347541
 21
625.49498671380422
  0
LINE
  8
_0-0_計極細
  6
CONTINUOUS
 62
    2
 10
1116.0274368347541
 20
625.49498671380422
 11
1115.8320675173236
 21
623.4308132043675
  0
LINE
  8
_0-0_計極細
  6
CONTINUOUS
 62
    2
 10
1115.8320675173236
 20
623.4308132043675
 11
1115.731115486318
 21
621.76233552066094
  0
LINE
  8
_0-0_計極細
  6
CONTINUOUS
 62
    2
 10
1115.731115486318
 20
621.76233552066094
 11
1115.69093469789
 21
620.53604271318341
  0
LINE
  8
_0-0_計極細
  6
CONTINUOUS
 62
    2
 10
1115.69093469789
 20
620.53604271318341
 11
1115.6810358285766
 21
619.78623291563713
  0
LINE
  8
_0-0_計極細
  6
CONTINUOUS
 62
    2
 10
1115.6810358285766
 20
619.78623291563713
 11
1115.680257019756
 21
619.53393442776371
  0
LINE
  8
_0-0_計極細
  6
CONTINUOUS
 62
    2
 10
1115.680257019756
 20
619.53393442776371
 11
1115.6807742451408
 21
619.28160114153775
  0
LINE
  8
_0-0_計極細
  6
CONTINUOUS
 62
    2
 10
1115.6807742451408
 20
619.28160114153775
 11
1115.6898954994626
 21
618.53128065610679
  0
LINE
  8
_0-0_計極細
  6
CONTINUOUS
 62
    2
 10
1115.6898954994626
 20
618.53128065610679
 11
1115.7288038526513
 21
617.30286431530101
  0
LINE
  8
_0-0_計極細
  6
CONTINUOUS
 62
    2
 10
1115.7288038526513
 20
617.30286431530101
 11
1115.8280233368869
 21
615.62901205203411
  0
LINE
  8
_0-0_計極細
  6
CONTINUOUS
 62
    2
 10
1115.8280233368869
 20
615.62901205203411
 11
1116.0212472553767
 21
613.55440486395662
  0
LINE
  8
_0-0_計極細
  6
CONTINUOUS
 62
    2
 10
1116.0212472553767
 20
613.55440486395662
 11
1116.3384761805992
 21
611.13468559939338
  0
LINE
  8
_0-0_計極細
  6
CONTINUOUS
 62
    2
 10
1116.3384761805992
 20
611.13468559939338
 11
1116.7997785622663
 21
608.4350867201133
  0
LINE
  8
_0-0_計極細
  6
CONTINUOUS
 62
    2
 10
1116.7997785622663
 20
608.4350867201133
 11
1117.4108170065699
 21
605.52875635062821
  0
LINE
  8
_0-0_計極細
  6
CONTINUOUS
 62
    2
 10
1117.4108170065699
 20
605.52875635062821
 11
1118.1608839201215
 21
602.49481158348669
  0
LINE
  8
_0-0_計極細
  6
CONTINUOUS
 62
    2
 10
1118.1608839201215
 20
602.49481158348669
 11
1119.0236558999984
 21
599.41616795813763
  0
LINE
  8
_0-0_計極細
  6
CONTINUOUS
 62
    2
 10
1119.0236558999984
 20
599.41616795813763
 11
1119.9603290666837
 21
596.37721283698693
  0
LINE
  8
_0-0_計極細
  6
CONTINUOUS
 62
    2
 10
1119.9603290666837
 20
596.37721283698693
 11
1120.9243583342331
 21
593.46140470908426
  0
LINE
  8
_0-0_計極細
  6
CONTINUOUS
 62
    2
 10
1120.9243583342331
 20
593.46140470908426
 11
1121.8667840763426
 21
590.74888772916472
  0
LINE
  8
_0-0_計極細
  6
CONTINUOUS
 62
    2
 10
1121.8667840763426
 20
590.74888772916472
 11
1122.741131717702
 21
588.31420989838978
  0
LINE
  8
_0-0_計極細
  6
CONTINUOUS
 62
    2
 10
1122.741131717702
 20
588.31420989838978
 11
1123.5070972505425
 21
586.22422467128365
  0
LINE
  8
_0-0_計極細
  6
CONTINUOUS
 62
    2
 10
1123.5070972505425
 20
586.22422467128365
 11
1124.1326158064255
 21
584.53624134531447
  0
LINE
  8
_0-0_計極細
  6
CONTINUOUS
 62
    2
 10
1124.1326158064255
 20
584.53624134531447
 11
1124.5943480177741
 21
583.29647223804261
  0
LINE
  8
_0-0_計極細
  6
CONTINUOUS
 62
    2
 10
1124.5943480177741
 20
583.29647223804261
 11
1124.8769983909478
 21
582.53880753078477
  0
LINE
  8
_0-0_計極細
  6
CONTINUOUS
 62
    2
 10
1124.8769983909478
 20
582.53880753078477
 11
1124.9721088716083
 21
582.28393442776371
  0
LINE
  8
_0-1_計細線
  6
CONTINUOUS
 62
    3
 10
978.4337498636728
 20
639.68176632366726
 11
978.4337498636728
 21
634.18176632366715
  0
LINE
  8
_0-1_計細線
  6
CONTINUOUS
 62
    3
 10
978.4337498636728
 20
627.18176632366726
 11
978.4337498636728
 21
621.18176632366715
  0
LINE
  8
_0-1_計細線
  6
CONTINUOUS
 62
    3
 10
978.4337498636728
 20
614.18176632366715
 11
978.4337498636728
 21
608.18176632366715
  0
LINE
  8
_0-1_計細線
  6
CONTINUOUS
 62
    3
 10
978.4337498636728
 20
601.18176632366715
 11
978.4337498636728
 21
595.18176632366715
  0
LINE
  8
_0-1_計細線
  6
CONTINUOUS
 62
    3
 10
978.4337498636728
 20
588.18176632366715
 11
978.4337498636728
 21
582.18176632366726
  0
LINE
  8
_0-1_計細線
  6
CONTINUOUS
 62
    3
 10
1164.9337498636719
 20
607.18176632366726
 11
1117.0536409878873
 21
607.18176632366726
  0
ARC
  8
_0-1_計細線
  6
CONTINUOUS
 62
    3
 10
271.87124986368372
 20
584.68176632366897
 40
15.06249999999028
 50
330.13716564369918
 51
29.862834356287706
  0
ARC
  8
_0-1_計細線
  6
CONTINUOUS
 62
    3
 10
297.99624986364006
 20
599.6817663236576
 40
15.062499999975882
 50
150.13716564362966
 51
209.8628343563071
  0
LINE
  8
_0-0_計極細
  6
CONTINUOUS
 62
    2
 10
324.85703184780186
 20
656.28393442776371
 11
324.95240391189787
 21
656.03417575668561
  0
LINE
  8
_0-0_計極細
  6
CONTINUOUS
 62
    2
 10
324.95240391189787
 20
656.03417575668561
 11
325.23583190006383
 21
655.29171018096622
  0
LINE
  8
_0-0_計極細
  6
CONTINUOUS
 62
    2
 10
325.23583190006383
 20
655.29171018096622
 11
325.69883654665159
 21
654.07677013995453
  0
LINE
  8
_0-0_計極細
  6
CONTINUOUS
 62
    2
 10
325.69883654665159
 20
654.07677013995453
 11
326.32608764930438
 21
652.42242351895015
  0
LINE
  8
_0-0_計極細
  6
CONTINUOUS
 62
    2
 10
326.32608764930438
 20
652.42242351895015
 11
327.09419858108549
 21
650.37362804854229
  0
LINE
  8
_0-0_計極細
  6
CONTINUOUS
 62
    2
 10
327.09419858108549
 20
650.37362804854229
 11
327.97104595266654
 21
647.98596957969448
  0
LINE
  8
_0-0_計極細
  6
CONTINUOUS
 62
    2
 10
327.97104595266654
 20
647.98596957969448
 11
328.9162575701539
 21
645.32413542124402
  0
LINE
  8
_0-0_計極細
  6
CONTINUOUS
 62
    2
 10
328.9162575701539
 20
645.32413542124402
 11
329.88328286681957
 21
642.46017586119649
  0
LINE
  8
_0-0_計極細
  6
CONTINUOUS
 62
    2
 10
329.88328286681957
 20
642.46017586119649
 11
330.82308049249536
 21
639.471603740614
  0
LINE
  8
_0-0_計極細
  6
CONTINUOUS
 62
    2
 10
330.82308049249536
 20
639.471603740614
 11
331.68902013414055
 21
636.43937580101044
  0
LINE
  8
_0-0_計極細
  6
CONTINUOUS
 62
    2
 10
331.68902013414055
 20
636.43937580101044
 11
332.44221150668267
 21
633.44579332641877
  0
LINE
  8
_0-0_計極細
  6
CONTINUOUS
 62
    2
 10
332.44221150668267
 20
633.44579332641877
 11
333.05624598010246
 21
630.57235600795343
  0
LINE
  8
_0-0_計極細
  6
CONTINUOUS
 62
    2
 10
333.05624598010246
 20
630.57235600795343
 11
333.52033423714738
 21
627.8976037488635
  0
LINE
  8
_0-0_計極細
  6
CONTINUOUS
 62
    2
 10
333.52033423714738
 20
627.8976037488635
 11
333.84006289259156
 21
625.49498671380422
  0
LINE
  8
_0-0_計極細
  6
CONTINUOUS
 62
    2
 10
333.84006289259156
 20
625.49498671380422
 11
334.03543221002212
 21
623.4308132043675
  0
LINE
  8
_0-0_計極細
  6
CONTINUOUS
 62
    2
 10
334.03543221002212
 20
623.4308132043675
 11
334.13638424102749
 21
621.76233552066094
  0
LINE
  8
_0-0_計極細
  6
CONTINUOUS
 62
    2
 10
334.13638424102749
 20
621.76233552066094
 11
334.17656502945556
 21
620.53604271318341
  0
LINE
  8
_0-0_計極細
  6
CONTINUOUS
 62
    2
 10
334.17656502945556
 20
620.53604271318341
 11
334.18646389876926
 21
619.78623291563713
  0
LINE
  8
_0-0_計極細
  6
CONTINUOUS
 62
    2
 10
334.18646389876926
 20
619.78623291563713
 11
334.18724270758958
 21
619.53393442776371
  0
LINE
  8
_0-0_計極細
  6
CONTINUOUS
 62
    2
 10
334.18724270758958
 20
619.53393442776371
 11
334.18672548220479
 21
619.28160114153775
  0
LINE
  8
_0-0_計極細
  6
CONTINUOUS
 62
    2
 10
334.18672548220479
 20
619.28160114153775
 11
334.17760422788331
 21
618.53128065610679
  0
LINE
  8
_0-0_計極細
  6
CONTINUOUS
 62
    2
 10
334.17760422788331
 20
618.53128065610679
 11
334.13869587469441
 21
617.30286431530101
  0
LINE
  8
_0-0_計極細
  6
CONTINUOUS
 62
    2
 10
334.13869587469441
 20
617.30286431530101
 11
334.03947639045873
 21
615.62901205203411
  0
LINE
  8
_0-0_計極細
  6
CONTINUOUS
 62
    2
 10
334.03947639045873
 20
615.62901205203411
 11
333.84625247196902
 21
613.55440486395662
  0
LINE
  8
_0-0_計極細
  6
CONTINUOUS
 62
    2
 10
333.84625247196902
 20
613.55440486395662
 11
333.52902354674632
 21
611.13468559939338
  0
LINE
  8
_0-0_計極細
  6
CONTINUOUS
 62
    2
 10
333.52902354674632
 20
611.13468559939338
 11
333.06772116507932
 21
608.4350867201133
  0
LINE
  8
_0-0_計極細
  6
CONTINUOUS
 62
    2
 10
333.06772116507932
 20
608.4350867201133
 11
332.45668272077575
 21
605.52875635062821
  0
LINE
  8
_0-0_計極細
  6
CONTINUOUS
 62
    2
 10
332.45668272077575
 20
605.52875635062821
 11
331.70661580722418
 21
602.49481158348669
  0
LINE
  8
_0-0_計極細
  6
CONTINUOUS
 62
    2
 10
331.70661580722418
 20
602.49481158348669
 11
330.8438438273472
 21
599.41616795813763
  0
LINE
  8
_0-0_計極細
  6
CONTINUOUS
 62
    2
 10
330.8438438273472
 20
599.41616795813763
 11
329.90717066066196
 21
596.37721283698693
  0
LINE
  8
_0-0_計極細
  6
CONTINUOUS
 62
    2
 10
329.90717066066196
 20
596.37721283698693
 11
328.94314139311257
 21
593.46140470908426
  0
LINE
  8
_0-0_計極細
  6
CONTINUOUS
 62
    2
 10
328.94314139311257
 20
593.46140470908426
 11
328.00071565100313
 21
590.74888772916472
  0
LINE
  8
_0-0_計極細
  6
CONTINUOUS
 62
    2
 10
328.00071565100313
 20
590.74888772916472
 11
327.12636800964344
 21
588.31420989838978
  0
LINE
  8
_0-0_計極細
  6
CONTINUOUS
 62
    2
 10
327.12636800964344
 20
588.31420989838978
 11
326.36040247680313
 21
586.22422467128365
  0
LINE
  8
_0-0_計極細
  6
CONTINUOUS
 62
    2
 10
326.36040247680313
 20
586.22422467128365
 11
325.7348839209202
 21
584.53624134531447
  0
LINE
  8
_0-0_計極細
  6
CONTINUOUS
 62
    2
 10
325.7348839209202
 20
584.53624134531447
 11
325.27315170957161
 21
583.29647223804261
  0
LINE
  8
_0-0_計極細
  6
CONTINUOUS
 62
    2
 10
325.27315170957161
 20
583.29647223804261
 11
324.99050133639787
 21
582.53880753078477
  0
LINE
  8
_0-0_計極細
  6
CONTINUOUS
 62
    2
 10
324.99050133639787
 20
582.53880753078477
 11
324.89539085573733
 21
582.28393442776371
  0
LINE
  8
_0-1_計細線
  6
CONTINUOUS
 62
    3
 10
284.93374986367371
 20
607.18176632366726
 11
332.81385873945828
 21
607.18176632366726
  0
LINE
  8
_0-1_計細線
  6
CONTINUOUS
 62
    3
 10
286.24584224919818
 20
580.18176632366715
 11
1163.6216574781474
 21
580.18176632366715
  0
LINE
  8
_0-1_計細線
  6
CONTINUOUS
 62
    3
 10
471.43374986367286
 20
730.18176632366715
 11
474.4337498636728
 21
730.18176632366715
  0
LINE
  8
_0-1_計細線
  6
CONTINUOUS
 62
    3
 10
474.4337498636728
 20
730.18176632366715
 11
474.4337498636728
 21
582.18176632366726
  0
LINE
  8
_0-1_計細線
  6
CONTINUOUS
 62
    3
 10
474.4337498636728
 20
582.18176632366726
 11
471.43374986367286
 21
582.18176632366726
  0
LINE
  8
_0-1_計細線
  6
CONTINUOUS
 62
    3
 10
471.43374986367286
 20
582.18176632366726
 11
471.43374986367286
 21
730.18176632366715
  0
LINE
  8
_0-1_計細線
  6
CONTINUOUS
 62
    3
 10
978.4337498636728
 20
730.18176632366715
 11
975.4337498636728
 21
730.18176632366715
  0
LINE
  8
_0-1_計細線
  6
CONTINUOUS
 62
    3
 10
975.4337498636728
 20
730.18176632366715
 11
975.4337498636728
 21
582.18176632366726
  0
LINE
  8
_0-1_計細線
  6
CONTINUOUS
 62
    3
 10
975.4337498636728
 20
582.18176632366726
 11
978.4337498636728
 21
582.18176632366726
  0
LINE
  8
_0-1_計細線
  6
CONTINUOUS
 62
    3
 10
978.4337498636728
 20
582.18176632366726
 11
978.4337498636728
 21
730.18176632366715
  0
LINE
  8
_0-1_計細線
  6
CONTINUOUS
 62
    3
 10
974.43374986367292
 20
730.18176632366715
 11
971.43374986367292
 21
730.18176632366715
  0
LINE
  8
_0-1_計細線
  6
CONTINUOUS
 62
    3
 10
971.43374986367292
 20
730.18176632366715
 11
971.43374986367292
 21
582.18176632366726
  0
LINE
  8
_0-1_計細線
  6
CONTINUOUS
 62
    3
 10
971.43374986367292
 20
582.18176632366726
 11
974.43374986367292
 21
582.18176632366726
  0
LINE
  8
_0-1_計細線
  6
CONTINUOUS
 62
    3
 10
974.43374986367292
 20
582.18176632366726
 11
974.43374986367292
 21
730.18176632366715
  0
LINE
  8
_0-1_計細線
  6
CONTINUOUS
 62
    3
 10
478.4337498636728
 20
730.18176632366715
 11
475.4337498636728
 21
730.18176632366715
  0
LINE
  8
_0-1_計細線
  6
CONTINUOUS
 62
    3
 10
475.4337498636728
 20
730.18176632366715
 11
475.4337498636728
 21
582.18176632366726
  0
LINE
  8
_0-1_計細線
  6
CONTINUOUS
 62
    3
 10
475.4337498636728
 20
582.18176632366726
 11
478.4337498636728
 21
582.18176632366726
  0
LINE
  8
_0-1_計細線
  6
CONTINUOUS
 62
    3
 10
478.4337498636728
 20
582.18176632366726
 11
478.4337498636728
 21
730.18176632366715
  0
LINE
  8
_0-0_計極細
  6
CENTER2
 62
    2
 10
1074.9337498636728
 20
724.18176632366726
 11
1074.9337498636728
 21
588.18176632366715
  0
LINE
  8
_0-0_計極細
  6
CENTER2
 62
    2
 10
874.9337498636728
 20
724.18176632366726
 11
874.9337498636728
 21
588.18176632366715
  0
LINE
  8
_0-0_計極細
  6
CENTER2
 62
    2
 10
774.9337498636728
 20
724.18176632366726
 11
774.9337498636728
 21
588.18176632366715
  0
LINE
  8
_0-0_計極細
  6
CENTER2
 62
    2
 10
674.9337498636728
 20
724.18176632366726
 11
674.9337498636728
 21
588.18176632366715
  0
LINE
  8
_0-0_計極細
  6
CENTER2
 62
    2
 10
574.9337498636728
 20
724.18176632366726
 11
574.9337498636728
 21
588.18176632366715
  0
LINE
  8
_0-5_寸法線
  6
CONTINUOUS
 62
    7
 10
272.93374986367098
 20
577.18176632366578
 11
227.93374986367076
 21
577.18176632366578
  0
LINE
  8
_0-5_寸法線
  6
CONTINUOUS
 62
    7
 10
232.93374986367076
 20
577.18176632366578
 11
230.34555941264557
 21
586.8410245865565
  0
LINE
  8
_0-5_寸法線
  6
CONTINUOUS
 62
    7
 10
232.93374986367076
 20
577.18176632366578
 11
235.52194031469597
 21
586.8410245865565
  0
LINE
  8
_0-5_寸法線
  6
CONTINUOUS
 62
    7
 10
272.93374986367098
 20
607.18176632366726
 11
227.93374986367076
 21
607.18176632366738
  0
LINE
  8
_0-5_寸法線
  6
CONTINUOUS
 62
    7
 10
232.93374986367076
 20
607.18176632366738
 11
235.52194031469597
 21
597.52250806077666
  0
LINE
  8
_0-5_寸法線
  6
CONTINUOUS
 62
    7
 10
232.93374986367076
 20
607.18176632366738
 11
230.34555941264557
 21
597.52250806077666
  0
LINE
  8
_0-5_寸法線
  6
CONTINUOUS
 62
    7
 10
232.93374986367076
 20
577.18176632366578
 11
232.93374986367076
 21
607.18176632366738
  0
TEXT
  8
_0-5_寸法線
 62
    7
 10
232.93374986367076
 20
584.68176632366669
 40
15
 41
1
 50
90
  1
30
  0
LINE
  8
_0-5_寸法線
  6
CONTINUOUS
 62
    7
 10
232.93374986367076
 20
607.18176632366738
 11
230.34555941264557
 21
616.84102458655821
  0
LINE
  8
_0-5_寸法線
  6
CONTINUOUS
 62
    7
 10
232.93374986367076
 20
607.18176632366738
 11
235.52194031469597
 21
616.84102458655821
  0
LINE
  8
_0-5_寸法線
  6
CONTINUOUS
 62
    7
 10
272.93374986367098
 20
705.18176632366715
 11
227.93374986367076
 21
705.18176632366715
  0
LINE
  8
_0-5_寸法線
  6
CONTINUOUS
 62
    7
 10
232.93374986367076
 20
705.18176632366715
 11
235.52194031469597
 21
695.52250806077654
  0
LINE
  8
_0-5_寸法線
  6
CONTINUOUS
 62
    7
 10
232.93374986367076
 20
705.18176632366715
 11
230.34555941264557
 21
695.52250806077654
  0
LINE
  8
_0-5_寸法線
  6
CONTINUOUS
 62
    7
 10
232.93374986367076
 20
607.18176632366738
 11
232.93374986367076
 21
705.18176632366715
  0
TEXT
  8
_0-5_寸法線
 62
    7
 10
232.93374986367076
 20
648.68176632366738
 40
15
 41
1
 50
90
  1
98
  0
LINE
  8
_0-5_寸法線
  6
CONTINUOUS
 62
    7
 10
232.93374986367076
 20
705.18176632366715
 11
230.34555941264557
 21
714.84102458655786
  0
LINE
  8
_0-5_寸法線
  6
CONTINUOUS
 62
    7
 10
232.93374986367076
 20
705.18176632366715
 11
235.52194031469597
 21
714.84102458655786
  0
LINE
  8
_0-5_寸法線
  6
CONTINUOUS
 62
    7
 10
272.93374986367098
 20
735.18176632366578
 11
227.93374986367076
 21
735.18176632366578
  0
LINE
  8
_0-5_寸法線
  6
CONTINUOUS
 62
    7
 10
232.93374986367076
 20
735.18176632366578
 11
235.52194031469597
 21
725.52250806077507
  0
LINE
  8
_0-5_寸法線
  6
CONTINUOUS
 62
    7
 10
232.93374986367076
 20
735.18176632366578
 11
230.34555941264557
 21
725.52250806077507
  0
LINE
  8
_0-5_寸法線
  6
CONTINUOUS
 62
    7
 10
232.93374986367076
 20
705.18176632366715
 11
232.93374986367076
 21
735.18176632366578
  0
TEXT
  8
_0-5_寸法線
 62
    7
 10
232.93374986367076
 20
712.68176632366681
 40
15
 41
1
 50
90
  1
30
  0
LINE
  8
_0-5_寸法線
  6
CONTINUOUS
 62
    7
 10
1176.9337498636755
 20
577.18176632366578
 11
1256.9337498636755
 21
577.18176632366556
  0
LINE
  8
_0-5_寸法線
  6
CONTINUOUS
 62
    7
 10
1251.9337498636755
 20
577.18176632366556
 11
1249.3455594126503
 21
586.84102458655627
  0
LINE
  8
_0-5_寸法線
  6
CONTINUOUS
 62
    7
 10
1251.9337498636755
 20
577.18176632366556
 11
1254.5219403147007
 21
586.84102458655627
  0
LINE
  8
_0-5_寸法線
  6
CONTINUOUS
 62
    7
 10
1176.9337498636755
 20
735.18176632366578
 11
1256.9337498636755
 21
735.18176632366567
  0
LINE
  8
_0-5_寸法線
  6
CONTINUOUS
 62
    7
 10
1251.9337498636755
 20
735.18176632366567
 11
1254.5219403147007
 21
725.52250806077484
  0
LINE
  8
_0-5_寸法線
  6
CONTINUOUS
 62
    7
 10
1251.9337498636755
 20
735.18176632366567
 11
1249.3455594126503
 21
725.52250806077484
  0
LINE
  8
_0-5_寸法線
  6
CONTINUOUS
 62
    7
 10
1251.9337498636755
 20
577.18176632366556
 11
1251.9337498636755
 21
735.18176632366567
  0
TEXT
  8
_0-5_寸法線
 62
    7
 10
1251.9337498636755
 20
644.93176632366544
 40
15
 41
1
 50
90
  1
158
  0
LINE
  8
_0-0_計極細
  6
CENTER2
 62
    2
 10
374.9337498636728
 20
724.18176632366726
 11
374.9337498636728
 21
588.18176632366715
  0
LINE
  8
_0-1_計細線
  6
CONTINUOUS
 62
    3
 10
478.4337498636728
 20
730.18176632366715
 11
478.4337498636728
 21
722.18176632366738
  0
LINE
  8
_0-1_計細線
  6
CONTINUOUS
 62
    3
 10
478.4337498636728
 20
722.18176632366738
 11
971.43374986367292
 21
722.18176632366738
  0
LINE
  8
_0-1_計細線
  6
CONTINUOUS
 62
    3
 10
971.43374986367292
 20
722.18176632366738
 11
971.43374986367292
 21
730.18176632366715
  0
LINE
  8
_0-1_計細線
  6
CONTINUOUS
 62
    3
 10
971.43374986367292
 20
730.18176632366715
 11
478.4337498636728
 21
730.18176632366715
  0
LINE
  8
_0-1_計細線
  6
CONTINUOUS
 62
    3
 10
478.4337498636728
 20
716.18176632366715
 11
478.4337498636728
 21
708.18176632366749
  0
LINE
  8
_0-1_計細線
  6
CONTINUOUS
 62
    3
 10
478.4337498636728
 20
708.18176632366749
 11
971.43374986367292
 21
708.18176632366749
  0
LINE
  8
_0-1_計細線
  6
CONTINUOUS
 62
    3
 10
971.43374986367292
 20
708.18176632366749
 11
971.43374986367292
 21
716.18176632366715
  0
LINE
  8
_0-1_計細線
  6
CONTINUOUS
 62
    3
 10
971.43374986367292
 20
716.18176632366715
 11
478.4337498636728
 21
716.18176632366715
  0
LINE
  8
_0-1_計細線
  6
CONTINUOUS
 62
    3
 10
478.4337498636728
 20
702.18176632366738
 11
478.4337498636728
 21
694.18176632366783
  0
LINE
  8
_0-1_計細線
  6
CONTINUOUS
 62
    3
 10
478.4337498636728
 20
694.18176632366783
 11
971.43374986367292
 21
694.18176632366783
  0
LINE
  8
_0-1_計細線
  6
CONTINUOUS
 62
    3
 10
971.43374986367292
 20
694.18176632366783
 11
971.43374986367292
 21
702.18176632366738
  0
LINE
  8
_0-1_計細線
  6
CONTINUOUS
 62
    3
 10
971.43374986367292
 20
702.18176632366738
 11
478.4337498636728
 21
702.18176632366738
  0
LINE
  8
_0-1_計細線
  6
CONTINUOUS
 62
    3
 10
478.4337498636728
 20
688.18176632366749
 11
478.4337498636728
 21
680.1817663236676
  0
LINE
  8
_0-1_計細線
  6
CONTINUOUS
 62
    3
 10
478.4337498636728
 20
680.1817663236676
 11
971.43374986367292
 21
680.1817663236676
  0
LINE
  8
_0-1_計細線
  6
CONTINUOUS
 62
    3
 10
971.43374986367292
 20
680.1817663236676
 11
971.43374986367292
 21
688.18176632366749
  0
LINE
  8
_0-1_計細線
  6
CONTINUOUS
 62
    3
 10
971.43374986367292
 20
688.18176632366749
 11
478.4337498636728
 21
688.18176632366749
  0
LINE
  8
_0-1_計細線
  6
CONTINUOUS
 62
    3
 10
478.4337498636728
 20
674.18176632366738
 11
478.4337498636728
 21
666.18176632366772
  0
LINE
  8
_0-1_計細線
  6
CONTINUOUS
 62
    3
 10
478.4337498636728
 20
666.18176632366772
 11
971.43374986367292
 21
666.18176632366772
  0
LINE
  8
_0-1_計細線
  6
CONTINUOUS
 62
    3
 10
971.43374986367292
 20
666.18176632366772
 11
971.43374986367292
 21
674.18176632366738
  0
LINE
  8
_0-1_計細線
  6
CONTINUOUS
 62
    3
 10
971.43374986367292
 20
674.18176632366738
 11
478.4337498636728
 21
674.18176632366738
  0
LINE
  8
_0-1_計細線
  6
CONTINUOUS
 62
    3
 10
478.4337498636728
 20
660.18176632366715
 11
478.4337498636728
 21
652.18176632366738
  0
LINE
  8
_0-1_計細線
  6
CONTINUOUS
 62
    3
 10
478.4337498636728
 20
652.18176632366738
 11
971.43374986367292
 21
652.18176632366738
  0
LINE
  8
_0-1_計細線
  6
CONTINUOUS
 62
    3
 10
971.43374986367292
 20
652.18176632366738
 11
971.43374986367292
 21
660.18176632366715
  0
LINE
  8
_0-1_計細線
  6
CONTINUOUS
 62
    3
 10
971.43374986367292
 20
660.18176632366715
 11
478.4337498636728
 21
660.18176632366715
  0
LINE
  8
_0-1_計細線
  6
CONTINUOUS
 62
    3
 10
478.4337498636728
 20
646.18176632366715
 11
478.4337498636728
 21
638.18176632366749
  0
LINE
  8
_0-1_計細線
  6
CONTINUOUS
 62
    3
 10
478.4337498636728
 20
638.18176632366749
 11
971.43374986367292
 21
638.18176632366749
  0
LINE
  8
_0-1_計細線
  6
CONTINUOUS
 62
    3
 10
971.43374986367292
 20
638.18176632366749
 11
971.43374986367292
 21
646.18176632366715
  0
LINE
  8
_0-1_計細線
  6
CONTINUOUS
 62
    3
 10
971.43374986367292
 20
646.18176632366715
 11
478.4337498636728
 21
646.18176632366715
  0
LINE
  8
_0-0_計極細
  6
CONTINUOUS
 62
    2
 10
577.4337498636728
 20
722.18176632366738
 11
577.4337498636728
 21
716.18176632366715
  0
LINE
  8
_0-0_計極細
  6
CONTINUOUS
 62
    2
 10
572.4337498636728
 20
716.18176632366703
 11
572.4337498636728
 21
722.18176632366738
  0
LINE
  8
_0-0_計極細
  6
CONTINUOUS
 62
    2
 10
577.4337498636728
 20
708.18176632366749
 11
577.4337498636728
 21
702.18176632366692
  0
LINE
  8
_0-0_計極細
  6
CONTINUOUS
 62
    2
 10
572.4337498636728
 20
702.18176632366692
 11
572.4337498636728
 21
708.18176632366749
  0
LINE
  8
_0-0_計極細
  6
CONTINUOUS
 62
    2
 10
577.4337498636728
 20
694.18176632366738
 11
577.4337498636728
 21
688.18176632366703
  0
LINE
  8
_0-0_計極細
  6
CONTINUOUS
 62
    2
 10
572.4337498636728
 20
688.18176632366703
 11
572.4337498636728
 21
694.18176632366738
  0
LINE
  8
_0-0_計極細
  6
CONTINUOUS
 62
    2
 10
577.4337498636728
 20
680.18176632366692
 11
577.4337498636728
 21
674.18176632366669
  0
LINE
  8
_0-0_計極細
  6
CONTINUOUS
 62
    2
 10
572.4337498636728
 20
674.18176632366658
 11
572.4337498636728
 21
680.18176632366692
  0
LINE
  8
_0-0_計極細
  6
CONTINUOUS
 62
    2
 10
577.4337498636728
 20
666.18176632366703
 11
577.4337498636728
 21
660.18176632366681
  0
LINE
  8
_0-0_計極細
  6
CONTINUOUS
 62
    2
 10
572.4337498636728
 20
660.18176632366647
 11
572.4337498636728
 21
666.18176632366703
  0
LINE
  8
_0-0_計極細
  6
CONTINUOUS
 62
    2
 10
577.4337498636728
 20
652.18176632366692
 11
577.4337498636728
 21
646.18176632366669
  0
LINE
  8
_0-0_計極細
  6
CONTINUOUS
 62
    2
 10
572.4337498636728
 20
646.18176632366658
 11
572.4337498636728
 21
652.18176632366692
  0
LINE
  8
_0-0_計極細
  6
CONTINUOUS
 62
    2
 10
677.4337498636728
 20
722.18176632366738
 11
677.4337498636728
 21
716.18176632366715
  0
LINE
  8
_0-0_計極細
  6
CONTINUOUS
 62
    2
 10
672.4337498636728
 20
716.18176632366703
 11
672.4337498636728
 21
722.18176632366738
  0
LINE
  8
_0-0_計極細
  6
CONTINUOUS
 62
    2
 10
677.4337498636728
 20
708.18176632366749
 11
677.4337498636728
 21
702.18176632366692
  0
LINE
  8
_0-0_計極細
  6
CONTINUOUS
 62
    2
 10
672.4337498636728
 20
702.18176632366692
 11
672.4337498636728
 21
708.18176632366749
  0
LINE
  8
_0-0_計極細
  6
CONTINUOUS
 62
    2
 10
677.4337498636728
 20
694.18176632366738
 11
677.4337498636728
 21
688.18176632366703
  0
LINE
  8
_0-0_計極細
  6
CONTINUOUS
 62
    2
 10
672.4337498636728
 20
688.18176632366703
 11
672.4337498636728
 21
694.18176632366738
  0
LINE
  8
_0-0_計極細
  6
CONTINUOUS
 62
    2
 10
677.4337498636728
 20
680.18176632366692
 11
677.4337498636728
 21
674.18176632366669
  0
LINE
  8
_0-0_計極細
  6
CONTINUOUS
 62
    2
 10
672.4337498636728
 20
674.18176632366658
 11
672.4337498636728
 21
680.18176632366692
  0
LINE
  8
_0-0_計極細
  6
CONTINUOUS
 62
    2
 10
677.4337498636728
 20
666.18176632366703
 11
677.4337498636728
 21
660.18176632366681
  0
LINE
  8
_0-0_計極細
  6
CONTINUOUS
 62
    2
 10
672.4337498636728
 20
660.18176632366647
 11
672.4337498636728
 21
666.18176632366703
  0
LINE
  8
_0-0_計極細
  6
CONTINUOUS
 62
    2
 10
677.4337498636728
 20
652.18176632366692
 11
677.4337498636728
 21
646.18176632366669
  0
LINE
  8
_0-0_計極細
  6
CONTINUOUS
 62
    2
 10
672.4337498636728
 20
646.18176632366658
 11
672.4337498636728
 21
652.18176632366692
  0
LINE
  8
_0-0_計極細
  6
CONTINUOUS
 62
    2
 10
777.4337498636728
 20
722.18176632366738
 11
777.4337498636728
 21
716.18176632366715
  0
LINE
  8
_0-0_計極細
  6
CONTINUOUS
 62
    2
 10
772.4337498636728
 20
716.18176632366703
 11
772.4337498636728
 21
722.18176632366738
  0
LINE
  8
_0-0_計極細
  6
CONTINUOUS
 62
    2
 10
777.4337498636728
 20
708.18176632366749
 11
777.4337498636728
 21
702.18176632366692
  0
LINE
  8
_0-0_計極細
  6
CONTINUOUS
 62
    2
 10
772.4337498636728
 20
702.18176632366692
 11
772.4337498636728
 21
708.18176632366749
  0
LINE
  8
_0-0_計極細
  6
CONTINUOUS
 62
    2
 10
777.4337498636728
 20
694.18176632366738
 11
777.4337498636728
 21
688.18176632366703
  0
LINE
  8
_0-0_計極細
  6
CONTINUOUS
 62
    2
 10
772.4337498636728
 20
688.18176632366703
 11
772.4337498636728
 21
694.18176632366738
  0
LINE
  8
_0-0_計極細
  6
CONTINUOUS
 62
    2
 10
777.4337498636728
 20
680.18176632366692
 11
777.4337498636728
 21
674.18176632366669
  0
LINE
  8
_0-0_計極細
  6
CONTINUOUS
 62
    2
 10
772.4337498636728
 20
674.18176632366658
 11
772.4337498636728
 21
680.18176632366692
  0
LINE
  8
_0-0_計極細
  6
CONTINUOUS
 62
    2
 10
777.4337498636728
 20
666.18176632366703
 11
777.4337498636728
 21
660.18176632366681
  0
LINE
  8
_0-0_計極細
  6
CONTINUOUS
 62
    2
 10
772.4337498636728
 20
660.18176632366647
 11
772.4337498636728
 21
666.18176632366703
  0
LINE
  8
_0-0_計極細
  6
CONTINUOUS
 62
    2
 10
777.4337498636728
 20
652.18176632366692
 11
777.4337498636728
 21
646.18176632366669
  0
LINE
  8
_0-0_計極細
  6
CONTINUOUS
 62
    2
 10
772.4337498636728
 20
646.18176632366658
 11
772.4337498636728
 21
652.18176632366692
  0
LINE
  8
_0-0_計極細
  6
CONTINUOUS
 62
    2
 10
877.4337498636728
 20
722.18176632366738
 11
877.4337498636728
 21
716.18176632366715
  0
LINE
  8
_0-0_計極細
  6
CONTINUOUS
 62
    2
 10
872.4337498636728
 20
716.18176632366703
 11
872.4337498636728
 21
722.18176632366738
  0
LINE
  8
_0-0_計極細
  6
CONTINUOUS
 62
    2
 10
877.4337498636728
 20
708.18176632366749
 11
877.4337498636728
 21
702.18176632366692
  0
LINE
  8
_0-0_計極細
  6
CONTINUOUS
 62
    2
 10
872.4337498636728
 20
702.18176632366692
 11
872.4337498636728
 21
708.18176632366749
  0
LINE
  8
_0-0_計極細
  6
CONTINUOUS
 62
    2
 10
877.4337498636728
 20
694.18176632366738
 11
877.4337498636728
 21
688.18176632366703
  0
LINE
  8
_0-0_計極細
  6
CONTINUOUS
 62
    2
 10
872.4337498636728
 20
688.18176632366703
 11
872.4337498636728
 21
694.18176632366738
  0
LINE
  8
_0-0_計極細
  6
CONTINUOUS
 62
    2
 10
877.4337498636728
 20
680.18176632366692
 11
877.4337498636728
 21
674.18176632366669
  0
LINE
  8
_0-0_計極細
  6
CONTINUOUS
 62
    2
 10
872.4337498636728
 20
674.18176632366658
 11
872.4337498636728
 21
680.18176632366692
  0
LINE
  8
_0-0_計極細
  6
CONTINUOUS
 62
    2
 10
877.4337498636728
 20
666.18176632366703
 11
877.4337498636728
 21
660.18176632366681
  0
LINE
  8
_0-0_計極細
  6
CONTINUOUS
 62
    2
 10
872.4337498636728
 20
660.18176632366647
 11
872.4337498636728
 21
666.18176632366703
  0
LINE
  8
_0-0_計極細
  6
CONTINUOUS
 62
    2
 10
877.4337498636728
 20
652.18176632366692
 11
877.4337498636728
 21
646.18176632366669
  0
LINE
  8
_0-0_計極細
  6
CONTINUOUS
 62
    2
 10
872.4337498636728
 20
646.18176632366658
 11
872.4337498636728
 21
652.18176632366692
  0
LINE
  8
_0-1_計細線
  6
CONTINUOUS
 62
    3
 10
478.4337498636728
 20
632.18176632366726
 11
478.4337498636728
 21
624.18176632366738
  0
LINE
  8
_0-1_計細線
  6
CONTINUOUS
 62
    3
 10
478.4337498636728
 20
624.18176632366738
 11
971.43374986367292
 21
624.18176632366738
  0
LINE
  8
_0-1_計細線
  6
CONTINUOUS
 62
    3
 10
971.43374986367292
 20
624.18176632366738
 11
971.43374986367292
 21
632.18176632366726
  0
LINE
  8
_0-1_計細線
  6
CONTINUOUS
 62
    3
 10
971.43374986367292
 20
632.18176632366726
 11
478.4337498636728
 21
632.18176632366726
  0
LINE
  8
_0-0_計極細
  6
CONTINUOUS
 62
    2
 10
577.4337498636728
 20
638.18176632366692
 11
577.4337498636728
 21
632.18176632366669
  0
LINE
  8
_0-0_計極細
  6
CONTINUOUS
 62
    2
 10
572.4337498636728
 20
632.18176632366647
 11
572.4337498636728
 21
638.18176632366692
  0
LINE
  8
_0-0_計極細
  6
CONTINUOUS
 62
    2
 10
677.4337498636728
 20
638.18176632366692
 11
677.4337498636728
 21
632.18176632366669
  0
LINE
  8
_0-0_計極細
  6
CONTINUOUS
 62
    2
 10
672.4337498636728
 20
632.18176632366647
 11
672.4337498636728
 21
638.18176632366692
  0
LINE
  8
_0-0_計極細
  6
CONTINUOUS
 62
    2
 10
777.4337498636728
 20
638.18176632366692
 11
777.4337498636728
 21
632.18176632366669
  0
LINE
  8
_0-0_計極細
  6
CONTINUOUS
 62
    2
 10
772.4337498636728
 20
632.18176632366647
 11
772.4337498636728
 21
638.18176632366692
  0
LINE
  8
_0-0_計極細
  6
CONTINUOUS
 62
    2
 10
877.4337498636728
 20
638.18176632366692
 11
877.4337498636728
 21
632.18176632366669
  0
LINE
  8
_0-0_計極細
  6
CONTINUOUS
 62
    2
 10
872.4337498636728
 20
632.18176632366647
 11
872.4337498636728
 21
638.18176632366692
  0
LINE
  8
_0-1_計細線
  6
CONTINUOUS
 62
    3
 10
478.4337498636728
 20
618.18176632366715
 11
478.4337498636728
 21
610.18176632366738
  0
LINE
  8
_0-1_計細線
  6
CONTINUOUS
 62
    3
 10
478.4337498636728
 20
610.18176632366738
 11
971.43374986367292
 21
610.18176632366738
  0
LINE
  8
_0-1_計細線
  6
CONTINUOUS
 62
    3
 10
971.43374986367292
 20
610.18176632366738
 11
971.43374986367292
 21
618.18176632366715
  0
LINE
  8
_0-1_計細線
  6
CONTINUOUS
 62
    3
 10
971.43374986367292
 20
618.18176632366715
 11
478.4337498636728
 21
618.18176632366715
  0
LINE
  8
_0-0_計極細
  6
CONTINUOUS
 62
    2
 10
577.4337498636728
 20
624.18176632366692
 11
577.4337498636728
 21
618.18176632366669
  0
LINE
  8
_0-0_計極細
  6
CONTINUOUS
 62
    2
 10
572.4337498636728
 20
618.18176632366647
 11
572.4337498636728
 21
624.18176632366692
  0
LINE
  8
_0-0_計極細
  6
CONTINUOUS
 62
    2
 10
677.4337498636728
 20
624.18176632366692
 11
677.4337498636728
 21
618.18176632366669
  0
LINE
  8
_0-0_計極細
  6
CONTINUOUS
 62
    2
 10
672.4337498636728
 20
618.18176632366647
 11
672.4337498636728
 21
624.18176632366692
  0
LINE
  8
_0-0_計極細
  6
CONTINUOUS
 62
    2
 10
777.4337498636728
 20
624.18176632366692
 11
777.4337498636728
 21
618.18176632366669
  0
LINE
  8
_0-0_計極細
  6
CONTINUOUS
 62
    2
 10
772.4337498636728
 20
618.18176632366647
 11
772.4337498636728
 21
624.18176632366692
  0
LINE
  8
_0-0_計極細
  6
CONTINUOUS
 62
    2
 10
877.4337498636728
 20
624.18176632366692
 11
877.4337498636728
 21
618.18176632366669
  0
LINE
  8
_0-0_計極細
  6
CONTINUOUS
 62
    2
 10
872.4337498636728
 20
618.18176632366647
 11
872.4337498636728
 21
624.18176632366692
  0
LINE
  8
_0-1_計細線
  6
CONTINUOUS
 62
    3
 10
478.4337498636728
 20
604.18176632366715
 11
478.4337498636728
 21
596.18176632366738
  0
LINE
  8
_0-1_計細線
  6
CONTINUOUS
 62
    3
 10
478.4337498636728
 20
596.18176632366738
 11
971.43374986367292
 21
596.18176632366738
  0
LINE
  8
_0-1_計細線
  6
CONTINUOUS
 62
    3
 10
971.43374986367292
 20
596.18176632366738
 11
971.43374986367292
 21
604.18176632366715
  0
LINE
  8
_0-1_計細線
  6
CONTINUOUS
 62
    3
 10
971.43374986367292
 20
604.18176632366715
 11
478.4337498636728
 21
604.18176632366715
  0
LINE
  8
_0-0_計極細
  6
CONTINUOUS
 62
    2
 10
577.4337498636728
 20
610.18176632366692
 11
577.4337498636728
 21
604.18176632366669
  0
LINE
  8
_0-0_計極細
  6
CONTINUOUS
 62
    2
 10
572.4337498636728
 20
604.18176632366658
 11
572.4337498636728
 21
610.18176632366692
  0
LINE
  8
_0-0_計極細
  6
CONTINUOUS
 62
    2
 10
677.4337498636728
 20
610.18176632366692
 11
677.4337498636728
 21
604.18176632366669
  0
LINE
  8
_0-0_計極細
  6
CONTINUOUS
 62
    2
 10
672.4337498636728
 20
604.18176632366658
 11
672.4337498636728
 21
610.18176632366692
  0
LINE
  8
_0-0_計極細
  6
CONTINUOUS
 62
    2
 10
777.4337498636728
 20
610.18176632366692
 11
777.4337498636728
 21
604.18176632366669
  0
LINE
  8
_0-0_計極細
  6
CONTINUOUS
 62
    2
 10
772.4337498636728
 20
604.18176632366658
 11
772.4337498636728
 21
610.18176632366692
  0
LINE
  8
_0-0_計極細
  6
CONTINUOUS
 62
    2
 10
877.4337498636728
 20
610.18176632366692
 11
877.4337498636728
 21
604.18176632366669
  0
LINE
  8
_0-0_計極細
  6
CONTINUOUS
 62
    2
 10
872.4337498636728
 20
604.18176632366658
 11
872.4337498636728
 21
610.18176632366692
  0
LINE
  8
_0-1_計細線
  6
CONTINUOUS
 62
    3
 10
478.4337498636728
 20
590.18176632366715
 11
478.4337498636728
 21
582.18176632366738
  0
LINE
  8
_0-1_計細線
  6
CONTINUOUS
 62
    3
 10
478.4337498636728
 20
582.18176632366738
 11
971.43374986367292
 21
582.18176632366738
  0
LINE
  8
_0-1_計細線
  6
CONTINUOUS
 62
    3
 10
971.43374986367292
 20
582.18176632366738
 11
971.43374986367292
 21
590.18176632366715
  0
LINE
  8
_0-1_計細線
  6
CONTINUOUS
 62
    3
 10
971.43374986367292
 20
590.18176632366715
 11
478.4337498636728
 21
590.18176632366715
  0
LINE
  8
_0-0_計極細
  6
CONTINUOUS
 62
    2
 10
577.4337498636728
 20
596.18176632366703
 11
577.4337498636728
 21
590.18176632366681
  0
LINE
  8
_0-0_計極細
  6
CONTINUOUS
 62
    2
 10
572.4337498636728
 20
590.18176632366647
 11
572.4337498636728
 21
596.18176632366703
  0
LINE
  8
_0-0_計極細
  6
CONTINUOUS
 62
    2
 10
677.4337498636728
 20
596.18176632366703
 11
677.4337498636728
 21
590.18176632366681
  0
LINE
  8
_0-0_計極細
  6
CONTINUOUS
 62
    2
 10
672.4337498636728
 20
590.18176632366647
 11
672.4337498636728
 21
596.18176632366703
  0
LINE
  8
_0-0_計極細
  6
CONTINUOUS
 62
    2
 10
777.4337498636728
 20
596.18176632366703
 11
777.4337498636728
 21
590.18176632366681
  0
LINE
  8
_0-0_計極細
  6
CONTINUOUS
 62
    2
 10
772.4337498636728
 20
590.18176632366647
 11
772.4337498636728
 21
596.18176632366703
  0
LINE
  8
_0-0_計極細
  6
CONTINUOUS
 62
    2
 10
877.4337498636728
 20
596.18176632366703
 11
877.4337498636728
 21
590.18176632366681
  0
LINE
  8
_0-0_計極細
  6
CONTINUOUS
 62
    2
 10
872.4337498636728
 20
590.18176632366647
 11
872.4337498636728
 21
596.18176632366703
  0
LINE
  8
_0-0_計極細
  6
CONTINUOUS
 62
    2
 10
377.4337498636728
 20
722.18176632366738
 11
377.4337498636728
 21
716.18176632366715
  0
LINE
  8
_0-0_計極細
  6
CONTINUOUS
 62
    2
 10
372.4337498636728
 20
716.18176632366703
 11
372.4337498636728
 21
722.18176632366738
  0
LINE
  8
_0-0_計極細
  6
CONTINUOUS
 62
    2
 10
377.4337498636728
 20
708.18176632366749
 11
377.4337498636728
 21
702.18176632366692
  0
LINE
  8
_0-0_計極細
  6
CONTINUOUS
 62
    2
 10
372.4337498636728
 20
702.18176632366692
 11
372.4337498636728
 21
708.18176632366749
  0
LINE
  8
_0-0_計極細
  6
CONTINUOUS
 62
    2
 10
377.4337498636728
 20
694.18176632366738
 11
377.4337498636728
 21
688.18176632366703
  0
LINE
  8
_0-0_計極細
  6
CONTINUOUS
 62
    2
 10
372.4337498636728
 20
688.18176632366703
 11
372.4337498636728
 21
694.18176632366738
  0
LINE
  8
_0-0_計極細
  6
CONTINUOUS
 62
    2
 10
377.4337498636728
 20
680.18176632366692
 11
377.4337498636728
 21
674.18176632366669
  0
LINE
  8
_0-0_計極細
  6
CONTINUOUS
 62
    2
 10
372.4337498636728
 20
674.18176632366658
 11
372.4337498636728
 21
680.18176632366692
  0
LINE
  8
_0-0_計極細
  6
CONTINUOUS
 62
    2
 10
377.4337498636728
 20
666.18176632366703
 11
377.4337498636728
 21
660.18176632366681
  0
LINE
  8
_0-0_計極細
  6
CONTINUOUS
 62
    2
 10
372.4337498636728
 20
660.18176632366647
 11
372.4337498636728
 21
666.18176632366703
  0
LINE
  8
_0-0_計極細
  6
CONTINUOUS
 62
    2
 10
377.4337498636728
 20
652.18176632366692
 11
377.4337498636728
 21
646.18176632366669
  0
LINE
  8
_0-0_計極細
  6
CONTINUOUS
 62
    2
 10
372.4337498636728
 20
646.18176632366658
 11
372.4337498636728
 21
652.18176632366692
  0
LINE
  8
_0-0_計極細
  6
CONTINUOUS
 62
    2
 10
377.4337498636728
 20
638.18176632366692
 11
377.4337498636728
 21
632.18176632366669
  0
LINE
  8
_0-0_計極細
  6
CONTINUOUS
 62
    2
 10
372.4337498636728
 20
632.18176632366647
 11
372.4337498636728
 21
638.18176632366692
  0
LINE
  8
_0-0_計極細
  6
CONTINUOUS
 62
    2
 10
377.4337498636728
 20
624.18176632366692
 11
377.4337498636728
 21
618.18176632366669
  0
LINE
  8
_0-0_計極細
  6
CONTINUOUS
 62
    2
 10
372.4337498636728
 20
618.18176632366647
 11
372.4337498636728
 21
624.18176632366692
  0
LINE
  8
_0-0_計極細
  6
CONTINUOUS
 62
    2
 10
377.4337498636728
 20
610.18176632366692
 11
377.4337498636728
 21
604.18176632366669
  0
LINE
  8
_0-0_計極細
  6
CONTINUOUS
 62
    2
 10
372.4337498636728
 20
604.18176632366658
 11
372.4337498636728
 21
610.18176632366692
  0
LINE
  8
_0-0_計極細
  6
CONTINUOUS
 62
    2
 10
377.4337498636728
 20
596.18176632366703
 11
377.4337498636728
 21
590.18176632366681
  0
LINE
  8
_0-0_計極細
  6
CONTINUOUS
 62
    2
 10
372.4337498636728
 20
590.18176632366647
 11
372.4337498636728
 21
596.18176632366703
  0
LINE
  8
_0-1_計細線
  6
CONTINUOUS
 62
    3
 10
324.9337498636728
 20
730.18176632366715
 11
471.43374986367286
 21
730.18176632366715
  0
LINE
  8
_0-1_計細線
  6
CONTINUOUS
 62
    3
 10
471.43374986367286
 20
722.18176632366738
 11
321.9871883371693
 21
722.18176632366738
  0
LINE
  8
_0-1_計細線
  6
CONTINUOUS
 62
    3
 10
319.93843455009073
 20
716.18176632366715
 11
471.43374986367286
 21
716.18176632366715
  0
LINE
  8
_0-1_計細線
  6
CONTINUOUS
 62
    3
 10
471.43374986367286
 20
708.18176632366749
 11
317.65760323097265
 21
708.18176632366749
  0
LINE
  8
_0-1_計細線
  6
CONTINUOUS
 62
    3
 10
316.41670017558999
 20
702.18176632366738
 11
471.43374986367286
 21
702.18176632366738
  0
LINE
  8
_0-1_計細線
  6
CONTINUOUS
 62
    3
 10
471.43374986367286
 20
694.18176632366783
 11
315.62230723417133
 21
694.18176632366783
  0
LINE
  8
_0-1_計細線
  6
CONTINUOUS
 62
    3
 10
315.83116460851215
 20
688.18176632366749
 11
471.43374986367286
 21
688.18176632366749
  0
LINE
  8
_0-1_計細線
  6
CONTINUOUS
 62
    3
 10
471.43374986367286
 20
680.1817663236676
 11
317.08702888780454
 21
680.1817663236676
  0
LINE
  8
_0-1_計細線
  6
CONTINUOUS
 62
    3
 10
318.60900557003475
 20
674.18176632366738
 11
471.43374986367286
 21
674.18176632366738
  0
LINE
  8
_0-1_計細線
  6
CONTINUOUS
 62
    3
 10
471.43374986367286
 20
666.18176632366772
 11
321.18745836755306
 21
666.18176632366772
  0
LINE
  8
_0-1_計細線
  6
CONTINUOUS
 62
    3
 10
323.3786035098347
 20
660.18176632366715
 11
471.43374986367286
 21
660.18176632366715
  0
LINE
  8
_0-1_計細線
  6
CONTINUOUS
 62
    3
 10
471.43374986367286
 20
652.18176632366738
 11
326.70083355906945
 21
652.18176632366738
  0
LINE
  8
_0-1_計細線
  6
CONTINUOUS
 62
    3
 10
328.61171467069789
 20
646.18176632366715
 11
471.43374986367286
 21
646.18176632366715
  0
LINE
  8
_0-1_計細線
  6
CONTINUOUS
 62
    3
 10
471.43374986367286
 20
638.18176632366749
 11
331.19143055484483
 21
638.18176632366749
  0
LINE
  8
_0-1_計細線
  6
CONTINUOUS
 62
    3
 10
332.71232568319016
 20
632.18176632366726
 11
471.43374986367286
 21
632.18176632366726
  0
LINE
  8
_0-1_計細線
  6
CONTINUOUS
 62
    3
 10
471.43374986367286
 20
624.18176632366738
 11
333.96435620906141
 21
624.18176632366738
  0
LINE
  8
_0-1_計細線
  6
CONTINUOUS
 62
    3
 10
334.16653385488416
 20
618.18176632366715
 11
471.43374986367286
 21
618.18176632366715
  0
LINE
  8
_0-1_計細線
  6
CONTINUOUS
 62
    3
 10
471.43374986367286
 20
610.18176632366738
 11
333.36619049224964
 21
610.18176632366738
  0
LINE
  8
_0-1_計細線
  6
CONTINUOUS
 62
    3
 10
332.12367314754653
 20
604.18176632366715
 11
471.43374986367286
 21
604.18176632366715
  0
LINE
  8
_0-1_計細線
  6
CONTINUOUS
 62
    3
 10
471.43374986367286
 20
596.18176632366738
 11
329.84255181373692
 21
596.18176632366738
  0
LINE
  8
_0-1_計細線
  6
CONTINUOUS
 62
    3
 10
327.79704958192679
 20
590.18176632366715
 11
471.43374986367286
 21
590.18176632366715
  0
LINE
  8
_0-1_計細線
  6
CONTINUOUS
 62
    3
 10
471.43374986367286
 20
582.18176632366738
 11
324.89539085573733
 21
582.18176632366738
  0
LINE
  8
_0-0_計極細
  6
CONTINUOUS
 62
    2
 10
1077.4337498636728
 20
722.1817663236676
 11
1077.4337498636728
 21
716.18176632366738
  0
LINE
  8
_0-0_計極細
  6
CONTINUOUS
 62
    2
 10
1072.4337498636728
 20
716.18176632366715
 11
1072.4337498636728
 21
722.1817663236676
  0
LINE
  8
_0-0_計極細
  6
CONTINUOUS
 62
    2
 10
1077.4337498636728
 20
708.1817663236676
 11
1077.4337498636728
 21
702.18176632366726
  0
LINE
  8
_0-0_計極細
  6
CONTINUOUS
 62
    2
 10
1072.4337498636728
 20
702.18176632366726
 11
1072.4337498636728
 21
708.1817663236676
  0
LINE
  8
_0-0_計極細
  6
CONTINUOUS
 62
    2
 10
1077.4337498636728
 20
694.18176632366772
 11
1077.4337498636728
 21
688.18176632366715
  0
LINE
  8
_0-0_計極細
  6
CONTINUOUS
 62
    2
 10
1072.4337498636728
 20
688.18176632366715
 11
1072.4337498636728
 21
694.18176632366772
  0
LINE
  8
_0-0_計極細
  6
CONTINUOUS
 62
    2
 10
1077.4337498636728
 20
680.18176632366715
 11
1077.4337498636728
 21
674.18176632366692
  0
LINE
  8
_0-0_計極細
  6
CONTINUOUS
 62
    2
 10
1072.4337498636728
 20
674.18176632366669
 11
1072.4337498636728
 21
680.18176632366715
  0
LINE
  8
_0-0_計極細
  6
CONTINUOUS
 62
    2
 10
1077.4337498636728
 20
666.18176632366715
 11
1077.4337498636728
 21
660.18176632366692
  0
LINE
  8
_0-0_計極細
  6
CONTINUOUS
 62
    2
 10
1072.4337498636728
 20
660.18176632366681
 11
1072.4337498636728
 21
666.18176632366715
  0
LINE
  8
_0-0_計極細
  6
CONTINUOUS
 62
    2
 10
1077.4337498636728
 20
652.18176632366726
 11
1077.4337498636728
 21
646.18176632366703
  0
LINE
  8
_0-0_計極細
  6
CONTINUOUS
 62
    2
 10
1072.4337498636728
 20
646.18176632366669
 11
1072.4337498636728
 21
652.18176632366726
  0
LINE
  8
_0-0_計極細
  6
CONTINUOUS
 62
    2
 10
1077.4337498636728
 20
638.18176632366715
 11
1077.4337498636728
 21
632.18176632366692
  0
LINE
  8
_0-0_計極細
  6
CONTINUOUS
 62
    2
 10
1072.4337498636728
 20
632.18176632366669
 11
1072.4337498636728
 21
638.18176632366715
  0
LINE
  8
_0-0_計極細
  6
CONTINUOUS
 62
    2
 10
1077.4337498636728
 20
624.18176632366715
 11
1077.4337498636728
 21
618.18176632366692
  0
LINE
  8
_0-0_計極細
  6
CONTINUOUS
 62
    2
 10
1072.4337498636728
 20
618.18176632366669
 11
1072.4337498636728
 21
624.18176632366715
  0
LINE
  8
_0-0_計極細
  6
CONTINUOUS
 62
    2
 10
1077.4337498636728
 20
610.18176632366715
 11
1077.4337498636728
 21
604.18176632366692
  0
LINE
  8
_0-0_計極細
  6
CONTINUOUS
 62
    2
 10
1072.4337498636728
 20
604.18176632366669
 11
1072.4337498636728
 21
610.18176632366715
  0
LINE
  8
_0-0_計極細
  6
CONTINUOUS
 62
    2
 10
1077.4337498636728
 20
596.18176632366715
 11
1077.4337498636728
 21
590.18176632366692
  0
LINE
  8
_0-0_計極細
  6
CONTINUOUS
 62
    2
 10
1072.4337498636728
 20
590.18176632366681
 11
1072.4337498636728
 21
596.18176632366715
  0
LINE
  8
_0-1_計細線
  6
CONTINUOUS
 62
    3
 10
1124.9337498636728
 20
730.18176632366749
 11
978.4337498636728
 21
730.18176632366749
  0
LINE
  8
_0-1_計細線
  6
CONTINUOUS
 62
    3
 10
978.4337498636728
 20
722.1817663236676
 11
1127.8803113901763
 21
722.1817663236676
  0
LINE
  8
_0-1_計細線
  6
CONTINUOUS
 62
    3
 10
1129.9290651772549
 20
716.18176632366738
 11
978.4337498636728
 21
716.18176632366738
  0
LINE
  8
_0-1_計細線
  6
CONTINUOUS
 62
    3
 10
978.4337498636728
 20
708.1817663236676
 11
1132.2098964963729
 21
708.1817663236676
  0
LINE
  8
_0-1_計細線
  6
CONTINUOUS
 62
    3
 10
1133.4507995517556
 20
702.1817663236676
 11
978.4337498636728
 21
702.1817663236676
  0
LINE
  8
_0-1_計細線
  6
CONTINUOUS
 62
    3
 10
978.4337498636728
 20
694.18176632366806
 11
1134.2451924931743
 21
694.18176632366806
  0
LINE
  8
_0-1_計細線
  6
CONTINUOUS
 62
    3
 10
1134.0363351188339
 20
688.1817663236676
 11
978.4337498636728
 21
688.1817663236676
  0
LINE
  8
_0-1_計細線
  6
CONTINUOUS
 62
    3
 10
978.4337498636728
 20
680.18176632366794
 11
1132.7804708395411
 21
680.18176632366794
  0
LINE
  8
_0-1_計細線
  6
CONTINUOUS
 62
    3
 10
1131.2584941573109
 20
674.18176632366772
 11
978.4337498636728
 21
674.18176632366772
  0
LINE
  8
_0-1_計細線
  6
CONTINUOUS
 62
    3
 10
978.4337498636728
 20
666.18176632366783
 11
1128.6800413597925
 21
666.18176632366783
  0
LINE
  8
_0-1_計細線
  6
CONTINUOUS
 62
    3
 10
1126.4888962175114
 20
660.18176632366749
 11
978.4337498636728
 21
660.18176632366749
  0
LINE
  8
_0-1_計細線
  6
CONTINUOUS
 62
    3
 10
978.4337498636728
 20
652.1817663236676
 11
1123.4511876387655
 21
652.1817663236676
  0
LINE
  8
_0-1_計細線
  6
CONTINUOUS
 62
    3
 10
1121.2557850566482
 20
646.18176632366738
 11
978.4337498636728
 21
646.18176632366738
  0
LINE
  8
_0-1_計細線
  6
CONTINUOUS
 62
    3
 10
978.4337498636728
 20
638.1817663236676
 11
1118.6760691725008
 21
638.1817663236676
  0
LINE
  8
_0-1_計細線
  6
CONTINUOUS
 62
    3
 10
1117.1551740441555
 20
632.18176632366738
 11
978.4337498636728
 21
632.18176632366738
  0
LINE
  8
_0-1_計細線
  6
CONTINUOUS
 62
    3
 10
978.4337498636728
 20
624.18176632366772
 11
1115.9031435182842
 21
624.18176632366772
  0
LINE
  8
_0-1_計細線
  6
CONTINUOUS
 62
    3
 10
1115.7009658724614
 20
618.18176632366749
 11
978.4337498636728
 21
618.18176632366749
  0
LINE
  8
_0-1_計細線
  6
CONTINUOUS
 62
    3
 10
978.4337498636728
 20
610.1817663236676
 11
1116.501309235096
 21
610.1817663236676
  0
LINE
  8
_0-1_計細線
  6
CONTINUOUS
 62
    3
 10
1117.7438265797996
 20
604.18176632366738
 11
978.4337498636728
 21
604.18176632366738
  0
LINE
  8
_0-1_計細線
  6
CONTINUOUS
 62
    3
 10
978.4337498636728
 20
596.1817663236676
 11
1120.0249479136087
 21
596.1817663236676
  0
LINE
  8
_0-1_計細線
  6
CONTINUOUS
 62
    3
 10
1122.0704501454188
 20
590.18176632366738
 11
978.4337498636728
 21
590.18176632366738
  0
LINE
  8
_0-1_計細線
  6
CONTINUOUS
 62
    3
 10
978.4337498636728
 20
582.1817663236676
 11
1124.9988901700049
 21
582.1817663236676
  0
TEXT
  8
_0-5_寸法線
 62
    7
 10
593.67073225861441
 20
521.66624679596282
 40
15
 41
0.8000000000000001
 50
0
  1
ＧＳＬ－１５
  0
TEXT
  8
_0-5_寸法線
 62
    7
 10
813.27081859303871
 20
521.66624679596282
 40
15
 41
0.8000000000000001
 50
0
  1
ＧＳＴ－１５Ｗ１４８
  0
TEXT
  8
_0-7_枠細線
 62
    5
 10
965.50000000000011
 20
110
 40
20
 41
0.6
 50
0
  1
ＧＳＴ－１５Ｗ１４８
  0
TEXT
  8
_0-7_枠細線
 62
    5
 10
965.49999999999966
 20
70
 40
20.000000000000004
 41
0.5999999999999997
 50
0
  1
表面形状については記号表参照のこと
  0
LINE
  8
_0-7_枠細線
  6
CONTINUOUS
 62
    5
 10
1409.4018171150183
 20
328.47321710336234
 11
1409.4018171150183
 21
223.47321710336274
  0
TEXT
  8
_0-7_枠細線
 62
    5
 10
1318.4018171150192
 20
308.47321710336234
 40
15.000000000000002
 41
0.8
 50
0
  1
ノンスリップ
  0
TEXT
  8
_0-7_枠細線
 62
    5
 10
1330.4018171150185
 20
283.47321710336234
 40
15.000000000000002
 41
0.8
 50
0
  1
品番－Ｄ
  0
LINE
  8
_0-7_枠細線
  6
CONTINUOUS
 62
    5
 10
1299.4018171150178
 20
328.47321710336234
 11
1299.4018171150178
 21
223.47321710336274
  0
TEXT
  8
_0-7_枠細線
 62
    5
 10
1220.4018171150178
 20
308.4732171033624
 40
15.000000000000002
 41
0.8
 50
0
  1
プレーン
  0
TEXT
  8
_0-7_枠細線
 62
    5
 10
1220.4018171150185
 20
283.47321710336234
 40
15.000000000000002
 41
0.8
 50
0
  1
品番－Ｆ
  0
TEXT
  8
_0-7_枠細線
 62
    5
 10
1140.4018171150183
 20
308.47321710336234
 40
15.000000000000002
 41
0.8
 50
0
  1
タ イ プ
  0
LINE
  8
_0-7_枠細線
  6
CONTINUOUS
 62
    5
 10
1139.4018171150174
 20
278.47321710336234
 11
1409.4018171150183
 21
278.47321710336234
  0
LINE
  8
_0-7_枠細線
  6
CONTINUOUS
 62
    5
 10
1139.4018171150174
 20
303.47321710336234
 11
1409.4018171150183
 21
303.47321710336234
  0
LINE
  8
_0-7_枠細線
  6
CONTINUOUS
 62
    5
 10
1139.4018171150174
 20
328.47321710336234
 11
1409.4018171150183
 21
328.47321710336234
  0
LINE
  8
_0-7_枠細線
  6
CONTINUOUS
 62
    5
 10
1139.4018171150174
 20
223.47321710336274
 11
1409.4018171150183
 21
223.47321710336274
  0
LINE
  8
_0-7_枠細線
  6
CONTINUOUS
 62
    5
 10
1189.4018171150183
 20
328.47321710336234
 11
1189.4018171150183
 21
223.47321710336274
  0
LINE
  8
_0-7_枠細線
  6
CONTINUOUS
 62
    5
 10
1139.4018171150174
 20
328.47321710336234
 11
1139.4018171150174
 21
223.47321710336274
  0
TEXT
  8
_0-7_枠細線
 62
    5
 10
1140.4018171150183
 20
243.47321710336257
 40
15.000000000000002
 41
0.8
 50
0
  1
表面形状
  0
TEXT
  8
_0-7_枠細線
 62
    5
 10
1147.1760284558286
 20
330.9732171033624
 40
17.500000000000004
 41
0.7999999999999996
 50
0
  1
記号表
  0
TEXT
  8
_0-7_枠細線
 62
    5
 10
1140.4018171150183
 20
283.47321710336246
 40
15.000000000000002
 41
0.8
 50
0
  1
記　　号
  0
ARC
  8
_0-7_枠細線
  6
CONTINUOUS
 62
    5
 10
1282.9664605906703
 20
242.85777402966897
 40
12.026499332130607
 50
317.5616290000047
 51
42.438370999994966
  0
ARC
  8
_0-7_枠細線
  6
CONTINUOUS
 62
    5
 10
1300.7176602555628
 20
259.08866002804609
 40
12.026499332130607
 50
137.56162900000001
 51
222.43837100000297
  0
ARC
  8
_0-7_枠細線
  6
CONTINUOUS
 62
    5
 10
1188.0859738141417
 20
242.85777402966897
 40
12.026499332130607
 50
317.5616290000047
 51
42.438370999994966
  0
ARC
  8
_0-7_枠細線
  6
CONTINUOUS
 62
    5
 10
1205.8371734790342
 20
259.08866002804609
 40
12.026499332130607
 50
137.56162900000001
 51
222.43837100000297
  0
LINE
  8
_0-7_枠細線
  6
CONTINUOUS
 62
    5
 10
1194.4553061852557
 20
262.97321702885733
 11
1289.3357929617841
 21
262.97321702885733
  0
LINE
  8
_0-7_枠細線
  6
CONTINUOUS
 62
    5
 10
1294.3483278844485
 20
238.97321702885733
 11
1199.4678411079201
 21
238.97321702885733
  0
ARC
  8
_0-7_枠細線
  6
CONTINUOUS
 62
    5
 10
1392.966460590671
 20
242.85777402966897
 40
12.026499332130607
 50
317.5616290000047
 51
42.438370999994966
  0
ARC
  8
_0-7_枠細線
  6
CONTINUOUS
 62
    5
 10
1410.7176602555635
 20
259.08866002804609
 40
12.026499332130607
 50
137.56162900000001
 51
222.43837100000297
  0
ARC
  8
_0-7_枠細線
  6
CONTINUOUS
 62
    5
 10
1298.0859738141421
 20
242.85777402966897
 40
12.026499332130607
 50
317.5616290000047
 51
42.438370999994966
  0
ARC
  8
_0-7_枠細線
  6
CONTINUOUS
 62
    5
 10
1315.8371734790348
 20
259.08866002804609
 40
12.026499332130607
 50
137.56162900000001
 51
222.43837100000297
  0
LINE
  8
_0-7_枠細線
  6
CONTINUOUS
 62
    5
 10
1304.4553061852562
 20
262.97321702885733
 11
1399.3357929617846
 21
262.97321702885733
  0
LINE
  8
_0-7_枠細線
  6
CONTINUOUS
 62
    5
 10
1404.3483278844492
 20
238.97321702885733
 11
1309.4678411079208
 21
238.97321702885733
  0
LINE
  8
_0-7_枠細線
  6
CONTINUOUS
 62
    5
 10
1310.0055655050667
 20
244.4577803132122
 11
1315.4901287894213
 21
238.9732170288575
  0
LINE
  8
_0-7_枠細線
  6
CONTINUOUS
 62
    5
 10
1304.3960893257238
 20
262.79517855391305
 11
1328.218050850779
 21
238.97321702885748
  0
LINE
  8
_0-7_枠細線
  6
CONTINUOUS
 62
    5
 10
1316.9459729121372
 20
262.97321702885756
 11
1340.9459729121368
 21
238.97321702885748
  0
LINE
  8
_0-7_枠細線
  6
CONTINUOUS
 62
    5
 10
1329.6738949734947
 20
262.97321702885745
 11
1353.6738949734945
 21
238.97321702885748
  0
LINE
  8
_0-7_枠細線
  6
CONTINUOUS
 62
    5
 10
1342.4018170348527
 20
262.97321702885745
 11
1366.4018170348525
 21
238.97321702885745
  0
LINE
  8
_0-7_枠細線
  6
CONTINUOUS
 62
    5
 10
1355.1297390962102
 20
262.97321702885739
 11
1379.12973909621
 21
238.97321702885739
  0
LINE
  8
_0-7_枠細線
  6
CONTINUOUS
 62
    5
 10
1367.8576611575681
 20
262.97321702885739
 11
1391.8576611575677
 21
238.97321702885739
  0
LINE
  8
_0-7_枠細線
  6
CONTINUOUS
 62
    5
 10
1380.5855832189261
 20
262.97321702885739
 11
1404.4075447439814
 21
239.15125550380145
  0
LINE
  8
_0-7_枠細線
  6
CONTINUOUS
 62
    5
 10
1393.3135052802836
 20
262.97321702885733
 11
1398.7980685646389
 21
257.48865374450207
  0
LINE
  8
_0-7_枠細線
  6
CONTINUOUS
 62
    5
 10
1393.3135052802843
 20
238.97321702885739
 11
1403.3188705607763
 21
248.97858230934932
  0
LINE
  8
_0-7_枠細線
  6
CONTINUOUS
 62
    5
 10
1380.5855832189263
 20
238.97321702885739
 11
1398.8365633238182
 21
257.22419713374904
  0
LINE
  8
_0-7_枠細線
  6
CONTINUOUS
 62
    5
 10
1367.8576611575684
 20
238.97321702885745
 11
1391.8576611575686
 21
262.97321702885733
  0
LINE
  8
_0-7_枠細線
  6
CONTINUOUS
 62
    5
 10
1355.1297390962109
 20
238.97321702885748
 11
1379.1297390962106
 21
262.97321702885739
  0
LINE
  8
_0-7_枠細線
  6
CONTINUOUS
 62
    5
 10
1342.4018170348527
 20
238.97321702885748
 11
1366.4018170348527
 21
262.97321702885739
  0
LINE
  8
_0-7_枠細線
  6
CONTINUOUS
 62
    5
 10
1329.673894973495
 20
238.97321702885748
 11
1353.673894973495
 21
262.97321702885739
  0
LINE
  8
_0-7_枠細線
  6
CONTINUOUS
 62
    5
 10
1316.9459729121374
 20
238.9732170288575
 11
1340.9459729121372
 21
262.97321702885745
  0
LINE
  8
_0-7_枠細線
  6
CONTINUOUS
 62
    5
 10
1309.9670707458877
 20
244.72223692396568
 11
1328.2180508507793
 21
262.97321702885745
  0
LINE
  8
_0-7_枠細線
  6
CONTINUOUS
 62
    5
 10
1305.4847635089297
 20
252.96785174836555
 11
1315.4901287894218
 21
262.97321702885756
  0
LINE
  8
_0-9_枠極太
  6
CONTINUOUS
 62
    5
 10
60
 20
60
 11
60
 21
960
  0
LINE
  8
_0-9_枠極太
  6
CONTINUOUS
 62
    5
 10
60
 20
960
 11
1425
 21
960
  0
LINE
  8
_0-9_枠極太
  6
CONTINUOUS
 62
    5
 10
1425
 20
960
 11
1425
 21
60
  0
LINE
  8
_0-9_枠極太
  6
CONTINUOUS
 62
    5
 10
1425
 20
60
 11
60
 21
60
  0
LINE
  8
_0-a_極細3
  6
CONTINUOUS
 62
    7
 10
605.93065977017193
 20
256.56810602460018
 11
602.09732643683856
 21
256.56810602460018
  0
LINE
  8
_0-a_極細3
  6
CONTINUOUS
 62
    7
 10
605.93065977017193
 20
259.90143935793367
 11
602.09732643683856
 21
259.90143935793367
  0
LINE
  8
_0-a_極細3
  6
CONTINUOUS
 62
    7
 10
605.93065977017193
 20
253.23477269126695
 11
602.09732643683856
 21
253.23477269126695
  0
LINE
  8
_0-a_極細3
  6
CONTINUOUS
 62
    7
 10
605.93065977017193
 20
263.23477269126693
 11
602.09732643683856
 21
263.23477269126693
  0
LINE
  8
_0-a_極細3
  6
CONTINUOUS
 62
    7
 10
602.09732643683856
 20
229.9014393579337
 11
605.93065977017193
 21
229.9014393579337
  0
LINE
  8
_0-a_極細3
  6
CONTINUOUS
 62
    7
 10
605.93065977017193
 20
279.90143935793367
 11
602.09732643683856
 21
279.90143935793367
  0
LINE
  8
_0-b_細線3
  6
CONTINUOUS
 62
    7
 10
602.09732643683856
 20
283.23477269126693
 11
602.09732643683856
 21
224.9014393579337
  0
LINE
  8
_0-b_細線3
  6
CONTINUOUS
 62
    7
 10
602.09732643683856
 20
224.9014393579337
 11
605.93065977017193
 21
224.9014393579337
  0
LINE
  8
_0-b_細線3
  6
CONTINUOUS
 62
    7
 10
605.93065977017193
 20
224.9014393579337
 11
605.93065977017193
 21
283.23477269126693
  0
LINE
  8
_0-b_細線3
  6
CONTINUOUS
 62
    7
 10
605.93065977017193
 20
283.23477269126693
 11
602.09732643683856
 21
283.23477269126693
  0
LINE
  8
_0-7_枠細線
  6
CONTINUOUS
 62
    5
 10
625.0165278634114
 20
260.96352268742095
 11
617.5165278634114
 21
275.96352268742095
  0
LINE
  8
_0-7_枠細線
  6
CONTINUOUS
 62
    5
 10
610.0165278634114
 20
260.96352268742095
 11
625.0165278634114
 21
260.96352268742095
  0
LINE
  8
_0-7_枠細線
  6
CONTINUOUS
 62
    5
 10
617.5165278634114
 20
275.96352268742095
 11
610.0165278634114
 21
260.96352268742095
  0
TEXT
  8
_0-7_枠細線
 62
    5
 10
612.38167913155951
 20
260.65652044204046
 40
12.5
 41
0.8
 50
0
  1
１
  0
LINE
  8
_0-a_極細3
  6
CONTINUOUS
 62
    7
 10
334.93065977017216
 20
256.56810602460018
 11
338.76399310350553
 21
256.56810602460018
  0
LINE
  8
_0-a_極細3
  6
CONTINUOUS
 62
    7
 10
334.93065977017216
 20
259.90143935793367
 11
338.76399310350553
 21
259.90143935793367
  0
LINE
  8
_0-a_極細3
  6
CONTINUOUS
 62
    7
 10
334.93065977017216
 20
253.23477269126695
 11
338.76399310350553
 21
253.23477269126695
  0
LINE
  8
_0-a_極細3
  6
CONTINUOUS
 62
    7
 10
334.93065977017216
 20
263.23477269126693
 11
338.76399310350553
 21
263.23477269126693
  0
LINE
  8
_0-a_極細3
  6
CONTINUOUS
 62
    7
 10
338.76399310350553
 20
229.9014393579337
 11
334.93065977017216
 21
229.9014393579337
  0
LINE
  8
_0-a_極細3
  6
CONTINUOUS
 62
    7
 10
334.93065977017216
 20
279.90143935793367
 11
338.76399310350553
 21
279.90143935793367
  0
LINE
  8
_0-b_細線3
  6
CONTINUOUS
 62
    7
 10
338.76399310350553
 20
283.23477269126693
 11
338.76399310350553
 21
224.9014393579337
  0
LINE
  8
_0-b_細線3
  6
CONTINUOUS
 62
    7
 10
338.76399310350553
 20
224.9014393579337
 11
334.93065977017216
 21
224.9014393579337
  0
LINE
  8
_0-b_細線3
  6
CONTINUOUS
 62
    7
 10
334.93065977017216
 20
224.9014393579337
 11
334.93065977017216
 21
283.23477269126693
  0
LINE
  8
_0-b_細線3
  6
CONTINUOUS
 62
    7
 10
334.93065977017216
 20
283.23477269126693
 11
338.76399310350553
 21
283.23477269126693
  0
LINE
  8
_0-7_枠細線
  6
CONTINUOUS
 62
    5
 10
1425
 20
907.5
 11
890
 21
907.5
  0
LINE
  8
_0-7_枠細線
  6
CONTINUOUS
 62
    5
 10
915
 20
908.94233397174708
 11
907.5
 21
923.94233397174708
  0
LINE
  8
_0-7_枠細線
  6
CONTINUOUS
 62
    5
 10
900
 20
908.94233397174708
 11
915
 21
908.94233397174708
  0
LINE
  8
_0-7_枠細線
  6
CONTINUOUS
 62
    5
 10
907.5
 20
923.94233397174708
 11
900
 21
908.94233397174708
  0
TEXT
  8
_0-7_枠細線
 62
    5
 10
902.36515126814822
 20
908.63533172636653
 40
12.5
 41
0.8
 50
0
  1
１
  0
TEXT
  8
_0-7_枠細線
 62
    5
 10
1180
 20
910
 40
12.5
 41
0.7199999999999999
 50
0
  1
２０１９．０９．０１
  0
TEXT
  8
_0-7_枠細線
 62
    5
 10
938.85037037037023
 20
910
 40
12.500000000000002
 41
1
 50
0
  1
アンカー材質･厚み変更
  0
LINE
  8
_0-7_枠細線
  6
CONTINUOUS
 62
    5
 10
890
 20
907.5
 11
890
 21
959.99999999999909
  0
LINE
  8
_0-7_枠細線
  6
CONTINUOUS
 62
    5
 10
925
 20
907.5
 11
925
 21
959.99999999999943
  0
LINE
  8
_0-7_枠細線
  6
CONTINUOUS
 62
    5
 10
1175
 20
907.5
 11
1175
 21
959.99999999999943
  0
LINE
  8
_0-7_枠細線
  6
CONTINUOUS
 62
    5
 10
1275
 20
907.5
 11
1275
 21
959.99999999999943
  0
LINE
  8
_0-5_寸法線
  6
CONTINUOUS
 62
    7
 10
1176.9337498636755
 20
577.18176632366578
 11
1221.9337498636755
 21
577.18176632366578
  0
LINE
  8
_0-5_寸法線
  6
CONTINUOUS
 62
    7
 10
1216.9337498636755
 20
577.18176632366578
 11
1219.5219403147007
 21
567.52250806077518
  0
LINE
  8
_0-5_寸法線
  6
CONTINUOUS
 62
    7
 10
1216.9337498636755
 20
577.18176632366578
 11
1214.3455594126503
 21
567.52250806077518
  0
LINE
  8
_0-5_寸法線
  6
CONTINUOUS
 62
    7
 10
1176.9337498636755
 20
580.18176632366715
 11
1221.9337498636755
 21
580.18176632366715
  0
CIRCLE
  8
_0-5_寸法線
  6
CONTINUOUS
 62
    1
 10
1216.9337498636755
 20
580.18176632366715
 40
1.5000000000000002
  0
LINE
  8
_0-5_寸法線
  6
CONTINUOUS
 62
    7
 10
1216.9337498636755
 20
552.18176632366578
 11
1216.9337498636755
 21
580.18176632366715
  0
TEXT
  8
_0-5_寸法線
 62
    7
 10
1216.9337498636755
 20
555.98123528164172
 40
15
 41
1
 50
90
  1
3
  0
LINE
  8
_0-5_寸法線
  6
CONTINUOUS
 62
    7
 10
1176.9337498636755
 20
582.18176632366726
 11
1221.9337498636755
 21
582.18176632366692
  0
LINE
  8
_0-5_寸法線
  6
CONTINUOUS
 62
    7
 10
1216.9337498636755
 20
580.18176632366715
 11
1216.9337498636755
 21
582.18176632366692
  0
TEXT
  8
_0-5_寸法線
 62
    7
 10
1235.4760646496673
 20
580.18176632366715
 40
15
 41
1
 50
90
  1
2
  0
LINE
  8
_0-5_寸法線
  6
CONTINUOUS
 62
    7
 10
1216.9337498636755
 20
582.18176632366692
 11
1214.3455594126503
 21
591.84102458655764
  0
LINE
  8
_0-5_寸法線
  6
CONTINUOUS
 62
    7
 10
1216.9337498636755
 20
582.18176632366692
 11
1219.5219403147007
 21
591.84102458655764
  0
LINE
  8
_0-5_寸法線
  6
CONTINUOUS
 62
    7
 10
1176.9337498636755
 20
730.18176632366715
 11
1221.9337498636755
 21
730.18176632366692
  0
LINE
  8
_0-5_寸法線
  6
CONTINUOUS
 62
    7
 10
1216.9337498636755
 20
730.18176632366692
 11
1219.5219403147007
 21
720.5225080607762
  0
LINE
  8
_0-5_寸法線
  6
CONTINUOUS
 62
    7
 10
1216.9337498636755
 20
730.18176632366692
 11
1214.3455594126503
 21
720.5225080607762
  0
LINE
  8
_0-5_寸法線
  6
CONTINUOUS
 62
    7
 10
1216.9337498636755
 20
582.18176632366692
 11
1216.9337498636755
 21
730.18176632366692
  0
TEXT
  8
_0-5_寸法線
 62
    7
 10
1216.9337498636755
 20
644.93176632366669
 40
15
 41
1
 50
90
  1
148
  0
LINE
  8
_0-5_寸法線
  6
CONTINUOUS
 62
    7
 10
1176.9337498636755
 20
732.18176632366726
 11
1221.9337498636755
 21
732.18176632366726
  0
CIRCLE
  8
_0-5_寸法線
  6
CONTINUOUS
 62
    1
 10
1216.9337498636755
 20
732.18176632366726
 40
1.5000000000000002
  0
LINE
  8
_0-5_寸法線
  6
CONTINUOUS
 62
    7
 10
1216.9337498636755
 20
730.18176632366692
 11
1216.9337498636755
 21
732.18176632366726
  0
TEXT
  8
_0-5_寸法線
 62
    7
 10
1235.2705479954784
 20
724.68176632366726
 40
15
 41
1
 50
90
  1
2
  0
LINE
  8
_0-5_寸法線
  6
CONTINUOUS
 62
    7
 10
1176.9337498636755
 20
735.18176632366578
 11
1221.9337498636755
 21
735.18176632366578
  0
LINE
  8
_0-5_寸法線
  6
CONTINUOUS
 62
    7
 10
1216.9337498636755
 20
735.18176632366578
 11
1214.3455594126503
 21
744.84102458655661
  0
LINE
  8
_0-5_寸法線
  6
CONTINUOUS
 62
    7
 10
1216.9337498636755
 20
735.18176632366578
 11
1219.5219403147007
 21
744.84102458655661
  0
LINE
  8
_0-5_寸法線
  6
CONTINUOUS
 62
    7
 10
1216.9337498636755
 20
732.18176632366726
 11
1216.9337498636755
 21
760.18176632366578
  0
TEXT
  8
_0-5_寸法線
 62
    7
 10
1216.9337498636755
 20
748.5691090813624
 40
15
 41
1
 50
90
  1
3
  0
LINE
  8
_0-d_寸法3
  6
CONTINUOUS
 62
    7
 10
338.76399310350553
 20
368.23477102292213
 11
329.10473484061475
 21
365.64658057189695
  0
LINE
  8
_0-d_寸法3
  6
CONTINUOUS
 62
    7
 10
338.76399310350553
 20
368.23477102292213
 11
329.10473484061481
 21
370.82296147394737
  0
LINE
  8
_0-d_寸法3
  6
CONTINUOUS
 62
    7
 10
343.76399310350553
 20
297.40143935793344
 11
343.76399310350553
 21
373.23477102292213
  0
CIRCLE
  8
_0-d_寸法3
  6
CONTINUOUS
 62
    1
 10
343.76399310350553
 20
368.23477102292213
 40
1.5000000000000002
  0
LINE
  8
_0-d_寸法3
  6
CONTINUOUS
 62
    7
 10
313.76399310350553
 20
368.23477102292213
 11
343.76399310350553
 21
368.23477102292213
  0
TEXT
  8
_0-d_寸法3
 62
    7
 10
319.02999809163191
 20
368.23477102292213
 40
15
 41
1
 50
0
  1
3
  0
LINE
  8
_0-d_寸法3
  6
CONTINUOUS
 62
    7
 10
347.09732643683856
 20
294.9014376895891
 11
347.09732643683901
 21
373.23477102292213
  0
LINE
  8
_0-d_寸法3
  6
CONTINUOUS
 62
    7
 10
343.76399310350553
 20
368.23477102292213
 11
347.09732643683901
 21
368.23477102292213
  0
TEXT
  8
_0-d_寸法3
 62
    7
 10
341.68065977017199
 20
368.23477102292213
 40
15
 41
1
 50
0
  1
2
  0
LINE
  8
_0-d_寸法3
  6
CONTINUOUS
 62
    7
 10
347.09732643683901
 20
368.23477102292213
 11
356.75658469972967
 21
370.82296147394737
  0
LINE
  8
_0-d_寸法3
  6
CONTINUOUS
 62
    7
 10
347.09732643683901
 20
368.23477102292213
 11
356.75658469972967
 21
365.64658057189695
  0
LINE
  8
_0-d_寸法3
  6
CONTINUOUS
 62
    7
 10
593.76399310350507
 20
294.9014376895891
 11
593.76399310350507
 21
373.23477102292213
  0
LINE
  8
_0-d_寸法3
  6
CONTINUOUS
 62
    7
 10
593.76399310350507
 20
368.23477102292213
 11
584.10473484061436
 21
365.64658057189695
  0
LINE
  8
_0-d_寸法3
  6
CONTINUOUS
 62
    7
 10
593.76399310350507
 20
368.23477102292213
 11
584.10473484061436
 21
370.82296147394737
  0
LINE
  8
_0-d_寸法3
  6
CONTINUOUS
 62
    7
 10
347.09732643683901
 20
368.23477102292213
 11
593.76399310350507
 21
368.23477102292213
  0
TEXT
  8
_0-d_寸法3
 62
    7
 10
459.18065977017199
 20
368.23477102292213
 40
15
 41
1
 50
0
  1
148
  0
LINE
  8
_0-d_寸法3
  6
CONTINUOUS
 62
    7
 10
597.09732643683822
 20
297.40143935793344
 11
597.09732643683913
 21
373.23477102292213
  0
CIRCLE
  8
_0-d_寸法3
  6
CONTINUOUS
 62
    1
 10
597.09732643683901
 20
368.23477102292213
 40
1.5000000000000002
  0
LINE
  8
_0-d_寸法3
  6
CONTINUOUS
 62
    7
 10
593.76399310350507
 20
368.23477102292213
 11
597.09732643683901
 21
368.23477102292213
  0
TEXT
  8
_0-d_寸法3
 62
    7
 10
591.68065977017204
 20
368.23477102292213
 40
15
 41
1
 50
0
  1
2
  0
LINE
  8
_0-d_寸法3
  6
CONTINUOUS
 62
    7
 10
602.09732643683901
 20
368.23477102292213
 11
611.75658469972973
 21
370.82296147394732
  0
LINE
  8
_0-d_寸法3
  6
CONTINUOUS
 62
    7
 10
602.09732643683901
 20
368.23477102292213
 11
611.75658469972973
 21
365.64658057189689
  0
LINE
  8
_0-d_寸法3
  6
CONTINUOUS
 62
    7
 10
597.09732643683901
 20
368.23477102292213
 11
627.09732643683901
 21
368.23477102292213
  0
TEXT
  8
_0-d_寸法3
 62
    7
 10
615.45558638305454
 20
368.23477102292213
 40
15
 41
1
 50
0
  1
3
  0
ENDSEC
  0
EOF
