  0
SECTION
  2
HEADER
  9
$ACADVER
  1
AC1009
  9
$INSBASE
 10
0
 20
0
 30
0
  9
$EXTMIN
 10
0
 20
0
  9
$EXTMAX
 10
1485
 20
1050
  9
$LIMMIN
 10
0
 20
0
  9
$LIMMAX
 10
1485
 20
1050
  9
$LTSCALE
 40
5
  0
ENDSEC
  0
SECTION
  2
TABLES
  0
TABLE
  2
LTYPE
 70
     9
  0
LTYPE
  2
CONTINUOUS
 70
    64
  3
実線
 72
    65
 73
     0
 40
0.0
  0
LTYPE
  2
DASHED1
 70
    64
  3
--  --  --  --  --  --  --  --  
 72
    65
 73
     2
 40
2.5
 49
1.25
 49
-1.25
  0
LTYPE
  2
DASHED2
 70
    64
  3
----    ----    ----    ----    
 72
    65
 73
     2
 40
5.0
 49
2.5
 49
-2.5
  0
LTYPE
  2
DASHED3
 70
    64
  3
------  ------  ------  ------  
 72
    65
 73
     2
 40
5.0
 49
3.75
 49
-1.25
  0
LTYPE
  2
CENTER1
 70
    64
  3
----- - ----- - ----- - ----- - 
 72
    65
 73
     4
 40
10.0
 49
6.25
 49
-1.25
 49
1.25
 49
-1.25
  0
LTYPE
  2
CENTER2
 70
    64
  3
----------  --  ----------  --  
 72
    65
 73
     4
 40
20.0
 49
12.5
 49
-2.5
 49
2.5
 49
-2.5
  0
LTYPE
  2
PHANTOM1
 70
    64
  3
--- - - --- - - --- - - --- - - 
 72
    65
 73
     6
 40
10.0
 49
3.25
 49
-1.25
 49
1.25
 49
-1.25
 49
1.25
 49
-1.25
  0
LTYPE
  2
PHANTOM2
 70
    64
  3
--------  -  -  --------  -  -  
 72
    65
 73
     6
 40
20.0
 49
10.0
 49
-2.5
 49
1.25
 49
-2.5
 49
1.25
 49
-2.5
  0
LTYPE
  2
DOT
 70
    64
  3
-   -   -   -   -   -   -   -   
 72
    65
 73
     2
 40
2.5
 49
0.625
 49
-1.875
  0
LTYPE
  2
DUMMY
 70
    64
  3
ダミー
 72
    65
 73
     0
 40
0.0
  0
LTYPE
  2
RAND1
 70
    64
  3
ランダム線1
 72
    65
 73
     4
 40
10.0
 49
1.0
 49
-2.0
 49
3.0
 49
-4.0
  0
LTYPE
  2
RAND2
 70
    64
  3
ランダム線2
 72
    65
 73
     4
 40
14.0
 49
2.0
 49
-3.0
 49
4.0
 49
-5.0
  0
LTYPE
  2
RAND3
 70
    64
  3
ランダム線3
 72
    65
 73
     4
 40
18.0
 49
3.0
 49
-4.0
 49
5.0
 49
-6.0
  0
LTYPE
  2
RAND4
 70
    64
  3
ランダム線4
 72
    65
 73
     4
 40
22.0
 49
4.0
 49
-5.0
 49
6.0
 49
-7.0
  0
LTYPE
  2
RAND5
 70
    64
  3
ランダム線5
 72
    65
 73
     4
 40
26.0
 49
5.0
 49
-6.0
 49
7.0
 49
-8.0
  0
LTYPE
  2
LONG1
 70
    64
  3
----------  --  ----------  --  
 72
    65
 73
     4
 40
40.0
 49
32.5
 49
-2.5
 49
2.5
 49
-2.5
  0
LTYPE
  2
LONG2
 70
    64
  3
--------  -  -  --------  -  -  
 72
    65
 73
     6
 40
40.0
 49
30.0
 49
-2.5
 49
1.25
 49
-2.5
 49
1.25
 49
-2.5
  0
LTYPE
  2
LONG3
 70
    64
  3
+++++++++++++++..+++++++++++++++
 72
    65
 73
     2
 40
40.0
 49
37.5
 49
-2.5
  0
LTYPE
  2
LONG4
 70
    64
  3
+++++++++++++++..+++++++++++++++
 72
    65
 73
     2
 40
80.0
 49
75.0
 49
-5.0
  0
LTYPE
  2
LONG5
 70
    64
  3
----------  --  ----------  --  
 72
    65
 73
     4
 40
60.0
 49
37.5
 49
-7.5
 49
7.5
 49
-7.5
  0
LTYPE
  2
dashed
 70
   64
  3
-------   -------------   ------
 72
   65
 73
    2
 40
7.5
 49
6
 49
-1.5
  0
LTYPE
  2
dashed_spaced
 70
   64
  3
----        --------        ----
 72
   65
 73
    2
 40
12
 49
6
 49
-6
  0
LTYPE
  2
long_dashed_dotted
 70
   64
  3
------------- --- --------------
 72
   65
 73
    4
 40
15.25
 49
12
 49
-1.5
 49
0.25
 49
-1.5
  0
LTYPE
  2
long_dashed_double-dotted
 70
   64
  3
----------- --- --- ------------
 72
   65
 73
    6
 40
17
 49
12
 49
-1.5
 49
0.25
 49
-1.5
 49
0.25
 49
-1.5
  0
LTYPE
  2
long_dashed_triplicate-dotted
 70
   64
  3
--------- --- --- --- ----------
 72
   65
 73
    8
 40
18.75
 49
12
 49
-1.5
 49
0.25
 49
-1.5
 49
0.25
 49
-1.5
 49
0.25
 49
-1.5
  0
LTYPE
  2
dotted
 70
   64
  3
   -       -       -       -    
 72
   65
 73
    2
 40
1.75
 49
0.25
 49
-1.5
  0
LTYPE
  2
chain
 70
   64
  3
-------------- -- --------------
 72
   65
 73
    4
 40
18.5
 49
12
 49
-1.5
 49
3.5
 49
-1.5
  0
LTYPE
  2
chain_double_dash
 70
   64
  3
------------ -- -- -------------
 72
   65
 73
    6
 40
23.5
 49
12
 49
-1.5
 49
3.5
 49
-1.5
 49
3.5
 49
-1.5
  0
LTYPE
  2
dashed_dotted
 70
   64
  3
-----------     -     ----------
 72
   65
 73
    4
 40
9.25
 49
6
 49
-1.5
 49
0.25
 49
-1.5
  0
LTYPE
  2
double-dashed_dotted
 70
   64
  3
------   -----------   -   -----
 72
   65
 73
    6
 40
16.75
 49
6
 49
-1.5
 49
6
 49
-1.5
 49
0.25
 49
-1.5
  0
LTYPE
  2
dashed_double-dotted
 70
   64
  3
---------    -    -    ---------
 72
   65
 73
    6
 40
11
 49
6
 49
-1.5
 49
0.25
 49
-1.5
 49
0.25
 49
-1.5
  0
LTYPE
  2
double-dashed_double-dotted
 70
   64
  3
-----   ---------   -   -   ----
 72
   65
 73
    8
 40
18.5
 49
6
 49
-1.5
 49
6
 49
-1.5
 49
0.25
 49
-1.5
 49
0.25
 49
-1.5
  0
LTYPE
  2
dashed_triplicate-dotted
 70
   64
  3
-------    -    -    -    ------
 72
   65
 73
    8
 40
12.75
 49
6
 49
-1.5
 49
0.25
 49
-1.5
 49
0.25
 49
-1.5
 49
0.25
 49
-1.5
  0
LTYPE
  2
double-dashed_triplicate-dotted
 70
   64
  3
-----  ---------  -  -  -  -----
 72
   65
 73
   10
 40
20.25
 49
6
 49
-1.5
 49
6
 49
-1.5
 49
0.25
 49
-1.5
 49
0.25
 49
-1.5
 49
0.25
 49
-1.5
  0
LTYPE
  2
undefined
 70
   64
  3
--------------------------------
 72
   65
 73
    0
 40
0
  0
ENDTAB
  0
TABLE
  2
STYLE
  5
3
100
AcDbSymbolTable
 70
     1
  0
STYLE
  5
10
100
AcDbSymbolTableRecord
100
AcDbTextStyleTableRecord
  2
STANDARD
 70
     0
 40
0.0
 41
1.0
 50
0.0
 71
     0
 42
0.2
  3
txt
  4
bigfont.shx
  0
STYLE
  5
26
100
AcDbSymbolTableRecord
100
AcDbTextStyleTableRecord
  2
TATEGAKI
 70
    68
 40
0.0
 41
1.0
 50
0.0
 71
     0
 42
1.0
  3
txt
  4
bigfont.shx
  0
ENDTAB
  0
TABLE
  2
LAYER
 70
   10
  0
LAYER
  2
_0-0_計極細
 70
   64
 62
    7
  6
CONTINUOUS
  0
LAYER
  2
_0-1_計細線
 70
   64
 62
    7
  6
CONTINUOUS
  0
LAYER
  2
_0-5_寸法線
 70
   64
 62
    7
  6
CONTINUOUS
  0
LAYER
  2
_0-7_枠細線
 70
   64
 62
    7
  6
CONTINUOUS
  0
LAYER
  2
_0-8_枠中線
 70
   64
 62
    7
  6
CONTINUOUS
  0
LAYER
  2
_0-9_枠極太
 70
   64
 62
    7
  6
CONTINUOUS
  0
LAYER
  2
_0-a_極細3
 70
   64
 62
    7
  6
CONTINUOUS
  0
LAYER
  2
_0-b_細線3
 70
   64
 62
    7
  6
CONTINUOUS
  0
LAYER
  2
_0-d_寸法3
 70
   64
 62
    7
  6
CONTINUOUS
  0
LAYER
  2
ADD_LINE
 70
   64
 62
    7
  6
CONTINUOUS
  0
ENDTAB
  0
ENDSEC
  0
SECTION
  2
BLOCKS
  0
ENDSEC
  0
SECTION
  2
ENTITIES
  0
LINE
  8
_0-7_枠細線
  6
CONTINUOUS
 62
    5
 10
1425
 20
942.5
 11
890
 21
942.5
  0
TEXT
  8
_0-7_枠細線
 62
    5
 10
895
 20
945
 40
12.5
 41
1
 50
0
  1
記号
  0
TEXT
  8
_0-7_枠細線
 62
    5
 10
996.875
 20
945
 40
12.5
 41
1
 50
0
  1
訂　 正　 記　 事
  0
TEXT
  8
_0-7_枠細線
 62
    5
 10
1181.25
 20
945
 40
12.5
 41
1
 50
0
  1
訂 正 年 月 日
  0
TEXT
  8
_0-7_枠細線
 62
    5
 10
1306.25
 20
945
 40
12.5
 41
1
 50
0
  1
備　　　　　考
  0
LINE
  8
_0-7_枠細線
  6
CONTINUOUS
 62
    5
 10
1185
 20
180
 11
1185
 21
100
  0
TEXT
  8
_0-7_枠細線
 62
    5
 10
937.5
 20
97.5
 40
17.5
 41
1
 50
0
  1
備考
  7
TATEGAKI
  0
TEXT
  8
_0-7_枠細線
 62
    5
 10
937.5
 20
137.5
 40
17.5
 41
1
 50
0
  1
品番
  7
TATEGAKI
  0
TEXT
  8
_0-7_枠細線
 62
    5
 10
937.5
 20
177.5
 40
17.5
 41
1
 50
0
  1
品名
  7
TATEGAKI
  0
LINE
  8
_0-7_枠細線
  6
CONTINUOUS
 62
    5
 10
1185
 20
140
 11
925
 21
140
  0
LINE
  8
_0-7_枠細線
  6
CONTINUOUS
 62
    5
 10
950
 20
180
 11
950
 21
60
  0
LINE
  8
_0-8_枠中線
  6
CONTINUOUS
 62
    5
 10
1425
 20
180
 11
925
 21
180
  0
LINE
  8
_0-8_枠中線
  6
CONTINUOUS
 62
    5
 10
925
 20
180
 11
925
 21
60
  0
LINE
  8
_0-7_枠細線
  6
CONTINUOUS
 62
    5
 10
1245
 20
180
 11
1245
 21
60
  0
TEXT
  8
_0-7_枠細線
 62
    5
 10
1192.5
 20
160
 40
15
 41
1
 50
0
  1
縮　尺
  0
TEXT
  8
_0-7_枠細線
 62
    5
 10
1194
 20
117.5
 40
20
 41
0.7000000000000001
 50
0
  1
１：５
  0
LINE
  8
_0-7_枠細線
  6
CONTINUOUS
 62
    5
 10
1185
 20
155
 11
1245
 21
155
  0
LINE
  8
_0-7_枠細線
  6
CONTINUOUS
 62
    5
 10
1245
 20
100
 11
925
 21
100
  0
LINE
  8
_0-7_枠細線
  6
CONTINUOUS
 62
    5
 10
1425
 20
90
 11
1245
 21
90
  0
LINE
  8
_0-7_枠細線
  6
CONTINUOUS
 62
    5
 10
1245
 20
120
 11
1425
 21
120
  0
LINE
  8
_0-7_枠細線
  6
CONTINUOUS
 62
    5
 10
1425
 20
140
 11
1245
 21
140
  0
TEXT
  8
_0-7_枠細線
 62
    5
 10
1255
 20
147.5
 40
25
 41
0.8
 50
0
  1
株式会社シマブン
  0
TEXT
  8
_0-7_枠細線
 62
    5
 10
1252.5
 20
60
 40
15
 41
1
 50
0
  1
年月日
  0
TEXT
  8
_0-7_枠細線
 62
    5
 10
1252.5
 20
75
 40
15
 41
1
 50
0
  1
作　成
  0
TEXT
  8
_0-7_枠細線
 62
    5
 10
1256.25
 20
122.5
 40
15
 41
1
 50
0
  1
承 認
  0
LINE
  8
_0-7_枠細線
  6
CONTINUOUS
 62
    5
 10
1305
 20
140
 11
1305
 21
60
  0
TEXT
  8
_0-7_枠細線
 62
    5
 10
1316.25
 20
122.5
 40
15
 41
1
 50
0
  1
検 図
  0
LINE
  8
_0-7_枠細線
  6
CONTINUOUS
 62
    5
 10
1365
 20
140
 11
1365
 21
90
  0
TEXT
  8
_0-7_枠細線
 62
    5
 10
1375
 20
95
 40
20
 41
1
 50
0
  1
藤戸
  0
TEXT
  8
_0-7_枠細線
 62
    5
 10
1376.25
 20
122.5
 40
15
 41
1
 50
0
  1
設 計
  0
TEXT
  8
_0-7_枠細線
 62
    5
 10
1255
 20
95
 40
20
 41
1
 50
0
  1
隠塚
  0
TEXT
  8
_0-7_枠細線
 62
    5
 10
1315
 20
95
 40
20
 41
1
 50
0
  1
渋田
  0
TEXT
  8
_0-7_枠細線
 62
    5
 10
1310
 20
67.5
 40
15
 41
0.6666666666666666
 50
0
  1
２０１２年０２月２９日
  0
LINE
  8
_0-7_枠細線
  6
CONTINUOUS
 62
    5
 10
1425
 20
925
 11
890
 21
925
  0
TEXT
  8
_0-7_枠細線
 62
    5
 10
938.85037037037023
 20
927.5
 40
12.500000000000002
 41
1
 50
0
  1
品番変更
  0
TEXT
  8
_0-7_枠細線
 62
    5
 10
1180
 20
927.5
 40
12.5
 41
0.7199999999999999
 50
0
  1
２０１５．０４．０１
  0
LINE
  8
_0-a_極細3
  6
CENTER1
 62
    7
 10
470.43065977017199
 20
252.0489432058173
 11
470.43065977017199
 21
307.16560987249022
  0
TEXT
  8
_0-7_枠細線
 62
    5
 10
420.50861213093816
 20
118.23440768958903
 40
25
 41
0.8
 50
0
  1
断面詳細図
  0
TEXT
  8
_0-7_枠細線
 62
    5
 10
535.45758188010586
 20
118.23440768958903
 40
20
 41
0.6
 50
0
  1
Ｓ＝１：３
  0
CIRCLE
  8
_0-a_極細3
  6
CONTINUOUS
 62
    7
 10
802.42534367809697
 20
278.50022014496381
 40
0.5530864197530718
  0
CIRCLE
  8
_0-a_極細3
  6
CONTINUOUS
 62
    7
 10
750.42534367809731
 20
279.4335534782972
 40
0.5530864197530718
  0
LINE
  8
_0-a_極細3
  6
CONTINUOUS
 62
    7
 10
738.76399310350507
 20
293.23477269126715
 11
738.76399310350507
 21
281.56810602460018
  0
LINE
  8
_0-a_極細3
  6
CONTINUOUS
 62
    7
 10
738.76399310350507
 20
293.23477269126715
 11
827.94174024861968
 21
293.23477269126715
  0
LINE
  8
_0-a_極細3
  6
CONTINUOUS
 62
    7
 10
730.43065977017159
 20
281.56810602460018
 11
827.94174024861968
 21
281.56810602460018
  0
LINE
  8
_0-a_極細3
  6
CONTINUOUS
 62
    7
 10
730.43065977017159
 20
293.23477269126715
 11
738.76399310350507
 21
293.23477269126715
  0
LINE
  8
_0-a_極細3
  6
CONTINUOUS
 62
    7
 10
730.43065977017159
 20
292.40143935793367
 11
730.43065977017159
 21
293.23477269126715
  0
LINE
  8
_0-a_極細3
  6
CONTINUOUS
 62
    7
 10
738.76399310350507
 20
285.23719230532515
 11
735.0949068227801
 21
281.56810602460018
  0
LINE
  8
_0-a_極細3
  6
CONTINUOUS
 62
    7
 10
738.76399310350507
 20
289.47983299244424
 11
730.85226613566101
 21
281.56810602460018
  0
LINE
  8
_0-a_極細3
  6
CONTINUOUS
 62
    7
 10
730.43065977017159
 20
285.38914034623031
 11
738.27629211520843
 21
293.23477269126715
  0
LINE
  8
_0-a_極細3
  6
CONTINUOUS
 62
    7
 10
730.43065977017159
 20
289.63178103334963
 11
734.03365142808889
 21
293.23477269126693
  0
LINE
  8
_0-a_極細3
  6
CONTINUOUS
 62
    7
 10
738.76399310350507
 20
291.72545048176153
 11
737.25467089399945
 21
293.23477269126715
  0
LINE
  8
_0-a_極細3
  6
CONTINUOUS
 62
    7
 10
738.76399310350507
 20
287.48280979464221
 11
733.01203020688035
 21
293.23477269126715
  0
LINE
  8
_0-a_極細3
  6
CONTINUOUS
 62
    7
 10
738.76399310350507
 20
283.24016910752289
 11
730.43065977017159
 21
291.57350244085637
  0
LINE
  8
_0-a_極細3
  6
CONTINUOUS
 62
    7
 10
736.19341549930823
 20
281.56810602460018
 11
730.43065977017159
 21
287.33086175373705
  0
LINE
  8
_0-a_極細3
  6
CONTINUOUS
 62
    7
 10
731.95077481218914
 20
281.56810602460018
 11
730.43065977017159
 21
283.08822106661773
  0
LINE
  8
_0-a_極細3
  6
CONTINUOUS
 62
    7
 10
807.21979850380785
 20
281.56810602460018
 11
818.88646454368563
 21
293.23477206447797
  0
LINE
  8
_0-a_極細3
  6
CONTINUOUS
 62
    7
 10
786.0065950682116
 20
281.56810602460041
 11
797.67326127403805
 21
293.23477223042664
  0
LINE
  8
_0-a_極細3
  6
CONTINUOUS
 62
    7
 10
764.79339163261511
 20
281.56810602460018
 11
776.46005800438979
 21
293.23477239637486
  0
LINE
  8
_0-a_極細3
  6
CONTINUOUS
 62
    7
 10
743.58018819701886
 20
281.56810602460018
 11
755.2468547347421
 21
293.23477256232354
  0
LINE
  8
_0-a_極細3
  6
DASHED2
 62
    7
 10
817.82640022160649
 20
281.56810602460041
 11
827.94174024861968
 21
291.68344605161383
  0
LINE
  8
_0-a_極細3
  6
DASHED2
 62
    7
 10
796.61319678600978
 20
281.56810602460018
 11
808.27986290886156
 21
293.23477214745208
  0
LINE
  8
_0-a_極細3
  6
DASHED2
 62
    7
 10
775.3999933504133
 20
281.56810602460018
 11
787.06665963921398
 21
293.23477231340075
  0
LINE
  8
_0-a_極細3
  6
DASHED2
 62
    7
 10
754.18678991481693
 20
281.56810602460018
 11
765.85345636956572
 21
293.2347724793492
  0
LINE
  8
_0-a_極細3
  6
DASHED2
 62
    7
 10
738.76399310350507
 20
287.3585126488847
 11
744.64025309991814
 21
293.23477264529765
  0
LINE
  8
_0-a_極細3
  6
CONTINUOUS
 62
    7
 10
797.09732643683822
 20
256.56810602460041
 11
797.09732643683822
 21
188.23477269126712
  0
LINE
  8
_0-a_極細3
  6
CONTINUOUS
 62
    7
 10
713.76399310350507
 20
188.23477269126712
 11
797.09732643683822
 21
188.23477269126712
  0
LINE
  8
_0-a_極細3
  6
CONTINUOUS
 62
    7
 10
797.09732643683822
 20
256.56810602460041
 11
827.94174024861968
 21
256.56810602460041
  0
LINE
  8
_0-a_極細3
  6
CONTINUOUS
 62
    7
 10
713.76399310350507
 20
188.23477269126712
 11
713.76399310350507
 21
161.99317239648806
  0
LINE
  8
_0-a_極細3
  6
CONTINUOUS
 62
    7
 10
805.38732885143145
 20
161.99317239648806
 11
827.94174029016051
 21
184.54758383521698
  0
LINE
  8
_0-a_極細3
  6
CONTINUOUS
 62
    7
 10
734.67665073277658
 20
161.99317239648806
 11
760.91825102755547
 21
188.23477269126712
  0
LINE
  8
_0-a_極細3
  6
CONTINUOUS
 62
    7
 10
797.09732643683822
 20
224.4138481005497
 11
827.94174024937502
 21
255.2582619130867
  0
LINE
  8
_0-a_極細3
  6
CONTINUOUS
 62
    7
 10
798.3162610395658
 20
161.99317239648806
 11
827.94174028608177
 21
191.61865164300409
  0
LINE
  8
_0-a_極細3
  6
CONTINUOUS
 62
    7
 10
727.60558292091093
 20
161.99317239648806
 11
753.84718321569028
 21
188.23477269126712
  0
LINE
  8
_0-a_極細3
  6
CONTINUOUS
 62
    7
 10
797.09732643683822
 20
231.48491591241523
 11
822.18051636947303
 21
256.56810584505001
  0
LINE
  8
_0-a_極細3
  6
CONTINUOUS
 62
    7
 10
791.24519322770038
 20
161.99317239648806
 11
827.94174028200314
 21
198.68971945079102
  0
LINE
  8
_0-a_極細3
  6
CONTINUOUS
 62
    7
 10
720.53451510904551
 20
161.99317239648806
 11
746.77611540382486
 21
188.23477269126712
  0
LINE
  8
_0-a_極細3
  6
CONTINUOUS
 62
    7
 10
797.09732643683822
 20
238.55598372428076
 11
815.10944860822394
 21
256.56810589566612
  0
CIRCLE
  8
_0-a_極細3
  6
CONTINUOUS
 62
    7
 10
700.1697881225424
 20
247.08910903385322
 40
0.5530864197530718
  0
CIRCLE
  8
_0-a_極細3
  6
CONTINUOUS
 62
    7
 10
710.12534367809758
 20
251.8891090338532
 40
0.5530864197530718
  0
CIRCLE
  8
_0-a_極細3
  6
CONTINUOUS
 62
    7
 10
706.03645478920907
 20
226.91133125607578
 40
0.5530864197530718
  0
CIRCLE
  8
_0-a_極細3
  6
CONTINUOUS
 62
    7
 10
723.56978812254238
 20
209.88910903385363
 40
0.5530864197530718
  0
CIRCLE
  8
_0-a_極細3
  6
CONTINUOUS
 62
    7
 10
705.73645478920889
 20
186.5891090338539
 40
0.5530864197530718
  0
CIRCLE
  8
_0-a_極細3
  6
CONTINUOUS
 62
    7
 10
696.40312145587586
 20
168.72244236718734
 40
0.5530864197530718
  0
CIRCLE
  8
_0-a_極細3
  6
CONTINUOUS
 62
    7
 10
707.86978812254222
 20
198.58910903385365
 40
0.5530864197530718
  0
CIRCLE
  8
_0-a_極細3
  6
CONTINUOUS
 62
    7
 10
721.73645478920889
 20
193.78910903385375
 40
0.5530864197530718
  0
CIRCLE
  8
_0-a_極細3
  6
CONTINUOUS
 62
    7
 10
748.66978812254229
 20
194.05577570052037
 40
0.5530864197530718
  0
CIRCLE
  8
_0-a_極細3
  6
CONTINUOUS
 62
    7
 10
736.66978812254229
 20
203.12244236718698
 40
0.5530864197530718
  0
CIRCLE
  8
_0-a_極細3
  6
CONTINUOUS
 62
    7
 10
747.86978812254222
 20
208.72244236718689
 40
0.5530864197530718
  0
CIRCLE
  8
_0-a_極細3
  6
CONTINUOUS
 62
    7
 10
735.892010344764
 20
263.01133125607521
 40
0.5530864197530718
  0
CIRCLE
  8
_0-a_極細3
  6
CONTINUOUS
 62
    7
 10
756.42534367809731
 20
262.30022014496421
 40
0.5530864197530718
  0
CIRCLE
  8
_0-a_極細3
  6
CONTINUOUS
 62
    7
 10
744.82534367809751
 20
248.30022014496421
 40
0.5530864197530718
  0
CIRCLE
  8
_0-a_極細3
  6
CONTINUOUS
 62
    7
 10
784.02534367809722
 20
195.10022014496485
 40
0.5530864197530718
  0
CIRCLE
  8
_0-a_極細3
  6
CONTINUOUS
 62
    7
 10
791.22534367809703
 20
209.10022014496488
 40
0.5530864197530718
  0
CIRCLE
  8
_0-a_極細3
  6
CONTINUOUS
 62
    7
 10
789.62534367809667
 20
229.90022014496461
 40
0.5530864197530718
  0
CIRCLE
  8
_0-a_極細3
  6
CONTINUOUS
 62
    7
 10
771.62534367809712
 20
251.1002201449644
 40
0.5530864197530718
  0
CIRCLE
  8
_0-a_極細3
  6
CONTINUOUS
 62
    7
 10
788.42534367809685
 20
270.70022014496408
 40
0.5530864197530718
  0
CIRCLE
  8
_0-a_極細3
  6
CONTINUOUS
 62
    7
 10
785.62534367809678
 20
243.90022014496438
 40
0.5530864197530718
  0
CIRCLE
  8
_0-a_極細3
  6
CONTINUOUS
 62
    7
 10
815.22534367809669
 20
265.10022014496417
 40
0.5530864197530718
  0
CIRCLE
  8
_0-a_極細3
  6
CONTINUOUS
 62
    7
 10
810.42534367809651
 20
278.87028187335909
 40
1.825531472681392
  0
CIRCLE
  8
_0-a_極細3
  6
CONTINUOUS
 62
    7
 10
794.78089923365235
 20
263.40361520669262
 40
1.825531472681392
  0
CIRCLE
  8
_0-a_極細3
  6
CONTINUOUS
 62
    7
 10
739.3586770114307
 20
269.9813929844704
 40
1.825531472681392
  0
CIRCLE
  8
_0-a_極細3
  6
CONTINUOUS
 62
    7
 10
771.35867701143025
 20
237.98139298447055
 40
1.825531472681392
  0
CIRCLE
  8
_0-a_極細3
  6
CONTINUOUS
 62
    7
 10
700.96423256698699
 20
193.43139298447113
 40
1.825531472681392
  0
CIRCLE
  8
_0-a_極細3
  6
CONTINUOUS
 62
    7
 10
711.18645478920871
 20
223.29805965113769
 40
1.825531472681392
  0
CIRCLE
  8
_0-a_極細3
  6
CONTINUOUS
 62
    7
 10
746.38645478920853
 20
200.89805965113783
 40
1.825531472681392
  0
CIRCLE
  8
_0-a_極細3
  6
CONTINUOUS
 62
    7
 10
792.65164742449224
 20
190.71100725916835
 40
1.825531472681392
  0
CIRCLE
  8
_0-a_極細3
  6
CONTINUOUS
 62
    7
 10
741.98645478920855
 20
244.09805965113733
 40
1.825531472681392
  0
CIRCLE
  8
_0-a_極細3
  6
CONTINUOUS
 62
    7
 10
694.52040540649296
 20
238.67485424410097
 40
0.5530864197530718
  0
CIRCLE
  8
_0-a_極細3
  6
CONTINUOUS
 62
    7
 10
694.72040540649368
 20
214.71929868854571
 40
0.5530864197530718
  0
CIRCLE
  8
_0-a_極細3
  6
CONTINUOUS
 62
    7
 10
771.75867701143034
 20
275.4480596511371
 40
1.825531472681392
  0
LINE
  8
_0-a_極細3
  6
CONTINUOUS
 62
    7
 10
681.26399310350416
 20
263.23477269126715
 11
680.43065977017125
 21
263.23477269126715
  0
LINE
  8
_0-a_極細3
  6
CONTINUOUS
 62
    7
 10
680.43065977017125
 20
263.23477269126715
 11
680.43065977017125
 21
161.99317239648806
  0
CIRCLE
  8
_0-a_極細3
  6
CONTINUOUS
 62
    7
 10
686.4150556122546
 20
223.17799792274243
 40
0.5530864197530718
  0
CIRCLE
  8
_0-a_極細3
  6
CONTINUOUS
 62
    7
 10
687.72163997439429
 20
183.92244236718716
 40
0.5530864197530718
  0
CIRCLE
  8
_0-a_極細3
  6
CONTINUOUS
 62
    7
 10
687.0827510855047
 20
249.87583742891573
 40
1.825531472681392
  0
CIRCLE
  8
_0-a_極細3
  6
CONTINUOUS
 62
    7
 10
690.03089923365269
 20
177.25361520669324
 40
1.825531472681392
  0
LINE
  8
_0-a_極細3
  6
CONTINUOUS
 62
    7
 10
774.07072799065702
 20
213.11647385377071
 11
779.20103014054223
 21
227.21186316555918
  0
LINE
  8
_0-a_極細3
  6
CONTINUOUS
 62
    7
 10
724.07668531686068
 20
247.27548386480535
 11
718.94638316697592
 21
233.18009455301694
  0
LINE
  8
_0-a_極細3
  6
CONTINUOUS
 62
    7
 10
779.20103014054223
 20
227.21186316555918
 11
724.07668531686068
 21
247.27548386480535
  0
LINE
  8
_0-a_極細3
  6
CONTINUOUS
 62
    7
 10
774.07072799065702
 20
213.11647385377071
 11
718.94638316697592
 21
233.18009455301694
  0
LINE
  8
_0-a_極細3
  6
CENTER1
 62
    7
 10
781.59131245759227
 20
218.360538469635
 11
717.56029197502687
 21
241.66592395467049
  0
LINE
  8
_0-a_極細3
  6
CONTINUOUS
 62
    7
 10
755.43065977017159
 20
188.23477269126712
 11
755.43065977017159
 21
232.32033403958326
  0
LINE
  8
_0-a_極細3
  6
CONTINUOUS
 62
    7
 10
755.43065977017159
 20
232.32033403958326
 11
770.43065977017159
 21
232.32033403958326
  0
LINE
  8
_0-a_極細3
  6
CONTINUOUS
 62
    7
 10
770.43065977017159
 20
232.32033403958326
 11
770.43065977017159
 21
188.23477269126712
  0
LINE
  8
_0-a_極細3
  6
CENTER1
 62
    7
 10
762.93065977017159
 20
179.95803240681425
 11
762.93065977017159
 21
236.59605420419282
  0
CIRCLE
  8
_0-a_極細3
  6
CONTINUOUS
 62
    7
 10
757.04756590032002
 20
245.3965164412607
 40
0.5530864197530718
  0
CIRCLE
  8
_0-a_極細3
  6
CONTINUOUS
 62
    7
 10
779.26375245724694
 20
232.05330656471779
 40
0.5530864197530718
  0
LINE
  8
_0-d_寸法3
  6
CONTINUOUS
 62
    7
 10
730.43065977017204
 20
214.9014393579339
 11
730.43065977017204
 21
197.7567474570285
  0
LINE
  8
_0-d_寸法3
  6
CONTINUOUS
 62
    7
 10
730.43065977017204
 20
202.7567474570285
 11
720.77140150728144
 21
200.16855700600331
  0
LINE
  8
_0-d_寸法3
  6
CONTINUOUS
 62
    7
 10
730.43065977017204
 20
202.7567474570285
 11
720.77140150728144
 21
205.34493790805371
  0
LINE
  8
_0-d_寸法3
  6
CONTINUOUS
 62
    7
 10
680.43065977017204
 20
253.23477269126715
 11
680.43065977017204
 21
197.7567474570285
  0
LINE
  8
_0-d_寸法3
  6
CONTINUOUS
 62
    7
 10
680.43065977017204
 20
202.7567474570285
 11
690.08991803306276
 21
205.34493790805374
  0
LINE
  8
_0-d_寸法3
  6
CONTINUOUS
 62
    7
 10
680.43065977017204
 20
202.7567474570285
 11
690.08991803306276
 21
200.16855700600331
  0
LINE
  8
_0-d_寸法3
  6
CONTINUOUS
 62
    7
 10
730.43065977017204
 20
202.7567474570285
 11
680.43065977017204
 21
202.7567474570285
  0
TEXT
  8
_0-d_寸法3
 62
    7
 10
697.93065977017204
 20
202.75674745702844
 40
15
 41
1
 50
0.0000000000005428
  1
30
  0
ARC
  8
_0-b_細線3
  6
CONTINUOUS
 62
    7
 10
725.43065977017159
 20
268.23477269126715
 40
5
 50
269.99999999999977
 51
359.99999999999966
  0
LINE
  8
_0-b_細線3
  6
CONTINUOUS
 62
    7
 10
730.43065977017159
 20
268.23477269126715
 11
730.43065977017159
 21
292.40143935793367
  0
LINE
  8
_0-b_細線3
  6
CONTINUOUS
 62
    7
 10
725.43065977017159
 20
263.23477269126715
 11
681.26399310350416
 21
263.23477269126715
  0
LINE
  8
_0-b_細線3
  6
CONTINUOUS
 62
    7
 10
680.43065977017125
 20
264.06810602460041
 11
681.26399310350416
 21
263.23477269126715
  0
LINE
  8
_0-b_細線3
  6
CONTINUOUS
 62
    7
 10
680.43065977017125
 20
267.4014393579339
 11
680.43065977017125
 21
264.06810602460041
  0
LINE
  8
_0-b_細線3
  6
CONTINUOUS
 62
    7
 10
681.26399310350416
 20
268.23477269126715
 11
680.43065977017125
 21
267.4014393579339
  0
LINE
  8
_0-b_細線3
  6
CONTINUOUS
 62
    7
 10
725.43065977017159
 20
268.23477269126715
 11
681.26399310350416
 21
268.23477269126715
  0
LINE
  8
_0-b_細線3
  6
CONTINUOUS
 62
    7
 10
729.59732643683867
 20
293.23477269126715
 11
730.43065977017159
 21
292.40143935793367
  0
LINE
  8
_0-b_細線3
  6
CONTINUOUS
 62
    7
 10
726.26399310350507
 20
293.23477269126715
 11
729.59732643683867
 21
293.23477269126715
  0
LINE
  8
_0-b_細線3
  6
CONTINUOUS
 62
    7
 10
725.43065977017159
 20
292.40143935793367
 11
726.26399310350507
 21
293.23477269126715
  0
LINE
  8
_0-b_細線3
  6
CONTINUOUS
 62
    7
 10
725.43065977017159
 20
268.23477269126715
 11
725.43065977017159
 21
292.40143935793367
  0
CIRCLE
  8
_0-a_極細3
  6
CONTINUOUS
 62
    7
 10
197.04756590032275
 20
278.19373866348246
 40
0.5530864197530718
  0
LINE
  8
_0-a_極細3
  6
CONTINUOUS
 62
    7
 10
202.0973264368385
 20
293.23477269126715
 11
202.0973264368385
 21
281.56810602460018
  0
LINE
  8
_0-a_極細3
  6
CONTINUOUS
 62
    7
 10
202.0973264368385
 20
293.23477269126715
 11
112.91957929172391
 21
293.23477269126715
  0
LINE
  8
_0-a_極細3
  6
CONTINUOUS
 62
    7
 10
210.43065977017199
 20
281.56810602460018
 11
112.91957929172391
 21
281.56810602460018
  0
LINE
  8
_0-a_極細3
  6
CONTINUOUS
 62
    7
 10
210.43065977017199
 20
293.23477269126715
 11
202.0973264368385
 21
293.23477269126715
  0
LINE
  8
_0-a_極細3
  6
CONTINUOUS
 62
    7
 10
210.43065977017199
 20
292.40143935793367
 11
210.43065977017199
 21
293.23477269126715
  0
LINE
  8
_0-a_極細3
  6
CONTINUOUS
 62
    7
 10
210.23256951381242
 20
281.56810602460018
 11
210.4306597701715
 21
281.76619628095978
  0
LINE
  8
_0-a_極細3
  6
CONTINUOUS
 62
    7
 10
205.98992882669336
 20
281.56810602460018
 11
210.43065977017199
 21
286.00883696807887
  0
LINE
  8
_0-a_極細3
  6
CONTINUOUS
 62
    7
 10
202.0973264368385
 20
281.91814432186493
 11
210.43065977017199
 21
290.25147765519819
  0
LINE
  8
_0-a_極細3
  6
CONTINUOUS
 62
    7
 10
202.0973264368385
 20
286.16078500898402
 11
209.17131411912123
 21
293.23477269126715
  0
LINE
  8
_0-a_極細3
  6
CONTINUOUS
 62
    7
 10
202.0973264368385
 20
290.40342569610357
 11
204.92867343200209
 21
293.23477269126715
  0
LINE
  8
_0-a_極細3
  6
CONTINUOUS
 62
    7
 10
210.43065977017199
 20
290.95380581900849
 11
208.14969289791355
 21
293.23477269126715
  0
LINE
  8
_0-a_極細3
  6
CONTINUOUS
 62
    7
 10
210.43065977017199
 20
286.71116513188917
 11
203.90705221079401
 21
293.23477269126715
  0
LINE
  8
_0-a_極細3
  6
CONTINUOUS
 62
    7
 10
202.0973264368385
 20
290.80185777810334
 11
210.43065977017199
 21
282.46852444477008
  0
LINE
  8
_0-a_極細3
  6
CONTINUOUS
 62
    7
 10
202.0973264368385
 20
286.55921709098402
 11
207.08843750322188
 21
281.56810602460018
  0
LINE
  8
_0-a_極細3
  6
CONTINUOUS
 62
    7
 10
202.0973264368385
 20
282.3165764038647
 11
202.84579681610282
 21
281.56810602460018
  0
LINE
  8
_0-a_極細3
  6
CONTINUOUS
 62
    7
 10
193.26200675920788
 20
281.56810601847292
 11
202.0973264368385
 21
290.40342569610357
  0
LINE
  8
_0-a_極細3
  6
CONTINUOUS
 62
    7
 10
172.0488033089004
 20
281.56810600376184
 11
183.71546999640572
 21
293.23477269126693
  0
LINE
  8
_0-a_極細3
  6
CONTINUOUS
 62
    7
 10
150.83559985859253
 20
281.56810598905031
 11
162.50226656080889
 21
293.23477269126715
  0
LINE
  8
_0-a_極細3
  6
CONTINUOUS
 62
    7
 10
129.62239640828457
 20
281.56810597433923
 11
141.28906312521252
 21
293.23477269126715
  0
LINE
  8
_0-a_極細3
  6
CONTINUOUS
 62
    7
 10
112.91957929172391
 20
286.07849229337444
 11
120.07585968961614
 21
293.23477269126693
  0
LINE
  8
_0-a_極細3
  6
DASHED2
 62
    7
 10
182.65540503405418
 20
281.56810601111738
 11
194.32207171420387
 21
293.23477269126715
  0
LINE
  8
_0-a_極細3
  6
DASHED2
 62
    7
 10
161.44220158374623
 20
281.56810599640608
 11
173.10886827860756
 21
293.23477269126715
  0
LINE
  8
_0-a_極細3
  6
DASHED2
 62
    7
 10
140.22899813343878
 20
281.56810598169477
 11
151.89566484301068
 21
293.23477269126715
  0
LINE
  8
_0-a_極細3
  6
DASHED2
 62
    7
 10
119.01579468313088
 20
281.56810596698369
 11
130.68246140741437
 21
293.23477269126715
  0
LINE
  8
_0-a_極細3
  6
CONTINUOUS
 62
    7
 10
143.76399310350502
 20
256.56810602460041
 11
143.76399310350502
 21
188.23477269126712
  0
LINE
  8
_0-a_極細3
  6
CONTINUOUS
 62
    7
 10
227.0973264368385
 20
188.23477269126712
 11
143.76399310350502
 21
188.23477269126712
  0
LINE
  8
_0-a_極細3
  6
CONTINUOUS
 62
    7
 10
143.76399310350502
 20
256.56810602460041
 11
112.91957929172391
 21
256.56810602460041
  0
LINE
  8
_0-a_極細3
  6
CONTINUOUS
 62
    7
 10
227.0973264368385
 20
188.23477269126712
 11
227.0973264368385
 21
161.99317239648806
  0
LINE
  8
_0-a_極細3
  6
CONTINUOUS
 62
    7
 10
189.6753518718487
 20
161.99317251292499
 11
215.91695205019136
 21
188.23477269126712
  0
LINE
  8
_0-a_極細3
  6
CONTINUOUS
 62
    7
 10
118.96467397320741
 20
161.99317273293815
 11
145.20627393153646
 21
188.23477269126712
  0
LINE
  8
_0-a_極細3
  6
CONTINUOUS
 62
    7
 10
112.91957929172391
 20
226.65875617010943
 11
142.82892914621513
 21
256.56810602460041
  0
LINE
  8
_0-a_極細3
  6
CONTINUOUS
 62
    7
 10
182.6042840819845
 20
161.99317253492637
 11
208.8458842383256
 21
188.23477269126712
  0
LINE
  8
_0-a_極細3
  6
CONTINUOUS
 62
    7
 10
112.91957929172391
 20
163.01914586332009
 11
143.76399310350502
 21
193.86355967510141
  0
LINE
  8
_0-a_極細3
  6
CONTINUOUS
 62
    7
 10
112.91957929172391
 20
233.72982398197496
 11
135.75786133434931
 21
256.56810602460041
  0
LINE
  8
_0-a_極細3
  6
CONTINUOUS
 62
    7
 10
175.53321629212078
 20
161.99317255692768
 11
201.77481642646029
 21
188.23477269126712
  0
LINE
  8
_0-a_極細3
  6
CONTINUOUS
 62
    7
 10
112.91957929172391
 20
170.09021367518562
 11
143.76399310350502
 21
200.93462748696695
  0
LINE
  8
_0-a_極細3
  6
CONTINUOUS
 62
    7
 10
112.91957929172391
 20
240.80089179384018
 11
128.68679352248407
 21
256.56810602460041
  0
CIRCLE
  8
_0-a_極細3
  6
CONTINUOUS
 62
    7
 10
130.81546713489109
 20
271.77151644126047
 40
0.5530864197530718
  0
CIRCLE
  8
_0-a_極細3
  6
CONTINUOUS
 62
    7
 10
120.48460293736063
 20
261.81596088570495
 40
0.5530864197530718
  0
CIRCLE
  8
_0-a_極細3
  6
CONTINUOUS
 62
    7
 10
131.09201034476783
 20
262.88262755237156
 40
0.5530864197530718
  0
CIRCLE
  8
_0-a_極細3
  6
CONTINUOUS
 62
    7
 10
143.71423256699012
 20
264.83818310792708
 40
0.5530864197530718
  0
CIRCLE
  8
_0-a_極細3
  6
CONTINUOUS
 62
    7
 10
172.15867701143401
 20
276.57151644126043
 40
0.5530864197530718
  0
CIRCLE
  8
_0-a_極細3
  6
CONTINUOUS
 62
    7
 10
202.73645478921154
 20
270.34929421903826
 40
0.5530864197530718
  0
CIRCLE
  8
_0-a_極細3
  6
CONTINUOUS
 62
    7
 10
177.84756590032288
 20
269.81596088570495
 40
0.5530864197530718
  0
CIRCLE
  8
_0-a_極細3
  6
CONTINUOUS
 62
    7
 10
150.65867701143446
 20
257.5826275523716
 40
0.5530864197530718
  0
CIRCLE
  8
_0-a_極細3
  6
CONTINUOUS
 62
    7
 10
171.10312145587841
 20
256.33818310792708
 40
0.5530864197530718
  0
CIRCLE
  8
_0-a_極細3
  6
CONTINUOUS
 62
    7
 10
196.16978812254501
 20
252.60484977459399
 40
0.5530864197530718
  0
CIRCLE
  8
_0-a_極細3
  6
CONTINUOUS
 62
    7
 10
183.54756590032267
 20
246.91596088570509
 40
0.5530864197530718
  0
CIRCLE
  8
_0-a_極細3
  6
CONTINUOUS
 62
    7
 10
168.79201034476765
 20
233.40484977459383
 40
0.5530864197530718
  0
CIRCLE
  8
_0-a_極細3
  6
CONTINUOUS
 62
    7
 10
196.16978812254501
 20
240.69373866348292
 40
0.5530864197530718
  0
CIRCLE
  8
_0-a_極細3
  6
CONTINUOUS
 62
    7
 10
155.0586770114341
 20
213.58262755237206
 40
0.5530864197530718
  0
CIRCLE
  8
_0-a_極細3
  6
CONTINUOUS
 62
    7
 10
149.36978812254523
 20
195.62707199681654
 40
0.5530864197530718
  0
CIRCLE
  8
_0-a_極細3
  6
CONTINUOUS
 62
    7
 10
158.08089923365642
 20
202.38262755237201
 40
0.5530864197530718
  0
CIRCLE
  8
_0-a_極細3
  6
CONTINUOUS
 62
    7
 10
164.30312145587862
 20
193.84929421903877
 40
0.5530864197530718
  0
CIRCLE
  8
_0-a_極細3
  6
CONTINUOUS
 62
    7
 10
203.60312145587841
 20
211.73818310792765
 40
0.5530864197530718
  0
CIRCLE
  8
_0-a_極細3
  6
CONTINUOUS
 62
    7
 10
192.40312145587851
 20
206.22707199681645
 40
0.5530864197530718
  0
CIRCLE
  8
_0-a_極細3
  6
CONTINUOUS
 62
    7
 10
198.62534367810071
 20
203.73818310792763
 40
0.5530864197530718
  0
CIRCLE
  8
_0-a_極細3
  6
CONTINUOUS
 62
    7
 10
195.06978812254502
 20
194.49373866348338
 40
0.5530864197530718
  0
CIRCLE
  8
_0-a_極細3
  6
CONTINUOUS
 62
    7
 10
214.98089923365612
 20
195.56040533014993
 40
0.5530864197530718
  0
CIRCLE
  8
_0-a_極細3
  6
CONTINUOUS
 62
    7
 10
227.95867701143379
 20
198.76040533015001
 40
0.5530864197530718
  0
CIRCLE
  8
_0-a_極細3
  6
CONTINUOUS
 62
    7
 10
241.6475659003226
 20
183.82707199681681
 40
0.5530864197530718
  0
CIRCLE
  8
_0-a_極細3
  6
CONTINUOUS
 62
    7
 10
234.71423256698927
 20
168.89373866348342
 40
0.5530864197530718
  0
CIRCLE
  8
_0-a_極細3
  6
CONTINUOUS
 62
    7
 10
218.0475659003227
 20
212.50855347829796
 40
0.5530864197530718
  0
CIRCLE
  8
_0-a_極細3
  6
CONTINUOUS
 62
    7
 10
232.80312145587814
 20
246.64188681163114
 40
0.5530864197530718
  0
CIRCLE
  8
_0-a_極細3
  6
CONTINUOUS
 62
    7
 10
247.91423256698906
 20
236.68633125607562
 40
0.5530864197530718
  0
CIRCLE
  8
_0-a_極細3
  6
CONTINUOUS
 62
    7
 10
248.44756590032233
 20
218.7307757005201
 40
0.5530864197530718
  0
CIRCLE
  8
_0-a_極細3
  6
CONTINUOUS
 62
    7
 10
213.20312145587826
 20
248.46410903385322
 40
0.5530864197530718
  0
CIRCLE
  8
_0-a_極細3
  6
CONTINUOUS
 62
    7
 10
192.91423256698948
 20
270.4480596511371
 40
1.825531472681392
  0
CIRCLE
  8
_0-a_極細3
  6
CONTINUOUS
 62
    7
 10
141.15211286555444
 20
277.37767392583487
 40
1.825531472681392
  0
CIRCLE
  8
_0-a_極細3
  6
CONTINUOUS
 62
    7
 10
167.69201034476737
 20
247.64805965113715
 40
1.825531472681392
  0
CIRCLE
  8
_0-a_極細3
  6
CONTINUOUS
 62
    7
 10
148.09201034476743
 20
209.6480596511376
 40
1.825531472681392
  0
CIRCLE
  8
_0-a_極細3
  6
CONTINUOUS
 62
    7
 10
201.29201034476679
 20
196.84805965113787
 40
1.825531472681392
  0
CIRCLE
  8
_0-a_極細3
  6
CONTINUOUS
 62
    7
 10
237.26978812254444
 20
193.24805965113796
 40
1.825531472681392
  0
CIRCLE
  8
_0-a_極細3
  6
CONTINUOUS
 62
    7
 10
242.0697881225442
 20
174.58139298447151
 40
1.825531472681392
  0
CIRCLE
  8
_0-a_極細3
  6
CONTINUOUS
 62
    7
 10
120.95503332447507
 20
278.27028187335918
 40
1.825531472681392
  0
LINE
  8
_0-a_極細3
  6
CONTINUOUS
 62
    7
 10
259.5973264368385
 20
263.23477269126715
 11
260.43065977017147
 21
263.23477269126715
  0
LINE
  8
_0-a_極細3
  6
CONTINUOUS
 62
    7
 10
260.43065977017147
 20
263.23477269126715
 11
260.43065977017147
 21
161.99317239648806
  0
CIRCLE
  8
_0-a_極細3
  6
CONTINUOUS
 62
    7
 10
253.5432256225431
 20
247.24805965113774
 40
1.825531472681392
  0
CIRCLE
  8
_0-a_極細3
  6
CONTINUOUS
 62
    7
 10
252.55126960402592
 20
192.53818310792781
 40
0.5530864197530718
  0
CIRCLE
  8
_0-a_極細3
  6
CONTINUOUS
 62
    7
 10
253.88460293735989
 20
169.882112074758
 40
0.5530864197530718
  0
CIRCLE
  8
_0-a_極細3
  6
CONTINUOUS
 62
    7
 10
241.51423256698484
 20
228.13694854002691
 40
1.825531472681392
  0
LINE
  8
_0-a_極細3
  6
CONTINUOUS
 62
    7
 10
166.7905915496867
 20
213.11647385377071
 11
161.66028939980151
 21
227.21186316555918
  0
LINE
  8
_0-a_極細3
  6
CONTINUOUS
 62
    7
 10
216.78463422348287
 20
247.27548386480535
 11
221.91493637336762
 21
233.18009455301694
  0
LINE
  8
_0-a_極細3
  6
CONTINUOUS
 62
    7
 10
161.66028939980151
 20
227.21186316555918
 11
216.78463422348287
 21
247.27548386480535
  0
LINE
  8
_0-a_極細3
  6
CONTINUOUS
 62
    7
 10
166.7905915496867
 20
213.11647385377071
 11
221.91493637336762
 21
233.18009455301694
  0
LINE
  8
_0-a_極細3
  6
CENTER1
 62
    7
 10
159.27000708275131
 20
218.360538469635
 11
223.30102756531687
 21
241.66592395467049
  0
LINE
  8
_0-a_極細3
  6
CONTINUOUS
 62
    7
 10
185.43065977017199
 20
188.23477269126712
 11
185.43065977017199
 21
232.32033403958326
  0
LINE
  8
_0-a_極細3
  6
CONTINUOUS
 62
    7
 10
185.43065977017199
 20
232.32033403958326
 11
170.43065977017199
 21
232.32033403958326
  0
LINE
  8
_0-a_極細3
  6
CONTINUOUS
 62
    7
 10
170.43065977017199
 20
232.32033403958326
 11
170.43065977017199
 21
188.23477269126712
  0
CIRCLE
  8
_0-a_極細3
  6
CONTINUOUS
 62
    7
 10
199.81052886328598
 20
218.15670162644597
 40
1.825531472681392
  0
CIRCLE
  8
_0-a_極細3
  6
CONTINUOUS
 62
    7
 10
221.51917083859459
 20
224.37892384866828
 40
1.825531472681392
  0
LINE
  8
_0-a_極細3
  6
CENTER1
 62
    7
 10
177.93065977017199
 20
179.95803240681425
 11
177.93065977017199
 21
236.59605420419282
  0
LINE
  8
_0-d_寸法3
  6
CONTINUOUS
 62
    7
 10
200.43065977017199
 20
293.23477269126721
 11
154.48062869158221
 21
293.23477269126715
  0
LINE
  8
_0-d_寸法3
  6
CONTINUOUS
 62
    7
 10
159.48062869158221
 20
293.23477269126715
 11
162.06881914260742
 21
283.57551442837644
  0
LINE
  8
_0-d_寸法3
  6
CONTINUOUS
 62
    7
 10
159.48062869158221
 20
293.23477269126715
 11
156.892438240557
 21
283.57551442837649
  0
LINE
  8
_0-d_寸法3
  6
CONTINUOUS
 62
    7
 10
198.43065977017204
 20
263.23477269126721
 11
154.48062869158269
 21
263.23477269126715
  0
LINE
  8
_0-d_寸法3
  6
CONTINUOUS
 62
    7
 10
159.48062869158269
 20
263.23477269126715
 11
156.89243824055745
 21
272.89403095415781
  0
LINE
  8
_0-d_寸法3
  6
CONTINUOUS
 62
    7
 10
159.48062869158269
 20
263.23477269126715
 11
162.06881914260791
 21
272.89403095415787
  0
LINE
  8
_0-d_寸法3
  6
CONTINUOUS
 62
    7
 10
159.48062869158221
 20
293.23477269126715
 11
159.48062869158269
 21
263.23477269126715
  0
TEXT
  8
_0-d_寸法3
 62
    7
 10
159.48062869158269
 20
270.73477269126715
 40
15
 41
1
 50
90
  1
18
  0
LINE
  8
_0-d_寸法3
  6
CONTINUOUS
 62
    7
 10
200.43065977017199
 20
263.23477269126698
 11
154.48062869158269
 21
263.23477269126693
  0
LINE
  8
_0-d_寸法3
  6
CONTINUOUS
 62
    7
 10
159.48062869158269
 20
263.23477269126693
 11
162.06881914260791
 21
253.57551442837627
  0
LINE
  8
_0-d_寸法3
  6
CONTINUOUS
 62
    7
 10
159.48062869158269
 20
263.23477269126693
 11
156.89243824055745
 21
253.57551442837629
  0
LINE
  8
_0-d_寸法3
  6
CONTINUOUS
 62
    7
 10
198.43065977017204
 20
224.9014393579337
 11
154.48062869158269
 21
224.9014393579337
  0
LINE
  8
_0-d_寸法3
  6
CONTINUOUS
 62
    7
 10
159.48062869158269
 20
224.9014393579337
 11
156.89243824055745
 21
234.56069762082436
  0
LINE
  8
_0-d_寸法3
  6
CONTINUOUS
 62
    7
 10
159.48062869158269
 20
224.9014393579337
 11
162.06881914260791
 21
234.56069762082436
  0
LINE
  8
_0-d_寸法3
  6
CONTINUOUS
 62
    7
 10
159.48062869158269
 20
263.23477269126693
 11
159.48062869158269
 21
224.9014393579337
  0
TEXT
  8
_0-d_寸法3
 62
    7
 10
159.48062869158269
 20
236.56810602460041
 40
15
 41
1
 50
90
  1
23
  0
LINE
  8
_0-d_寸法3
  6
CONTINUOUS
 62
    7
 10
210.43065977017179
 20
214.9014393579339
 11
210.43065977017142
 21
197.7567474570285
  0
LINE
  8
_0-d_寸法3
  6
CONTINUOUS
 62
    7
 10
210.4306597701715
 20
202.7567474570285
 11
220.08991803306225
 21
205.34493790805371
  0
LINE
  8
_0-d_寸法3
  6
CONTINUOUS
 62
    7
 10
210.4306597701715
 20
202.7567474570285
 11
220.08991803306225
 21
200.16855700600331
  0
LINE
  8
_0-d_寸法3
  6
CONTINUOUS
 62
    7
 10
260.43065977017147
 20
253.23477269126715
 11
260.43065977017108
 21
197.7567474570285
  0
LINE
  8
_0-d_寸法3
  6
CONTINUOUS
 62
    7
 10
260.43065977017108
 20
202.7567474570285
 11
250.77140150728042
 21
200.16855700600331
  0
LINE
  8
_0-d_寸法3
  6
CONTINUOUS
 62
    7
 10
260.43065977017108
 20
202.7567474570285
 11
250.77140150728042
 21
205.34493790805374
  0
LINE
  8
_0-d_寸法3
  6
CONTINUOUS
 62
    7
 10
210.4306597701715
 20
202.7567474570285
 11
260.43065977017108
 21
202.7567474570285
  0
TEXT
  8
_0-d_寸法3
 62
    7
 10
227.9306597701715
 20
202.7567474570285
 40
15
 41
1
 50
0
  1
30
  0
ARC
  8
_0-b_細線3
  6
CONTINUOUS
 62
    7
 10
215.43065977017199
 20
268.23477269126715
 40
5
 50
179.99999999999983
 51
269.99999999999977
  0
LINE
  8
_0-b_細線3
  6
CONTINUOUS
 62
    7
 10
210.43065977017199
 20
268.23477269126715
 11
210.43065977017199
 21
292.40143935793367
  0
LINE
  8
_0-b_細線3
  6
CONTINUOUS
 62
    7
 10
215.43065977017199
 20
263.23477269126715
 11
259.5973264368385
 21
263.23477269126715
  0
LINE
  8
_0-b_細線3
  6
CONTINUOUS
 62
    7
 10
260.43065977017147
 20
264.06810602460041
 11
259.5973264368385
 21
263.23477269126715
  0
LINE
  8
_0-b_細線3
  6
CONTINUOUS
 62
    7
 10
260.43065977017147
 20
267.4014393579339
 11
260.43065977017147
 21
264.06810602460041
  0
LINE
  8
_0-b_細線3
  6
CONTINUOUS
 62
    7
 10
259.5973264368385
 20
268.23477269126715
 11
260.43065977017147
 21
267.4014393579339
  0
LINE
  8
_0-b_細線3
  6
CONTINUOUS
 62
    7
 10
215.43065977017199
 20
268.23477269126715
 11
259.5973264368385
 21
268.23477269126715
  0
LINE
  8
_0-b_細線3
  6
CONTINUOUS
 62
    7
 10
211.26399310350507
 20
293.23477269126715
 11
210.43065977017199
 21
292.40143935793367
  0
LINE
  8
_0-b_細線3
  6
CONTINUOUS
 62
    7
 10
214.5973264368385
 20
293.23477269126715
 11
211.26399310350507
 21
293.23477269126715
  0
LINE
  8
_0-b_細線3
  6
CONTINUOUS
 62
    7
 10
215.43065977017199
 20
292.40143935793367
 11
214.5973264368385
 21
293.23477269126715
  0
LINE
  8
_0-b_細線3
  6
CONTINUOUS
 62
    7
 10
215.43065977017199
 20
268.23477269126715
 11
215.43065977017199
 21
292.40143935793367
  0
LINE
  8
_0-d_寸法3
  6
CONTINUOUS
 62
    7
 10
210.43065977017199
 20
298.23477269126715
 11
210.43065977017199
 21
408.23477102292236
  0
LINE
  8
_0-d_寸法3
  6
CONTINUOUS
 62
    7
 10
210.43065977017199
 20
403.23477102292236
 11
220.08991803306273
 21
405.82296147394754
  0
LINE
  8
_0-d_寸法3
  6
CONTINUOUS
 62
    7
 10
210.43065977017199
 20
403.23477102292236
 11
220.08991803306273
 21
400.64658057189718
  0
LINE
  8
_0-d_寸法3
  6
CONTINUOUS
 62
    7
 10
730.43065977017159
 20
298.23477269126715
 11
730.43065977017204
 21
408.23477102292236
  0
LINE
  8
_0-d_寸法3
  6
CONTINUOUS
 62
    7
 10
730.43065977017204
 20
403.23477102292236
 11
720.77140150728144
 21
400.64658057189718
  0
LINE
  8
_0-d_寸法3
  6
CONTINUOUS
 62
    7
 10
730.43065977017204
 20
403.23477102292236
 11
720.77140150728144
 21
405.82296147394766
  0
LINE
  8
_0-d_寸法3
  6
CONTINUOUS
 62
    7
 10
210.43065977017199
 20
403.23477102292236
 11
730.43065977017204
 21
403.23477102292236
  0
TEXT
  8
_0-d_寸法3
 62
    7
 10
459.18065977017159
 20
403.23477102292236
 40
15
 41
1
 50
0
  1
312
  0
LINE
  8
_0-d_寸法3
  6
CONTINUOUS
 62
    7
 10
260.43065977017147
 20
258.23477269126715
 11
260.43065977017147
 21
197.7567474570285
  0
LINE
  8
_0-d_寸法3
  6
CONTINUOUS
 62
    7
 10
260.43065977017147
 20
202.7567474570285
 11
270.08991803306219
 21
205.34493790805371
  0
LINE
  8
_0-d_寸法3
  6
CONTINUOUS
 62
    7
 10
260.43065977017147
 20
202.7567474570285
 11
270.08991803306219
 21
200.16855700600331
  0
LINE
  8
_0-d_寸法3
  6
CONTINUOUS
 62
    7
 10
680.43065977017125
 20
258.23477269126715
 11
680.43065977017125
 21
197.7567474570285
  0
LINE
  8
_0-d_寸法3
  6
CONTINUOUS
 62
    7
 10
680.43065977017125
 20
202.7567474570285
 11
670.77140150728042
 21
200.16855700600331
  0
LINE
  8
_0-d_寸法3
  6
CONTINUOUS
 62
    7
 10
680.43065977017125
 20
202.7567474570285
 11
670.77140150728042
 21
205.34493790805374
  0
LINE
  8
_0-d_寸法3
  6
CONTINUOUS
 62
    7
 10
260.43065977017147
 20
202.7567474570285
 11
680.43065977017125
 21
202.7567474570285
  0
TEXT
  8
_0-d_寸法3
 62
    7
 10
459.18065977017159
 20
202.7567474570285
 40
15
 41
1
 50
0
  1
252
  0
LINE
  8
_0-a_極細3
  6
CENTER1
 62
    7
 10
733.09741483799371
 20
279.9014393579339
 11
208.77666732563142
 21
279.9014393579339
  0
ARC
  8
_0-b_細線3
  6
CONTINUOUS
 62
    7
 10
517.09732643683901
 20
370.76391364829601
 40
97.696522151886498
 50
263.73185704547677
 51
276.26814295452255
  0
ARC
  8
_0-b_細線3
  6
CONTINUOUS
 62
    7
 10
517.09732643683901
 20
189.03896506757135
 40
97.696522151886498
 50
83.731857045477128
 51
96.268142954522901
  0
ARC
  8
_0-b_細線3
  6
CONTINUOUS
 62
    7
 10
493.76399310350553
 20
370.76391364829601
 40
97.696522151886498
 50
263.73185704547706
 51
276.26814295452255
  0
ARC
  8
_0-b_細線3
  6
CONTINUOUS
 62
    7
 10
493.76399310350553
 20
189.03896506757135
 40
97.696522151886498
 50
83.731857045477128
 51
96.268142954522617
  0
LINE
  8
_0-b_細線3
  6
CONTINUOUS
 62
    7
 10
488.76399310350553
 20
291.23477269126693
 11
488.76399310350553
 21
293.23477269126693
  0
LINE
  8
_0-b_細線3
  6
CONTINUOUS
 62
    7
 10
483.09732643683947
 20
291.23477269126693
 11
488.76399310350553
 21
291.23477269126693
  0
LINE
  8
_0-b_細線3
  6
CONTINUOUS
 62
    7
 10
483.09732643683947
 20
268.23477269126693
 11
483.09732643683947
 21
291.23477269126693
  0
LINE
  8
_0-b_細線3
  6
CONTINUOUS
 62
    7
 10
481.09732643683941
 20
268.23477269126693
 11
483.09732643683947
 21
268.23477269126693
  0
LINE
  8
_0-b_細線3
  6
CONTINUOUS
 62
    7
 10
481.09732643683941
 20
291.23477269126693
 11
481.09732643683941
 21
268.23477269126693
  0
LINE
  8
_0-b_細線3
  6
CONTINUOUS
 62
    7
 10
475.4306597701725
 20
291.23477269126693
 11
481.09732643683941
 21
291.23477269126693
  0
LINE
  8
_0-b_細線3
  6
CONTINUOUS
 62
    7
 10
475.4306597701725
 20
293.23477269126693
 11
475.4306597701725
 21
291.23477269126693
  0
LINE
  8
_0-b_細線3
  6
CONTINUOUS
 62
    7
 10
488.76399310350553
 20
293.23477269126693
 11
475.4306597701725
 21
293.23477269126693
  0
LINE
  8
_0-b_細線3
  6
CONTINUOUS
 62
    7
 10
512.09732643683947
 20
291.23477269126693
 11
512.09732643683947
 21
293.23477269126693
  0
LINE
  8
_0-b_細線3
  6
CONTINUOUS
 62
    7
 10
506.43065977017244
 20
291.23477269126693
 11
512.09732643683947
 21
291.23477269126693
  0
LINE
  8
_0-b_細線3
  6
CONTINUOUS
 62
    7
 10
506.43065977017244
 20
268.23477269126693
 11
506.43065977017244
 21
291.23477269126693
  0
LINE
  8
_0-b_細線3
  6
CONTINUOUS
 62
    7
 10
504.4306597701725
 20
268.23477269126693
 11
506.43065977017244
 21
268.23477269126693
  0
LINE
  8
_0-b_細線3
  6
CONTINUOUS
 62
    7
 10
504.4306597701725
 20
291.23477269126693
 11
504.4306597701725
 21
268.23477269126693
  0
LINE
  8
_0-b_細線3
  6
CONTINUOUS
 62
    7
 10
498.76399310350592
 20
291.23477269126693
 11
504.4306597701725
 21
291.23477269126693
  0
LINE
  8
_0-b_細線3
  6
CONTINUOUS
 62
    7
 10
498.76399310350592
 20
293.23477269126693
 11
498.76399310350592
 21
291.23477269126693
  0
LINE
  8
_0-b_細線3
  6
CONTINUOUS
 62
    7
 10
512.09732643683947
 20
293.23477269126693
 11
498.76399310350592
 21
293.23477269126693
  0
ARC
  8
_0-b_細線3
  6
CONTINUOUS
 62
    7
 10
470.4306597701725
 20
370.76391364829601
 40
97.696522151886498
 50
263.73185704547677
 51
276.2681429545222
  0
ARC
  8
_0-b_細線3
  6
CONTINUOUS
 62
    7
 10
470.4306597701725
 20
189.03896506757135
 40
97.696522151886498
 50
83.731857045477398
 51
96.268142954522872
  0
LINE
  8
_0-b_細線3
  6
CONTINUOUS
 62
    7
 10
465.4306597701725
 20
291.23477269126693
 11
465.4306597701725
 21
293.23477269126693
  0
LINE
  8
_0-b_細線3
  6
CONTINUOUS
 62
    7
 10
459.76399310350592
 20
291.23477269126693
 11
465.4306597701725
 21
291.23477269126693
  0
LINE
  8
_0-b_細線3
  6
CONTINUOUS
 62
    7
 10
459.76399310350592
 20
268.23477269126693
 11
459.76399310350592
 21
291.23477269126693
  0
LINE
  8
_0-b_細線3
  6
CONTINUOUS
 62
    7
 10
457.76399310350598
 20
268.23477269126693
 11
459.76399310350592
 21
268.23477269126693
  0
LINE
  8
_0-b_細線3
  6
CONTINUOUS
 62
    7
 10
457.76399310350598
 20
291.23477269126693
 11
457.76399310350598
 21
268.23477269126693
  0
LINE
  8
_0-b_細線3
  6
CONTINUOUS
 62
    7
 10
452.09732643683901
 20
291.23477269126693
 11
457.76399310350598
 21
291.23477269126693
  0
LINE
  8
_0-b_細線3
  6
CONTINUOUS
 62
    7
 10
452.09732643683901
 20
293.23477269126693
 11
452.09732643683901
 21
291.23477269126693
  0
LINE
  8
_0-b_細線3
  6
CONTINUOUS
 62
    7
 10
465.4306597701725
 20
293.23477269126693
 11
452.09732643683901
 21
293.23477269126693
  0
ARC
  8
_0-b_細線3
  6
CONTINUOUS
 62
    7
 10
447.09732643683901
 20
370.76391364829601
 40
97.696522151886498
 50
263.73185704547677
 51
276.26814295452255
  0
ARC
  8
_0-b_細線3
  6
CONTINUOUS
 62
    7
 10
447.09732643683901
 20
189.03896506757135
 40
97.696522151886498
 50
83.731857045477128
 51
96.268142954522872
  0
ARC
  8
_0-b_細線3
  6
CONTINUOUS
 62
    7
 10
540.43065977017159
 20
370.76391364829601
 40
97.696522151886498
 50
263.73185704547706
 51
276.26814295452255
  0
ARC
  8
_0-b_細線3
  6
CONTINUOUS
 62
    7
 10
540.43065977017159
 20
189.03896506757135
 40
97.696522151886498
 50
83.731857045476872
 51
96.268142954522617
  0
LINE
  8
_0-b_細線3
  6
CONTINUOUS
 62
    7
 10
535.4306597701725
 20
291.23477269126693
 11
535.4306597701725
 21
293.23477269126693
  0
LINE
  8
_0-b_細線3
  6
CONTINUOUS
 62
    7
 10
529.76399310350507
 20
291.23477269126693
 11
535.4306597701725
 21
291.23477269126693
  0
LINE
  8
_0-b_細線3
  6
CONTINUOUS
 62
    7
 10
529.76399310350507
 20
268.23477269126693
 11
529.76399310350507
 21
291.23477269126693
  0
LINE
  8
_0-b_細線3
  6
CONTINUOUS
 62
    7
 10
527.76399310350553
 20
268.23477269126693
 11
529.76399310350507
 21
268.23477269126693
  0
LINE
  8
_0-b_細線3
  6
CONTINUOUS
 62
    7
 10
527.76399310350553
 20
291.23477269126693
 11
527.76399310350553
 21
268.23477269126693
  0
LINE
  8
_0-b_細線3
  6
CONTINUOUS
 62
    7
 10
522.09732643683856
 20
291.23477269126693
 11
527.76399310350553
 21
291.23477269126693
  0
LINE
  8
_0-b_細線3
  6
CONTINUOUS
 62
    7
 10
522.09732643683856
 20
293.23477269126693
 11
522.09732643683856
 21
291.23477269126693
  0
LINE
  8
_0-b_細線3
  6
CONTINUOUS
 62
    7
 10
535.4306597701725
 20
293.23477269126693
 11
522.09732643683856
 21
293.23477269126693
  0
ARC
  8
_0-b_細線3
  6
CONTINUOUS
 62
    7
 10
563.76399310350462
 20
370.76391364829601
 40
97.696522151886498
 50
263.73185704547706
 51
276.2681429545222
  0
ARC
  8
_0-b_細線3
  6
CONTINUOUS
 62
    7
 10
563.76399310350462
 20
189.03896506757135
 40
97.696522151886498
 50
83.731857045477128
 51
96.268142954522617
  0
LINE
  8
_0-b_細線3
  6
CONTINUOUS
 62
    7
 10
558.76399310350507
 20
291.23477269126693
 11
558.76399310350507
 21
293.23477269126693
  0
LINE
  8
_0-b_細線3
  6
CONTINUOUS
 62
    7
 10
553.09732643683765
 20
291.23477269126693
 11
558.76399310350507
 21
291.23477269126693
  0
LINE
  8
_0-b_細線3
  6
CONTINUOUS
 62
    7
 10
553.09732643683765
 20
268.23477269126693
 11
553.09732643683765
 21
291.23477269126693
  0
LINE
  8
_0-b_細線3
  6
CONTINUOUS
 62
    7
 10
551.09732643683856
 20
268.23477269126693
 11
553.09732643683765
 21
268.23477269126693
  0
LINE
  8
_0-b_細線3
  6
CONTINUOUS
 62
    7
 10
551.09732643683856
 20
291.23477269126693
 11
551.09732643683856
 21
268.23477269126693
  0
LINE
  8
_0-b_細線3
  6
CONTINUOUS
 62
    7
 10
545.43065977017159
 20
291.23477269126693
 11
551.09732643683856
 21
291.23477269126693
  0
LINE
  8
_0-b_細線3
  6
CONTINUOUS
 62
    7
 10
545.43065977017159
 20
293.23477269126693
 11
545.43065977017159
 21
291.23477269126693
  0
LINE
  8
_0-b_細線3
  6
CONTINUOUS
 62
    7
 10
558.76399310350507
 20
293.23477269126693
 11
545.43065977017159
 21
293.23477269126693
  0
ARC
  8
_0-b_細線3
  6
CONTINUOUS
 62
    7
 10
587.09732643683765
 20
370.76391364829601
 40
97.696522151886498
 50
263.73185704547677
 51
276.2681429545222
  0
ARC
  8
_0-b_細線3
  6
CONTINUOUS
 62
    7
 10
587.09732643683765
 20
189.03896506757135
 40
97.696522151886498
 50
83.731857045477398
 51
96.268142954522872
  0
LINE
  8
_0-b_細線3
  6
CONTINUOUS
 62
    7
 10
582.09732643683765
 20
291.23477269126693
 11
582.09732643683765
 21
293.23477269126693
  0
LINE
  8
_0-b_細線3
  6
CONTINUOUS
 62
    7
 10
576.43065977017068
 20
291.23477269126693
 11
582.09732643683765
 21
291.23477269126693
  0
LINE
  8
_0-b_細線3
  6
CONTINUOUS
 62
    7
 10
576.43065977017068
 20
268.23477269126693
 11
576.43065977017068
 21
291.23477269126693
  0
LINE
  8
_0-b_細線3
  6
CONTINUOUS
 62
    7
 10
574.43065977017113
 20
268.23477269126693
 11
576.43065977017068
 21
268.23477269126693
  0
LINE
  8
_0-b_細線3
  6
CONTINUOUS
 62
    7
 10
574.43065977017113
 20
291.23477269126693
 11
574.43065977017113
 21
268.23477269126693
  0
LINE
  8
_0-b_細線3
  6
CONTINUOUS
 62
    7
 10
568.76399310350462
 20
291.23477269126693
 11
574.43065977017113
 21
291.23477269126693
  0
LINE
  8
_0-b_細線3
  6
CONTINUOUS
 62
    7
 10
568.76399310350462
 20
293.23477269126693
 11
568.76399310350462
 21
291.23477269126693
  0
LINE
  8
_0-b_細線3
  6
CONTINUOUS
 62
    7
 10
582.09732643683765
 20
293.23477269126693
 11
568.76399310350462
 21
293.23477269126693
  0
LINE
  8
_0-b_細線3
  6
CONTINUOUS
 62
    7
 10
605.43065977017068
 20
291.23477269126693
 11
605.43065977017068
 21
293.23477269126693
  0
LINE
  8
_0-b_細線3
  6
CONTINUOUS
 62
    7
 10
599.76399310350371
 20
291.23477269126693
 11
605.43065977017068
 21
291.23477269126693
  0
LINE
  8
_0-b_細線3
  6
CONTINUOUS
 62
    7
 10
599.76399310350371
 20
268.23477269126693
 11
599.76399310350371
 21
291.23477269126693
  0
LINE
  8
_0-b_細線3
  6
CONTINUOUS
 62
    7
 10
597.76399310350371
 20
268.23477269126693
 11
599.76399310350371
 21
268.23477269126693
  0
LINE
  8
_0-b_細線3
  6
CONTINUOUS
 62
    7
 10
597.76399310350371
 20
291.23477269126693
 11
597.76399310350371
 21
268.23477269126693
  0
LINE
  8
_0-b_細線3
  6
CONTINUOUS
 62
    7
 10
592.09732643683719
 20
291.23477269126693
 11
597.76399310350371
 21
291.23477269126693
  0
LINE
  8
_0-b_細線3
  6
CONTINUOUS
 62
    7
 10
592.09732643683719
 20
293.23477269126693
 11
592.09732643683719
 21
291.23477269126693
  0
LINE
  8
_0-b_細線3
  6
CONTINUOUS
 62
    7
 10
605.43065977017068
 20
293.23477269126693
 11
592.09732643683719
 21
293.23477269126693
  0
LINE
  8
_0-b_細線3
  6
CONTINUOUS
 62
    7
 10
442.09732643683901
 20
291.23477269126693
 11
442.09732643683901
 21
293.23477269126693
  0
LINE
  8
_0-b_細線3
  6
CONTINUOUS
 62
    7
 10
436.43065977017244
 20
291.23477269126693
 11
442.09732643683901
 21
291.23477269126693
  0
LINE
  8
_0-b_細線3
  6
CONTINUOUS
 62
    7
 10
436.43065977017244
 20
268.23477269126693
 11
436.43065977017244
 21
291.23477269126693
  0
LINE
  8
_0-b_細線3
  6
CONTINUOUS
 62
    7
 10
434.4306597701725
 20
268.23477269126693
 11
436.43065977017244
 21
268.23477269126693
  0
LINE
  8
_0-b_細線3
  6
CONTINUOUS
 62
    7
 10
434.4306597701725
 20
291.23477269126693
 11
434.4306597701725
 21
268.23477269126693
  0
LINE
  8
_0-b_細線3
  6
CONTINUOUS
 62
    7
 10
428.76399310350553
 20
291.23477269126693
 11
434.4306597701725
 21
291.23477269126693
  0
LINE
  8
_0-b_細線3
  6
CONTINUOUS
 62
    7
 10
428.76399310350553
 20
293.23477269126693
 11
428.76399310350553
 21
291.23477269126693
  0
LINE
  8
_0-b_細線3
  6
CONTINUOUS
 62
    7
 10
442.09732643683901
 20
293.23477269126693
 11
428.76399310350553
 21
293.23477269126693
  0
ARC
  8
_0-b_細線3
  6
CONTINUOUS
 62
    7
 10
423.76399310350553
 20
370.76391364829601
 40
97.696522151886498
 50
263.73185704547677
 51
276.2681429545222
  0
ARC
  8
_0-b_細線3
  6
CONTINUOUS
 62
    7
 10
423.76399310350553
 20
189.03896506757135
 40
97.696522151886498
 50
83.731857045477398
 51
96.268142954522872
  0
LINE
  8
_0-b_細線3
  6
CONTINUOUS
 62
    7
 10
418.76399310350553
 20
291.23477269126693
 11
418.76399310350553
 21
293.23477269126693
  0
LINE
  8
_0-b_細線3
  6
CONTINUOUS
 62
    7
 10
413.09732643683947
 20
291.23477269126693
 11
418.76399310350553
 21
291.23477269126693
  0
LINE
  8
_0-b_細線3
  6
CONTINUOUS
 62
    7
 10
413.09732643683947
 20
268.23477269126693
 11
413.09732643683947
 21
291.23477269126693
  0
LINE
  8
_0-b_細線3
  6
CONTINUOUS
 62
    7
 10
411.09732643683941
 20
268.23477269126693
 11
413.09732643683947
 21
268.23477269126693
  0
LINE
  8
_0-b_細線3
  6
CONTINUOUS
 62
    7
 10
411.09732643683941
 20
291.23477269126693
 11
411.09732643683941
 21
268.23477269126693
  0
LINE
  8
_0-b_細線3
  6
CONTINUOUS
 62
    7
 10
405.4306597701725
 20
291.23477269126693
 11
411.09732643683941
 21
291.23477269126693
  0
LINE
  8
_0-b_細線3
  6
CONTINUOUS
 62
    7
 10
405.4306597701725
 20
293.23477269126693
 11
405.4306597701725
 21
291.23477269126693
  0
LINE
  8
_0-b_細線3
  6
CONTINUOUS
 62
    7
 10
418.76399310350553
 20
293.23477269126693
 11
405.4306597701725
 21
293.23477269126693
  0
ARC
  8
_0-b_細線3
  6
CONTINUOUS
 62
    7
 10
400.4306597701725
 20
370.76391364829601
 40
97.696522151886498
 50
263.73185704547654
 51
276.2681429545222
  0
ARC
  8
_0-b_細線3
  6
CONTINUOUS
 62
    7
 10
400.4306597701725
 20
189.03896506757135
 40
97.696522151886498
 50
83.731857045477398
 51
96.268142954523142
  0
LINE
  8
_0-b_細線3
  6
CONTINUOUS
 62
    7
 10
395.4306597701725
 20
291.23477269126693
 11
395.4306597701725
 21
293.23477269126693
  0
LINE
  8
_0-b_細線3
  6
CONTINUOUS
 62
    7
 10
389.76399310350553
 20
291.23477269126693
 11
395.4306597701725
 21
291.23477269126693
  0
LINE
  8
_0-b_細線3
  6
CONTINUOUS
 62
    7
 10
389.76399310350553
 20
268.23477269126693
 11
389.76399310350553
 21
291.23477269126693
  0
LINE
  8
_0-b_細線3
  6
CONTINUOUS
 62
    7
 10
387.76399310350547
 20
268.23477269126693
 11
389.76399310350553
 21
268.23477269126693
  0
LINE
  8
_0-b_細線3
  6
CONTINUOUS
 62
    7
 10
387.76399310350547
 20
291.23477269126693
 11
387.76399310350547
 21
268.23477269126693
  0
LINE
  8
_0-b_細線3
  6
CONTINUOUS
 62
    7
 10
382.0973264368385
 20
291.23477269126693
 11
387.76399310350547
 21
291.23477269126693
  0
LINE
  8
_0-b_細線3
  6
CONTINUOUS
 62
    7
 10
382.0973264368385
 20
293.23477269126693
 11
382.0973264368385
 21
291.23477269126693
  0
LINE
  8
_0-b_細線3
  6
CONTINUOUS
 62
    7
 10
395.4306597701725
 20
293.23477269126693
 11
382.0973264368385
 21
293.23477269126693
  0
ARC
  8
_0-b_細線3
  6
CONTINUOUS
 62
    7
 10
377.0973264368385
 20
370.76391364829601
 40
97.696522151886498
 50
263.73185704547706
 51
276.26814295452255
  0
ARC
  8
_0-b_細線3
  6
CONTINUOUS
 62
    7
 10
377.0973264368385
 20
189.03896506757135
 40
97.696522151886498
 50
83.731857045477128
 51
96.268142954522617
  0
LINE
  8
_0-b_細線3
  6
CONTINUOUS
 62
    7
 10
372.0973264368385
 20
291.23477269126693
 11
372.0973264368385
 21
293.23477269126693
  0
LINE
  8
_0-b_細線3
  6
CONTINUOUS
 62
    7
 10
366.43065977017244
 20
291.23477269126693
 11
372.0973264368385
 21
291.23477269126693
  0
LINE
  8
_0-b_細線3
  6
CONTINUOUS
 62
    7
 10
366.43065977017244
 20
268.23477269126693
 11
366.43065977017244
 21
291.23477269126693
  0
LINE
  8
_0-b_細線3
  6
CONTINUOUS
 62
    7
 10
364.4306597701725
 20
268.23477269126693
 11
366.43065977017244
 21
268.23477269126693
  0
LINE
  8
_0-b_細線3
  6
CONTINUOUS
 62
    7
 10
364.4306597701725
 20
291.23477269126693
 11
364.4306597701725
 21
268.23477269126693
  0
LINE
  8
_0-b_細線3
  6
CONTINUOUS
 62
    7
 10
358.76399310350553
 20
291.23477269126693
 11
364.4306597701725
 21
291.23477269126693
  0
LINE
  8
_0-b_細線3
  6
CONTINUOUS
 62
    7
 10
358.76399310350553
 20
293.23477269126693
 11
358.76399310350553
 21
291.23477269126693
  0
LINE
  8
_0-b_細線3
  6
CONTINUOUS
 62
    7
 10
372.0973264368385
 20
293.23477269126693
 11
358.76399310350553
 21
293.23477269126693
  0
LINE
  8
_0-d_寸法3
  6
CONTINUOUS
 62
    7
 10
505.4306597701725
 20
303.23477269126693
 11
505.4306597701725
 21
344.90143935793435
  0
LINE
  8
_0-d_寸法3
  6
CONTINUOUS
 62
    7
 10
505.4306597701725
 20
339.90143935793435
 11
515.08991803306321
 21
342.48962980895953
  0
LINE
  8
_0-d_寸法3
  6
CONTINUOUS
 62
    7
 10
505.4306597701725
 20
339.90143935793435
 11
515.08991803306321
 21
337.31324890690922
  0
LINE
  8
_0-d_寸法3
  6
CONTINUOUS
 62
    7
 10
528.76399310350564
 20
303.23477269126693
 11
528.76399310350598
 21
344.90143935793435
  0
LINE
  8
_0-d_寸法3
  6
CONTINUOUS
 62
    7
 10
528.76399310350598
 20
339.90143935793435
 11
519.10473484061527
 21
337.31324890690922
  0
LINE
  8
_0-d_寸法3
  6
CONTINUOUS
 62
    7
 10
528.76399310350598
 20
339.90143935793435
 11
519.10473484061527
 21
342.48962980895959
  0
LINE
  8
_0-d_寸法3
  6
CONTINUOUS
 62
    7
 10
505.4306597701725
 20
339.90143935793435
 11
528.76399310350598
 21
339.90143935793435
  0
TEXT
  8
_0-d_寸法3
 62
    7
 10
509.59732643683947
 20
339.90143935793435
 40
15
 41
1
 50
0
  1
14
  0
LINE
  8
_0-d_寸法3
  6
CONTINUOUS
 62
    7
 10
528.76399310350598
 20
339.90143935793435
 11
538.4232513663967
 21
342.48962980895948
  0
LINE
  8
_0-d_寸法3
  6
CONTINUOUS
 62
    7
 10
528.76399310350598
 20
339.90143935793435
 11
538.4232513663967
 21
337.31324890690917
  0
LINE
  8
_0-d_寸法3
  6
CONTINUOUS
 62
    7
 10
552.09732643683947
 20
303.23477269126693
 11
552.09732643683947
 21
344.90143935793435
  0
LINE
  8
_0-d_寸法3
  6
CONTINUOUS
 62
    7
 10
552.09732643683947
 20
339.90143935793435
 11
542.43806817394875
 21
337.31324890690922
  0
LINE
  8
_0-d_寸法3
  6
CONTINUOUS
 62
    7
 10
552.09732643683947
 20
339.90143935793435
 11
542.43806817394875
 21
342.48962980895959
  0
LINE
  8
_0-d_寸法3
  6
CONTINUOUS
 62
    7
 10
528.76399310350598
 20
339.90143935793435
 11
552.09732643683947
 21
339.90143935793435
  0
TEXT
  8
_0-d_寸法3
 62
    7
 10
532.9306597701725
 20
339.90143935793435
 40
15
 41
1
 50
0
  1
14
  0
ARC
  8
_0-b_細線3
  6
CONTINUOUS
 62
    7
 10
353.76399310350553
 20
370.76391364829601
 40
97.696522151886498
 50
263.73185704547677
 51
276.2681429545222
  0
ARC
  8
_0-b_細線3
  6
CONTINUOUS
 62
    7
 10
353.76399310350553
 20
189.03896506757135
 40
97.696522151886498
 50
83.731857045477398
 51
96.268142954522872
  0
LINE
  8
_0-b_細線3
  6
CONTINUOUS
 62
    7
 10
348.76399310350553
 20
291.23477269126693
 11
348.76399310350553
 21
293.23477269126693
  0
LINE
  8
_0-b_細線3
  6
CONTINUOUS
 62
    7
 10
343.09732643683896
 20
291.23477269126693
 11
348.76399310350553
 21
291.23477269126693
  0
LINE
  8
_0-b_細線3
  6
CONTINUOUS
 62
    7
 10
343.09732643683896
 20
268.23477269126693
 11
343.09732643683896
 21
291.23477269126693
  0
LINE
  8
_0-b_細線3
  6
CONTINUOUS
 62
    7
 10
341.09732643683901
 20
268.23477269126693
 11
343.09732643683896
 21
268.23477269126693
  0
LINE
  8
_0-b_細線3
  6
CONTINUOUS
 62
    7
 10
341.09732643683901
 20
291.23477269126693
 11
341.09732643683901
 21
268.23477269126693
  0
LINE
  8
_0-b_細線3
  6
CONTINUOUS
 62
    7
 10
335.43065977017199
 20
291.23477269126693
 11
341.09732643683901
 21
291.23477269126693
  0
LINE
  8
_0-b_細線3
  6
CONTINUOUS
 62
    7
 10
335.43065977017199
 20
293.23477269126693
 11
335.43065977017199
 21
291.23477269126693
  0
LINE
  8
_0-b_細線3
  6
CONTINUOUS
 62
    7
 10
348.76399310350553
 20
293.23477269126693
 11
335.43065977017199
 21
293.23477269126693
  0
ARC
  8
_0-b_細線3
  6
CONTINUOUS
 62
    7
 10
330.43065977017199
 20
370.76391364829601
 40
97.696522151886498
 50
263.73185704547677
 51
276.26814295452255
  0
ARC
  8
_0-b_細線3
  6
CONTINUOUS
 62
    7
 10
330.43065977017199
 20
189.03896506757135
 40
97.696522151886498
 50
83.731857045477128
 51
96.268142954522872
  0
LINE
  8
_0-b_細線3
  6
CONTINUOUS
 62
    7
 10
325.43065977017199
 20
291.23477269126693
 11
325.43065977017199
 21
293.23477269126693
  0
LINE
  8
_0-b_細線3
  6
CONTINUOUS
 62
    7
 10
319.76399310350541
 20
291.23477269126693
 11
325.43065977017199
 21
291.23477269126693
  0
LINE
  8
_0-b_細線3
  6
CONTINUOUS
 62
    7
 10
319.76399310350541
 20
268.23477269126693
 11
319.76399310350541
 21
291.23477269126693
  0
LINE
  8
_0-b_細線3
  6
CONTINUOUS
 62
    7
 10
317.76399310350547
 20
268.23477269126693
 11
319.76399310350541
 21
268.23477269126693
  0
LINE
  8
_0-b_細線3
  6
CONTINUOUS
 62
    7
 10
317.76399310350547
 20
291.23477269126693
 11
317.76399310350547
 21
268.23477269126693
  0
LINE
  8
_0-b_細線3
  6
CONTINUOUS
 62
    7
 10
312.0973264368385
 20
291.23477269126693
 11
317.76399310350547
 21
291.23477269126693
  0
LINE
  8
_0-b_細線3
  6
CONTINUOUS
 62
    7
 10
312.0973264368385
 20
293.23477269126693
 11
312.0973264368385
 21
291.23477269126693
  0
LINE
  8
_0-b_細線3
  6
CONTINUOUS
 62
    7
 10
325.43065977017199
 20
293.23477269126693
 11
312.0973264368385
 21
293.23477269126693
  0
ARC
  8
_0-b_細線3
  6
CONTINUOUS
 62
    7
 10
610.43065977017022
 20
370.76391364829601
 40
97.696522151886498
 50
263.73185704547677
 51
276.26814295452255
  0
ARC
  8
_0-b_細線3
  6
CONTINUOUS
 62
    7
 10
610.43065977017022
 20
189.03896506757135
 40
97.696522151886498
 50
83.731857045477128
 51
96.268142954522872
  0
LINE
  8
_0-b_細線3
  6
CONTINUOUS
 62
    7
 10
628.76399310350371
 20
291.23477269126693
 11
628.76399310350371
 21
293.23477269126693
  0
LINE
  8
_0-b_細線3
  6
CONTINUOUS
 62
    7
 10
623.09732643683628
 20
291.23477269126693
 11
628.76399310350371
 21
291.23477269126693
  0
LINE
  8
_0-b_細線3
  6
CONTINUOUS
 62
    7
 10
623.09732643683628
 20
268.23477269126693
 11
623.09732643683628
 21
291.23477269126693
  0
LINE
  8
_0-b_細線3
  6
CONTINUOUS
 62
    7
 10
621.09732643683674
 20
268.23477269126693
 11
623.09732643683628
 21
268.23477269126693
  0
LINE
  8
_0-b_細線3
  6
CONTINUOUS
 62
    7
 10
621.09732643683674
 20
291.23477269126693
 11
621.09732643683674
 21
268.23477269126693
  0
LINE
  8
_0-b_細線3
  6
CONTINUOUS
 62
    7
 10
615.43065977016977
 20
291.23477269126693
 11
621.09732643683674
 21
291.23477269126693
  0
LINE
  8
_0-b_細線3
  6
CONTINUOUS
 62
    7
 10
615.43065977016977
 20
293.23477269126693
 11
615.43065977016977
 21
291.23477269126693
  0
LINE
  8
_0-b_細線3
  6
CONTINUOUS
 62
    7
 10
628.76399310350371
 20
293.23477269126693
 11
615.43065977016977
 21
293.23477269126693
  0
ARC
  8
_0-b_細線3
  6
CONTINUOUS
 62
    7
 10
307.0973264368385
 20
370.76391364829601
 40
97.696522151886498
 50
263.73185704547706
 51
276.26814295452255
  0
ARC
  8
_0-b_細線3
  6
CONTINUOUS
 62
    7
 10
307.0973264368385
 20
189.03896506757135
 40
97.696522151886498
 50
83.731857045477128
 51
96.268142954522617
  0
LINE
  8
_0-b_細線3
  6
CONTINUOUS
 62
    7
 10
302.0973264368385
 20
291.23477269126693
 11
302.0973264368385
 21
293.23477269126693
  0
LINE
  8
_0-b_細線3
  6
CONTINUOUS
 62
    7
 10
296.43065977017244
 20
291.23477269126693
 11
302.0973264368385
 21
291.23477269126693
  0
LINE
  8
_0-b_細線3
  6
CONTINUOUS
 62
    7
 10
296.43065977017244
 20
268.23477269126693
 11
296.43065977017244
 21
291.23477269126693
  0
LINE
  8
_0-b_細線3
  6
CONTINUOUS
 62
    7
 10
294.43065977017238
 20
268.23477269126693
 11
296.43065977017244
 21
268.23477269126693
  0
LINE
  8
_0-b_細線3
  6
CONTINUOUS
 62
    7
 10
294.43065977017238
 20
291.23477269126693
 11
294.43065977017238
 21
268.23477269126693
  0
LINE
  8
_0-b_細線3
  6
CONTINUOUS
 62
    7
 10
288.76399310350553
 20
291.23477269126693
 11
294.43065977017238
 21
291.23477269126693
  0
LINE
  8
_0-b_細線3
  6
CONTINUOUS
 62
    7
 10
288.76399310350553
 20
293.23477269126693
 11
288.76399310350553
 21
291.23477269126693
  0
LINE
  8
_0-b_細線3
  6
CONTINUOUS
 62
    7
 10
302.0973264368385
 20
293.23477269126693
 11
288.76399310350553
 21
293.23477269126693
  0
ARC
  8
_0-b_細線3
  6
CONTINUOUS
 62
    7
 10
633.7639931035028
 20
370.76391364829601
 40
97.696522151886498
 50
263.73185704547706
 51
276.26814295452255
  0
ARC
  8
_0-b_細線3
  6
CONTINUOUS
 62
    7
 10
633.7639931035028
 20
189.03896506757135
 40
97.696522151886498
 50
83.731857045476872
 51
96.268142954522617
  0
LINE
  8
_0-b_細線3
  6
CONTINUOUS
 62
    7
 10
652.0973264368364
 20
291.23477269126693
 11
652.0973264368364
 21
293.23477269126693
  0
LINE
  8
_0-b_細線3
  6
CONTINUOUS
 62
    7
 10
646.43065977016886
 20
291.23477269126693
 11
652.0973264368364
 21
291.23477269126693
  0
LINE
  8
_0-b_細線3
  6
CONTINUOUS
 62
    7
 10
646.43065977016886
 20
268.23477269126693
 11
646.43065977016886
 21
291.23477269126693
  0
LINE
  8
_0-b_細線3
  6
CONTINUOUS
 62
    7
 10
644.43065977016988
 20
268.23477269126693
 11
646.43065977016886
 21
268.23477269126693
  0
LINE
  8
_0-b_細線3
  6
CONTINUOUS
 62
    7
 10
644.43065977016988
 20
291.23477269126693
 11
644.43065977016988
 21
268.23477269126693
  0
LINE
  8
_0-b_細線3
  6
CONTINUOUS
 62
    7
 10
638.7639931035028
 20
291.23477269126693
 11
644.43065977016988
 21
291.23477269126693
  0
LINE
  8
_0-b_細線3
  6
CONTINUOUS
 62
    7
 10
638.7639931035028
 20
293.23477269126693
 11
638.7639931035028
 21
291.23477269126693
  0
LINE
  8
_0-b_細線3
  6
CONTINUOUS
 62
    7
 10
652.0973264368364
 20
293.23477269126693
 11
638.7639931035028
 21
293.23477269126693
  0
ARC
  8
_0-b_細線3
  6
CONTINUOUS
 62
    7
 10
657.09732643683583
 20
370.76391364829601
 40
97.696522151886498
 50
263.73185704547706
 51
276.2681429545222
  0
ARC
  8
_0-b_細線3
  6
CONTINUOUS
 62
    7
 10
657.09732643683583
 20
189.03896506757135
 40
97.696522151886498
 50
83.731857045477128
 51
96.268142954522617
  0
LINE
  8
_0-b_細線3
  6
CONTINUOUS
 62
    7
 10
675.43065977016897
 20
291.23477269126693
 11
675.43065977016897
 21
293.23477269126693
  0
LINE
  8
_0-b_細線3
  6
CONTINUOUS
 62
    7
 10
669.76399310350189
 20
291.23477269126693
 11
675.43065977016897
 21
291.23477269126693
  0
LINE
  8
_0-b_細線3
  6
CONTINUOUS
 62
    7
 10
669.76399310350189
 20
268.23477269126693
 11
669.76399310350189
 21
291.23477269126693
  0
LINE
  8
_0-b_細線3
  6
CONTINUOUS
 62
    7
 10
667.76399310350246
 20
268.23477269126693
 11
669.76399310350189
 21
268.23477269126693
  0
LINE
  8
_0-b_細線3
  6
CONTINUOUS
 62
    7
 10
667.76399310350246
 20
291.23477269126693
 11
667.76399310350246
 21
268.23477269126693
  0
LINE
  8
_0-b_細線3
  6
CONTINUOUS
 62
    7
 10
662.09732643683583
 20
291.23477269126693
 11
667.76399310350246
 21
291.23477269126693
  0
LINE
  8
_0-b_細線3
  6
CONTINUOUS
 62
    7
 10
662.09732643683583
 20
293.23477269126693
 11
662.09732643683583
 21
291.23477269126693
  0
LINE
  8
_0-b_細線3
  6
CONTINUOUS
 62
    7
 10
675.43065977016897
 20
293.23477269126693
 11
662.09732643683583
 21
293.23477269126693
  0
ARC
  8
_0-b_細線3
  6
CONTINUOUS
 62
    7
 10
283.76399310350553
 20
370.76391364829601
 40
97.696522151886498
 50
263.73185704547654
 51
276.2681429545222
  0
ARC
  8
_0-b_細線3
  6
CONTINUOUS
 62
    7
 10
283.76399310350553
 20
189.03896506757135
 40
97.696522151886498
 50
83.731857045477398
 51
96.268142954523142
  0
LINE
  8
_0-b_細線3
  6
CONTINUOUS
 62
    7
 10
278.76399310350553
 20
291.23477269126693
 11
278.76399310350553
 21
293.23477269126693
  0
LINE
  8
_0-b_細線3
  6
CONTINUOUS
 62
    7
 10
273.09732643683901
 20
291.23477269126693
 11
278.76399310350553
 21
291.23477269126693
  0
LINE
  8
_0-b_細線3
  6
CONTINUOUS
 62
    7
 10
273.09732643683901
 20
268.23477269126693
 11
273.09732643683901
 21
291.23477269126693
  0
LINE
  8
_0-b_細線3
  6
CONTINUOUS
 62
    7
 10
271.09732643683901
 20
291.23477269126693
 11
271.09732643683901
 21
268.23477269126693
  0
LINE
  8
_0-b_細線3
  6
CONTINUOUS
 62
    7
 10
265.43065977017199
 20
291.23477269126693
 11
271.09732643683901
 21
291.23477269126693
  0
LINE
  8
_0-b_細線3
  6
CONTINUOUS
 62
    7
 10
265.43065977017199
 20
293.23477269126693
 11
265.43065977017199
 21
291.23477269126693
  0
LINE
  8
_0-b_細線3
  6
CONTINUOUS
 62
    7
 10
278.76399310350553
 20
293.23477269126693
 11
265.43065977017199
 21
293.23477269126693
  0
LINE
  8
_0-d_寸法3
  6
CONTINUOUS
 62
    7
 10
382.0973264368385
 20
303.23477269126693
 11
382.0973264368385
 21
344.90143935793435
  0
LINE
  8
_0-d_寸法3
  6
CONTINUOUS
 62
    7
 10
382.0973264368385
 20
339.90143935793435
 11
372.43806817394778
 21
337.31324890690922
  0
LINE
  8
_0-d_寸法3
  6
CONTINUOUS
 62
    7
 10
382.0973264368385
 20
339.90143935793435
 11
372.43806817394784
 21
342.48962980895959
  0
LINE
  8
_0-d_寸法3
  6
CONTINUOUS
 62
    7
 10
395.4306597701725
 20
303.23477269126693
 11
395.4306597701725
 21
344.90143935793435
  0
CIRCLE
  8
_0-d_寸法3
  6
CONTINUOUS
 62
    1
 10
395.4306597701725
 20
339.90143935793435
 40
1.5000000000000002
  0
LINE
  8
_0-d_寸法3
  6
CONTINUOUS
 62
    7
 10
357.0973264368385
 20
339.90143935793435
 11
395.4306597701725
 21
339.90143935793435
  0
TEXT
  8
_0-d_寸法3
 62
    7
 10
364.67331047146263
 20
339.90143935793435
 40
15
 41
1
 50
0
  1
8
  0
LINE
  8
_0-d_寸法3
  6
CONTINUOUS
 62
    7
 10
405.4306597701725
 20
303.23477269126693
 11
405.4306597701725
 21
344.90143935793435
  0
LINE
  8
_0-d_寸法3
  6
CONTINUOUS
 62
    7
 10
405.4306597701725
 20
339.90143935793435
 11
415.08991803306316
 21
342.48962980895948
  0
LINE
  8
_0-d_寸法3
  6
CONTINUOUS
 62
    7
 10
405.4306597701725
 20
339.90143935793435
 11
415.08991803306316
 21
337.31324890690917
  0
LINE
  8
_0-d_寸法3
  6
CONTINUOUS
 62
    7
 10
395.4306597701725
 20
339.90143935793435
 11
430.4306597701725
 21
339.90143935793435
  0
TEXT
  8
_0-d_寸法3
 62
    7
 10
411.72252857845751
 20
339.90143935793435
 40
15
 41
1
 50
0
  1
6
  0
ARC
  8
_0-b_細線3
  6
CONTINUOUS
 62
    7
 10
680.43065977016897
 20
370.76391364829601
 40
97.696522151886498
 50
263.73185704547677
 51
276.2681429545222
  0
ARC
  8
_0-b_細線3
  6
CONTINUOUS
 62
    7
 10
680.43065977016897
 20
189.03896506757135
 40
97.696522151886498
 50
83.731857045477398
 51
96.268142954522872
  0
LINE
  8
_0-b_細線3
  6
CONTINUOUS
 62
    7
 10
698.76399310350189
 20
291.23477269126693
 11
698.76399310350189
 21
293.23477269126693
  0
LINE
  8
_0-b_細線3
  6
CONTINUOUS
 62
    7
 10
693.09732643683492
 20
291.23477269126693
 11
698.76399310350189
 21
291.23477269126693
  0
LINE
  8
_0-b_細線3
  6
CONTINUOUS
 62
    7
 10
693.09732643683492
 20
268.23477269126693
 11
693.09732643683492
 21
291.23477269126693
  0
LINE
  8
_0-b_細線3
  6
CONTINUOUS
 62
    7
 10
691.09732643683503
 20
268.23477269126693
 11
693.09732643683492
 21
268.23477269126693
  0
LINE
  8
_0-b_細線3
  6
CONTINUOUS
 62
    7
 10
691.09732643683503
 20
291.23477269126693
 11
691.09732643683503
 21
268.23477269126693
  0
LINE
  8
_0-b_細線3
  6
CONTINUOUS
 62
    7
 10
685.4306597701684
 20
291.23477269126693
 11
691.09732643683503
 21
291.23477269126693
  0
LINE
  8
_0-b_細線3
  6
CONTINUOUS
 62
    7
 10
685.4306597701684
 20
293.23477269126693
 11
685.4306597701684
 21
291.23477269126693
  0
LINE
  8
_0-b_細線3
  6
CONTINUOUS
 62
    7
 10
698.76399310350189
 20
293.23477269126693
 11
685.4306597701684
 21
293.23477269126693
  0
ARC
  8
_0-b_細線3
  6
CONTINUOUS
 62
    7
 10
703.76399310350155
 20
370.76391364829601
 40
97.696522151886498
 50
263.73185704547677
 51
276.26814295452255
  0
ARC
  8
_0-b_細線3
  6
CONTINUOUS
 62
    7
 10
703.76399310350155
 20
189.03896506757135
 40
97.696522151886498
 50
83.731857045477128
 51
96.268142954522872
  0
LINE
  8
_0-b_細線3
  6
CONTINUOUS
 62
    7
 10
722.09732643683492
 20
291.23477269126693
 11
722.09732643683492
 21
293.23477269126693
  0
LINE
  8
_0-b_細線3
  6
CONTINUOUS
 62
    7
 10
716.43065977016749
 20
291.23477269126693
 11
722.09732643683492
 21
291.23477269126693
  0
LINE
  8
_0-b_細線3
  6
CONTINUOUS
 62
    7
 10
716.43065977016749
 20
268.23477269126693
 11
716.43065977016749
 21
291.23477269126693
  0
LINE
  8
_0-b_細線3
  6
CONTINUOUS
 62
    7
 10
714.43065977016795
 20
268.23477269126693
 11
716.43065977016749
 21
268.23477269126693
  0
LINE
  8
_0-b_細線3
  6
CONTINUOUS
 62
    7
 10
714.43065977016795
 20
291.23477269126693
 11
714.43065977016795
 21
268.23477269126693
  0
LINE
  8
_0-b_細線3
  6
CONTINUOUS
 62
    7
 10
708.76399310350098
 20
291.23477269126693
 11
714.43065977016795
 21
291.23477269126693
  0
LINE
  8
_0-b_細線3
  6
CONTINUOUS
 62
    7
 10
708.76399310350098
 20
293.23477269126693
 11
708.76399310350098
 21
291.23477269126693
  0
LINE
  8
_0-b_細線3
  6
CONTINUOUS
 62
    7
 10
722.09732643683492
 20
293.23477269126693
 11
708.76399310350098
 21
293.23477269126693
  0
LINE
  8
_0-b_細線3
  6
CONTINUOUS
 62
    7
 10
271.09732643683901
 20
268.23477269126693
 11
273.09732643683901
 21
268.23477269126693
  0
ARC
  8
_0-b_細線3
  6
CONTINUOUS
 62
    7
 10
260.43065977017199
 20
370.76391364829601
 40
97.696522151886498
 50
263.73185704547677
 51
276.26814295452255
  0
ARC
  8
_0-b_細線3
  6
CONTINUOUS
 62
    7
 10
260.43065977017199
 20
189.03896506757135
 40
97.696522151886498
 50
83.731857045477128
 51
96.268142954522872
  0
LINE
  8
_0-b_細線3
  6
CONTINUOUS
 62
    7
 10
255.43065977017199
 20
291.23477269126693
 11
255.43065977017199
 21
293.23477269126693
  0
LINE
  8
_0-b_細線3
  6
CONTINUOUS
 62
    7
 10
249.76399310350544
 20
291.23477269126693
 11
255.43065977017199
 21
291.23477269126693
  0
LINE
  8
_0-b_細線3
  6
CONTINUOUS
 62
    7
 10
249.76399310350544
 20
268.23477269126693
 11
249.76399310350544
 21
291.23477269126693
  0
LINE
  8
_0-b_細線3
  6
CONTINUOUS
 62
    7
 10
247.76399310350547
 20
291.23477269126693
 11
247.76399310350547
 21
268.23477269126693
  0
LINE
  8
_0-b_細線3
  6
CONTINUOUS
 62
    7
 10
242.0973264368385
 20
291.23477269126693
 11
247.76399310350547
 21
291.23477269126693
  0
LINE
  8
_0-b_細線3
  6
CONTINUOUS
 62
    7
 10
242.0973264368385
 20
293.23477269126693
 11
242.0973264368385
 21
291.23477269126693
  0
LINE
  8
_0-b_細線3
  6
CONTINUOUS
 62
    7
 10
255.43065977017199
 20
293.23477269126693
 11
242.0973264368385
 21
293.23477269126693
  0
LINE
  8
_0-b_細線3
  6
CONTINUOUS
 62
    7
 10
247.76399310350547
 20
268.23477269126693
 11
249.76399310350544
 21
268.23477269126693
  0
ARC
  8
_0-b_細線3
  6
CONTINUOUS
 62
    7
 10
237.0973264368385
 20
370.76391364829601
 40
97.696522151886498
 50
263.73185704547677
 51
276.2681429545222
  0
ARC
  8
_0-b_細線3
  6
CONTINUOUS
 62
    7
 10
237.0973264368385
 20
189.03896506757135
 40
97.696522151886498
 50
83.731857045477398
 51
96.268142954522872
  0
LINE
  8
_0-b_細線3
  6
CONTINUOUS
 62
    7
 10
232.0973264368385
 20
291.23477269126693
 11
232.0973264368385
 21
293.23477269126693
  0
LINE
  8
_0-b_細線3
  6
CONTINUOUS
 62
    7
 10
226.43065977017244
 20
291.23477269126693
 11
232.0973264368385
 21
291.23477269126693
  0
LINE
  8
_0-b_細線3
  6
CONTINUOUS
 62
    7
 10
226.43065977017244
 20
268.23477269126693
 11
226.43065977017244
 21
291.23477269126693
  0
LINE
  8
_0-b_細線3
  6
CONTINUOUS
 62
    7
 10
224.43065977017241
 20
291.23477269126693
 11
224.43065977017241
 21
268.23477269126693
  0
LINE
  8
_0-b_細線3
  6
CONTINUOUS
 62
    7
 10
218.7639931035055
 20
291.23477269126693
 11
224.43065977017241
 21
291.23477269126693
  0
LINE
  8
_0-b_細線3
  6
CONTINUOUS
 62
    7
 10
218.7639931035055
 20
293.23477269126693
 11
218.7639931035055
 21
291.23477269126693
  0
LINE
  8
_0-b_細線3
  6
CONTINUOUS
 62
    7
 10
232.0973264368385
 20
293.23477269126693
 11
218.7639931035055
 21
293.23477269126693
  0
LINE
  8
_0-b_細線3
  6
CONTINUOUS
 62
    7
 10
224.43065977017241
 20
268.23477269126693
 11
226.43065977017244
 21
268.23477269126693
  0
LINE
  8
_0-d_寸法3
  6
CONTINUOUS
 62
    7
 10
462.23913932728209
 20
273.97053705477759
 11
426.88679760159658
 21
298.72451322446818
  0
LINE
  8
_0-d_寸法3
  6
CONTINUOUS
 62
    7
 10
430.98255782304159
 20
295.85663104271293
 11
428.3943673720164
 21
305.51588930560359
  0
LINE
  8
_0-d_寸法3
  6
CONTINUOUS
 62
    7
 10
430.98255782304159
 20
295.85663104271293
 11
433.57074827406677
 21
305.51588930560359
  0
LINE
  8
_0-d_寸法3
  6
CONTINUOUS
 62
    7
 10
462.23913932728209
 20
298.97053705477765
 11
426.88679760159658
 21
323.72451322446841
  0
LINE
  8
_0-d_寸法3
  6
CONTINUOUS
 62
    7
 10
430.98255782304159
 20
320.85663104271316
 11
433.57074827406677
 21
311.19737277982244
  0
LINE
  8
_0-d_寸法3
  6
CONTINUOUS
 62
    7
 10
430.98255782304159
 20
320.85663104271316
 11
428.39436737201629
 21
311.19737277982256
  0
LINE
  8
_0-d_寸法3
  6
CONTINUOUS
 62
    7
 10
430.98255782304159
 20
295.85663104271293
 11
430.98255782304159
 21
320.85663104271316
  0
TEXT
  8
_0-d_寸法3
 62
    7
 10
430.98255782304159
 20
300.85663104271293
 40
15
 41
1
 50
90
  1
15
  0
LINE
  8
_0-7_枠細線
  6
CONTINUOUS
 62
    5
 10
1139.4018171150183
 20
373.42884000293418
 11
1139.4018171150183
 21
453.42884000293418
  0
LINE
  8
_0-7_枠細線
  6
CONTINUOUS
 62
    5
 10
1229.4018171150183
 20
373.42884000293418
 11
1229.4018171150183
 21
453.42884000293418
  0
TEXT
  8
_0-7_枠細線
 62
    5
 10
1251.9018171150183
 20
430.92884000293418
 40
15
 41
1
 50
0
  1
蓋重量
  0
LINE
  8
_0-7_枠細線
  6
CONTINUOUS
 62
    5
 10
1319.4018171150183
 20
373.42884000293418
 11
1319.4018171150183
 21
453.42884000293418
  0
TEXT
  8
_0-7_枠細線
 62
    5
 10
1341.9018171150183
 20
430.92884000293418
 40
15
 41
1
 50
0
  1
枠重量
  0
LINE
  8
_0-7_枠細線
  6
CONTINUOUS
 62
    5
 10
1139.4018171150183
 20
423.42884000293418
 11
1409.4018171150183
 21
423.42884000293418
  0
LINE
  8
_0-7_枠細線
  6
CONTINUOUS
 62
    5
 10
1139.4018171150183
 20
453.42884000293418
 11
1409.4018171150183
 21
453.42884000293418
  0
LINE
  8
_0-7_枠細線
  6
CONTINUOUS
 62
    5
 10
1139.4018171150183
 20
373.42884000293418
 11
1409.4018171150183
 21
373.42884000293418
  0
LINE
  8
_0-7_枠細線
  6
CONTINUOUS
 62
    5
 10
1409.4018171150183
 20
373.42884000293418
 11
1409.4018171150183
 21
453.42884000293418
  0
TEXT
  8
_0-7_枠細線
 62
    5
 10
1154.4018171150183
 20
430.92884000293418
 40
15
 41
1
 50
0
  1
適用荷重
  0
TEXT
  8
_0-7_枠細線
 62
    5
 10
1161.9018171150183
 20
400.92884000293418
 40
15
 41
1
 50
0
  1
歩道用
  0
TEXT
  8
_0-7_枠細線
 62
    5
 10
1139.4018171150183
 20
380.92884000293418
 40
15
 41
1
 50
0
  1
（5.0kN/㎡）
  0
TEXT
  8
_0-7_枠細線
 62
    5
 10
1334.4018171150183
 20
392.17884000293418
 40
15
 41
0.8000000000000001
 50
0
  1
2.2kg/ｍ組
  0
TEXT
  8
_0-7_枠細線
 62
    5
 10
1250.4018171150183
 20
392.17884000293418
 40
15
 41
0.8000000000000001
 50
0
  1
2.6kg/枚
  0
LINE
  8
_0-1_計細線
  6
CONTINUOUS
 62
    3
 10
978.43374986367235
 20
704.68176632391749
 11
978.43374986367235
 21
698.68176632391737
  0
LINE
  8
_0-1_計細線
  6
CONTINUOUS
 62
    3
 10
978.43374986367235
 20
691.68176632391737
 11
978.43374986367235
 21
685.68176632391737
  0
LINE
  8
_0-1_計細線
  6
CONTINUOUS
 62
    3
 10
978.43374986367235
 20
678.68176632391737
 11
978.43374986367235
 21
672.68176632391737
  0
LINE
  8
_0-1_計細線
  6
CONTINUOUS
 62
    3
 10
978.43374986367235
 20
665.68176632391737
 11
978.43374986367235
 21
659.68176632391749
  0
LINE
  8
_0-1_計細線
  6
CONTINUOUS
 62
    3
 10
978.43374986367235
 20
652.68176632391737
 11
978.43374986367235
 21
646.68176632391737
  0
LINE
  8
_0-1_計細線
  6
CONTINUOUS
 62
    3
 10
978.43374986367235
 20
639.68176632391737
 11
978.43374986367235
 21
633.68176632391737
  0
LINE
  8
_0-0_計極細
  6
CENTER2
 62
    2
 10
284.53432977753124
 20
656.18176632391737
 11
1169.355070518272
 21
656.18176632391737
  0
LINE
  8
_0-1_計細線
  6
CONTINUOUS
 62
    3
 10
471.43374986367235
 20
704.68176632391749
 11
471.43374986367235
 21
698.68176632391737
  0
LINE
  8
_0-1_計細線
  6
CONTINUOUS
 62
    3
 10
471.43374986367235
 20
691.68176632391737
 11
471.43374986367235
 21
685.68176632391737
  0
LINE
  8
_0-1_計細線
  6
CONTINUOUS
 62
    3
 10
471.43374986367235
 20
678.68176632391737
 11
471.43374986367235
 21
672.68176632391737
  0
LINE
  8
_0-1_計細線
  6
CONTINUOUS
 62
    3
 10
471.43374986367235
 20
665.68176632391737
 11
471.43374986367235
 21
659.68176632391749
  0
LINE
  8
_0-1_計細線
  6
CONTINUOUS
 62
    3
 10
471.43374986367235
 20
652.68176632391737
 11
471.43374986367235
 21
646.68176632391737
  0
LINE
  8
_0-1_計細線
  6
CONTINUOUS
 62
    3
 10
471.43374986367235
 20
639.68176632391737
 11
471.43374986367235
 21
633.68176632391737
  0
LINE
  8
_0-1_計細線
  6
CONTINUOUS
 62
    3
 10
978.43374986367235
 20
742.18176632391749
 11
978.43374986367235
 21
736.18176632391737
  0
LINE
  8
_0-1_計細線
  6
CONTINUOUS
 62
    3
 10
978.43374986367235
 20
729.18176632391737
 11
978.43374986367235
 21
723.18176632391737
  0
LINE
  8
_0-1_計細線
  6
CONTINUOUS
 62
    3
 10
978.43374986367235
 20
716.18176632391737
 11
978.43374986367235
 21
710.18176632391737
  0
LINE
  8
_0-1_計細線
  6
CONTINUOUS
 62
    3
 10
1164.9337498636719
 20
812.18176632391749
 11
284.93374986367286
 21
812.18176632391749
  0
ARC
  8
_0-1_計細線
  6
CONTINUOUS
 62
    3
 10
1151.8712498636905
 20
804.68176632391931
 40
15.062499999984542
 50
330.13716564368326
 51
29.862834356304496
  0
ARC
  8
_0-1_計細線
  6
CONTINUOUS
 62
    3
 10
1177.9962498636905
 20
789.68176632391931
 40
15.062500000017272
 50
150.13716564376668
 51
209.86283435624543
  0
LINE
  8
_0-5_寸法線
  6
CONTINUOUS
 62
    7
 10
475.4337498636724
 20
822.18176632391601
 11
475.4337498636728
 21
902.18176632391749
  0
LINE
  8
_0-5_寸法線
  6
CONTINUOUS
 62
    7
 10
475.4337498636728
 20
897.18176632391749
 11
485.09300812656352
 21
899.76995677494256
  0
LINE
  8
_0-5_寸法線
  6
CONTINUOUS
 62
    7
 10
475.4337498636728
 20
897.18176632391749
 11
485.09300812656352
 21
894.59357587289219
  0
LINE
  8
_0-5_寸法線
  6
CONTINUOUS
 62
    7
 10
974.43374986367246
 20
822.18176632391601
 11
974.43374986367246
 21
902.18176632391749
  0
LINE
  8
_0-5_寸法線
  6
CONTINUOUS
 62
    7
 10
974.43374986367246
 20
897.18176632391749
 11
964.77449160078163
 21
894.59357587289219
  0
LINE
  8
_0-5_寸法線
  6
CONTINUOUS
 62
    7
 10
974.43374986367246
 20
897.18176632391749
 11
964.77449160078163
 21
899.76995677494256
  0
LINE
  8
_0-5_寸法線
  6
CONTINUOUS
 62
    7
 10
475.4337498636728
 20
897.18176632391749
 11
974.43374986367246
 21
897.18176632391749
  0
TEXT
  8
_0-5_寸法線
 62
    7
 10
713.6837498636728
 20
897.18176632391749
 40
15
 41
1
 50
0
  1
499
  0
LINE
  8
_0-5_寸法線
  6
CONTINUOUS
 62
    7
 10
475.4337498636724
 20
822.18176632391749
 11
475.4337498636724
 21
867.18176632391749
  0
LINE
  8
_0-5_寸法線
  6
CONTINUOUS
 62
    7
 10
475.4337498636724
 20
862.18176632391749
 11
485.09300812656306
 21
864.76995677494256
  0
LINE
  8
_0-5_寸法線
  6
CONTINUOUS
 62
    7
 10
475.4337498636724
 20
862.18176632391749
 11
485.09300812656306
 21
859.59357587289219
  0
LINE
  8
_0-5_寸法線
  6
CONTINUOUS
 62
    7
 10
574.93374986367235
 20
822.18176632391749
 11
574.93374986367235
 21
867.18176632391749
  0
LINE
  8
_0-5_寸法線
  6
CONTINUOUS
 62
    7
 10
574.93374986367235
 20
862.18176632391749
 11
565.27449160078163
 21
859.59357587289219
  0
LINE
  8
_0-5_寸法線
  6
CONTINUOUS
 62
    7
 10
574.93374986367235
 20
862.18176632391749
 11
565.27449160078163
 21
864.76995677494256
  0
LINE
  8
_0-5_寸法線
  6
CONTINUOUS
 62
    7
 10
475.4337498636724
 20
862.18176632391749
 11
574.93374986367235
 21
862.18176632391749
  0
TEXT
  8
_0-5_寸法線
 62
    7
 10
510.18374986367235
 20
862.18176632391749
 40
15
 41
1
 50
0
  1
99.5
  0
LINE
  8
_0-5_寸法線
  6
CONTINUOUS
 62
    7
 10
574.93374986367235
 20
862.18176632391749
 11
584.59300812656306
 21
864.76995677494256
  0
LINE
  8
_0-5_寸法線
  6
CONTINUOUS
 62
    7
 10
574.93374986367235
 20
862.18176632391749
 11
584.59300812656306
 21
859.59357587289219
  0
LINE
  8
_0-5_寸法線
  6
CONTINUOUS
 62
    7
 10
674.93374986367246
 20
822.18176632391749
 11
674.93374986367246
 21
867.18176632391749
  0
LINE
  8
_0-5_寸法線
  6
CONTINUOUS
 62
    7
 10
674.93374986367246
 20
862.18176632391749
 11
665.27449160078163
 21
859.59357587289219
  0
LINE
  8
_0-5_寸法線
  6
CONTINUOUS
 62
    7
 10
674.93374986367246
 20
862.18176632391749
 11
665.27449160078163
 21
864.76995677494256
  0
LINE
  8
_0-5_寸法線
  6
CONTINUOUS
 62
    7
 10
574.93374986367235
 20
862.18176632391749
 11
674.93374986367246
 21
862.18176632391749
  0
TEXT
  8
_0-5_寸法線
 62
    7
 10
613.68374986367235
 20
862.18176632391749
 40
15
 41
1
 50
0
  1
100
  0
LINE
  8
_0-5_寸法線
  6
CONTINUOUS
 62
    7
 10
674.93374986367246
 20
862.18176632391749
 11
684.59300812656306
 21
864.76995677494256
  0
LINE
  8
_0-5_寸法線
  6
CONTINUOUS
 62
    7
 10
674.93374986367246
 20
862.18176632391749
 11
684.59300812656306
 21
859.59357587289219
  0
LINE
  8
_0-5_寸法線
  6
CONTINUOUS
 62
    7
 10
774.93374986367246
 20
822.18176632391749
 11
774.93374986367246
 21
867.18176632391749
  0
LINE
  8
_0-5_寸法線
  6
CONTINUOUS
 62
    7
 10
774.93374986367246
 20
862.18176632391749
 11
765.27449160078163
 21
859.59357587289219
  0
LINE
  8
_0-5_寸法線
  6
CONTINUOUS
 62
    7
 10
774.93374986367246
 20
862.18176632391749
 11
765.27449160078163
 21
864.76995677494256
  0
LINE
  8
_0-5_寸法線
  6
CONTINUOUS
 62
    7
 10
674.93374986367246
 20
862.18176632391749
 11
774.93374986367246
 21
862.18176632391749
  0
TEXT
  8
_0-5_寸法線
 62
    7
 10
713.68374986367246
 20
862.18176632391749
 40
15
 41
1
 50
0
  1
100
  0
LINE
  8
_0-5_寸法線
  6
CONTINUOUS
 62
    7
 10
774.93374986367246
 20
862.18176632391749
 11
784.59300812656306
 21
864.76995677494256
  0
LINE
  8
_0-5_寸法線
  6
CONTINUOUS
 62
    7
 10
774.93374986367246
 20
862.18176632391749
 11
784.59300812656306
 21
859.59357587289219
  0
LINE
  8
_0-5_寸法線
  6
CONTINUOUS
 62
    7
 10
874.93374986367246
 20
822.18176632391749
 11
874.93374986367246
 21
867.18176632391749
  0
LINE
  8
_0-5_寸法線
  6
CONTINUOUS
 62
    7
 10
874.93374986367246
 20
862.18176632391749
 11
865.27449160078163
 21
859.59357587289219
  0
LINE
  8
_0-5_寸法線
  6
CONTINUOUS
 62
    7
 10
874.93374986367246
 20
862.18176632391749
 11
865.27449160078163
 21
864.76995677494256
  0
LINE
  8
_0-5_寸法線
  6
CONTINUOUS
 62
    7
 10
774.93374986367246
 20
862.18176632391749
 11
874.93374986367246
 21
862.18176632391749
  0
TEXT
  8
_0-5_寸法線
 62
    7
 10
813.68374986367246
 20
862.18176632391749
 40
15
 41
1
 50
0
  1
100
  0
LINE
  8
_0-5_寸法線
  6
CONTINUOUS
 62
    7
 10
874.93374986367246
 20
862.18176632391749
 11
884.59300812656306
 21
864.76995677494256
  0
LINE
  8
_0-5_寸法線
  6
CONTINUOUS
 62
    7
 10
874.93374986367246
 20
862.18176632391749
 11
884.59300812656306
 21
859.59357587289219
  0
LINE
  8
_0-5_寸法線
  6
CONTINUOUS
 62
    7
 10
974.43374986367246
 20
822.18176632391749
 11
974.43374986367246
 21
867.18176632391749
  0
LINE
  8
_0-5_寸法線
  6
CONTINUOUS
 62
    7
 10
974.43374986367246
 20
862.18176632391749
 11
964.77449160078163
 21
859.59357587289219
  0
LINE
  8
_0-5_寸法線
  6
CONTINUOUS
 62
    7
 10
974.43374986367246
 20
862.18176632391749
 11
964.77449160078163
 21
864.76995677494256
  0
LINE
  8
_0-5_寸法線
  6
CONTINUOUS
 62
    7
 10
874.93374986367246
 20
862.18176632391749
 11
974.43374986367246
 21
862.18176632391749
  0
TEXT
  8
_0-5_寸法線
 62
    7
 10
909.68374986367235
 20
862.18176632391749
 40
15
 41
1
 50
0
  1
99.5
  0
LINE
  8
_0-1_計細線
  6
CONTINUOUS
 62
    3
 10
978.43374986367235
 20
807.18176632391749
 11
978.43374986367235
 21
801.18176632391737
  0
LINE
  8
_0-1_計細線
  6
CONTINUOUS
 62
    3
 10
978.43374986367235
 20
794.18176632391749
 11
978.43374986367235
 21
788.18176632391737
  0
LINE
  8
_0-1_計細線
  6
CONTINUOUS
 62
    3
 10
978.43374986367235
 20
781.18176632391737
 11
978.43374986367235
 21
775.18176632391737
  0
LINE
  8
_0-1_計細線
  6
CONTINUOUS
 62
    3
 10
1166.2458422492005
 20
809.18176632391749
 11
283.6216574781443
 21
809.18176632391749
  0
LINE
  8
_0-1_計細線
  6
CONTINUOUS
 62
    3
 10
978.43374986367235
 20
768.18176632391737
 11
978.43374986367235
 21
762.18176632391749
  0
LINE
  8
_0-1_計細線
  6
CONTINUOUS
 62
    3
 10
978.43374986367235
 20
755.18176632391737
 11
978.43374986367235
 21
749.18176632391737
  0
LINE
  8
_0-0_計極細
  6
CONTINUOUS
 62
    2
 10
1124.9337498636723
 20
807.18176632391749
 11
1125.0288782978134
 21
806.65923387945554
  0
LINE
  8
_0-0_計極細
  6
CONTINUOUS
 62
    2
 10
1125.0288782978134
 20
806.65923387945554
 11
1125.3115821444269
 21
805.10589685289415
  0
LINE
  8
_0-0_計極細
  6
CONTINUOUS
 62
    2
 10
1125.3115821444269
 20
805.10589685289415
 11
1125.7734027768659
 21
802.56418648735007
  0
LINE
  8
_0-0_計極細
  6
CONTINUOUS
 62
    2
 10
1125.7734027768659
 20
802.56418648735007
 11
1126.3990454892116
 21
799.1036515515716
  0
LINE
  8
_0-0_計極細
  6
CONTINUOUS
 62
    2
 10
1126.3990454892116
 20
799.1036515515716
 11
1127.1651749637979
 21
794.81919201568235
  0
LINE
  8
_0-0_計極細
  6
CONTINUOUS
 62
    2
 10
1127.1651749637979
 20
794.81919201568235
 11
1128.0397350956443
 21
789.82857661304138
  0
LINE
  8
_0-0_計極細
  6
CONTINUOUS
 62
    2
 10
1128.0397350956443
 20
789.82857661304138
 11
1128.9824355749677
 21
784.26926169236583
  0
LINE
  8
_0-0_計極細
  6
CONTINUOUS
 62
    2
 10
1128.9824355749677
 20
784.26926169236583
 11
1129.9468189370737
 21
778.29456369949867
  0
LINE
  8
_0-0_計極細
  6
CONTINUOUS
 62
    2
 10
1129.9468189370737
 20
778.29456369949867
 11
1130.883942747641
 21
772.06928235066175
  0
LINE
  8
_0-0_計極細
  6
CONTINUOUS
 62
    2
 10
1130.883942747641
 20
772.06928235066175
 11
1131.7472745025118
 21
765.76491823888205
  0
LINE
  8
_0-0_計極細
  6
CONTINUOUS
 62
    2
 10
1131.7472745025118
 20
765.76491823888205
 11
1132.498013143937
 21
759.5546679520728
  0
LINE
  8
_0-0_計極細
  6
CONTINUOUS
 62
    2
 10
1132.498013143937
 20
759.5546679520728
 11
1133.1098238928992
 21
753.60840323445916
  0
LINE
  8
_0-0_計極細
  6
CONTINUOUS
 62
    2
 10
1133.1098238928992
 20
753.60840323445916
 11
1133.5719710284386
 21
748.08784261570167
  0
LINE
  8
_0-0_計極細
  6
CONTINUOUS
 62
    2
 10
1133.5719710284386
 20
748.08784261570167
 11
1133.8900724972139
 21
743.14210291169547
  0
LINE
  8
_0-0_計極細
  6
CONTINUOUS
 62
    2
 10
1133.8900724972139
 20
743.14210291169547
 11
1134.0841389199309
 21
738.90377749289223
  0
LINE
  8
_0-0_計極細
  6
CONTINUOUS
 62
    2
 10
1134.0841389199309
 20
738.90377749289223
 11
1134.1841060997526
 21
735.48563574522075
  0
LINE
  8
_0-0_計極細
  6
CONTINUOUS
 62
    2
 10
1134.1841060997526
 20
735.48563574522075
 11
1134.2236038196575
 21
732.97798367907444
  0
LINE
  8
_0-0_計極細
  6
CONTINUOUS
 62
    2
 10
1134.2236038196575
 20
732.97798367907444
 11
1134.2331026143156
 21
731.44667931799336
  0
LINE
  8
_0-0_計極細
  6
CONTINUOUS
 62
    2
 10
1134.2331026143156
 20
731.44667931799336
 11
1134.2337498636721
 21
730.93176632391749
  0
LINE
  8
_0-0_計極細
  6
CONTINUOUS
 62
    2
 10
1134.2337498636721
 20
730.93176632391749
 11
1134.2331026143156
 21
730.41695772489891
  0
LINE
  8
_0-0_計極細
  6
CONTINUOUS
 62
    2
 10
1134.2331026143156
 20
730.41695772489891
 11
1134.2236038196575
 21
728.88718542747245
  0
LINE
  8
_0-0_計極細
  6
CONTINUOUS
 62
    2
 10
1134.2236038196575
 20
728.88718542747245
 11
1134.1841060997526
 21
726.38590396131065
  0
LINE
  8
_0-0_計極細
  6
CONTINUOUS
 62
    2
 10
1134.1841060997526
 20
726.38590396131065
 11
1134.0841389199313
 21
722.98388595232018
  0
LINE
  8
_0-0_計極細
  6
CONTINUOUS
 62
    2
 10
1134.0841389199313
 20
722.98388595232018
 11
1133.8900724972139
 21
718.77686156943901
  0
LINE
  8
_0-0_計極細
  6
CONTINUOUS
 62
    2
 10
1133.8900724972139
 20
718.77686156943901
 11
1133.5719710284386
 21
713.88242855394492
  0
LINE
  8
_0-0_計極細
  6
CONTINUOUS
 62
    2
 10
1133.5719710284386
 20
713.88242855394492
 11
1133.1098238928992
 21
708.43640779575833
  0
LINE
  8
_0-0_計極細
  6
CONTINUOUS
 62
    2
 10
1133.1098238928992
 20
708.43640779575833
 11
1132.498013143937
 21
702.58882223120304
  0
LINE
  8
_0-0_計極細
  6
CONTINUOUS
 62
    2
 10
1132.498013143937
 20
702.58882223120304
 11
1131.7472745025118
 21
696.4996588220431
  0
LINE
  8
_0-0_計極細
  6
CONTINUOUS
 62
    2
 10
1131.7472745025118
 20
696.4996588220431
 11
1130.883942747641
 21
690.3345417675007
  0
LINE
  8
_0-0_計極細
  6
CONTINUOUS
 62
    2
 10
1130.883942747641
 20
690.3345417675007
 11
1129.9468189370737
 21
684.26040942036832
  0
LINE
  8
_0-0_計極細
  6
CONTINUOUS
 62
    2
 10
1129.9468189370737
 20
684.26040942036832
 11
1128.9824355749674
 21
678.44125713106666
  0
LINE
  8
_0-0_計極細
  6
CONTINUOUS
 62
    2
 10
1128.9824355749674
 20
678.44125713106666
 11
1128.0397350956443
 21
673.03399067479802
  0
LINE
  8
_0-0_計極細
  6
CONTINUOUS
 62
    2
 10
1128.0397350956443
 20
673.03399067479802
 11
1127.1651749637979
 21
668.1844333579387
  0
LINE
  8
_0-0_計極細
  6
CONTINUOUS
 62
    2
 10
1127.1651749637979
 20
668.1844333579387
 11
1126.3990454892116
 21
664.02354309214388
  0
LINE
  8
_0-0_計極細
  6
CONTINUOUS
 62
    2
 10
1126.3990454892116
 20
664.02354309214388
 11
1125.7734027768659
 21
660.66391827126017
  0
LINE
  8
_0-0_計極細
  6
CONTINUOUS
 62
    2
 10
1125.7734027768659
 20
660.66391827126017
 11
1125.3115821444269
 21
658.19669510449626
  0
LINE
  8
_0-0_計極細
  6
CONTINUOUS
 62
    2
 10
1125.3115821444269
 20
658.19669510449626
 11
1125.0288782978134
 21
656.68895547255011
  0
LINE
  8
_0-0_計極細
  6
CONTINUOUS
 62
    2
 10
1125.0288782978134
 20
656.68895547255011
 11
1124.9337498636723
 21
656.18176632391737
  0
LINE
  8
_0-1_計細線
  6
CONTINUOUS
 62
    3
 10
1164.9337498636719
 20
782.18176632391749
 11
1129.3370068363997
 21
782.18176632391749
  0
LINE
  8
_0-1_計細線
  6
CONTINUOUS
 62
    3
 10
471.43374986367235
 20
742.18176632391749
 11
471.43374986367235
 21
736.18176632391737
  0
LINE
  8
_0-1_計細線
  6
CONTINUOUS
 62
    3
 10
471.43374986367235
 20
729.18176632391737
 11
471.43374986367235
 21
723.18176632391737
  0
LINE
  8
_0-1_計細線
  6
CONTINUOUS
 62
    3
 10
471.43374986367235
 20
716.18176632391737
 11
471.43374986367235
 21
710.18176632391737
  0
ARC
  8
_0-1_計細線
  6
CONTINUOUS
 62
    3
 10
297.99624986365416
 20
804.68176632391931
 40
15.062499999984542
 50
150.13716564369517
 51
209.86283435631606
  0
ARC
  8
_0-1_計細線
  6
CONTINUOUS
 62
    3
 10
271.87124986365416
 20
789.68176632391931
 40
15.062500000017272
 50
330.13716564375386
 51
29.862834356232998
  0
LINE
  8
_0-1_計細線
  6
CONTINUOUS
 62
    3
 10
471.43374986367235
 20
807.18176632391749
 11
471.43374986367235
 21
801.18176632391737
  0
LINE
  8
_0-1_計細線
  6
CONTINUOUS
 62
    3
 10
471.43374986367235
 20
794.18176632391749
 11
471.43374986367235
 21
788.18176632391737
  0
LINE
  8
_0-1_計細線
  6
CONTINUOUS
 62
    3
 10
471.43374986367235
 20
781.18176632391737
 11
471.43374986367235
 21
775.18176632391737
  0
LINE
  8
_0-1_計細線
  6
CONTINUOUS
 62
    3
 10
471.43374986367235
 20
768.18176632391737
 11
471.43374986367235
 21
762.18176632391749
  0
LINE
  8
_0-1_計細線
  6
CONTINUOUS
 62
    3
 10
471.43374986367235
 20
755.18176632391737
 11
471.43374986367235
 21
749.18176632391737
  0
LINE
  8
_0-0_計極細
  6
CONTINUOUS
 62
    2
 10
324.93374986367235
 20
807.18176632391749
 11
324.83862142953126
 21
806.65923387945554
  0
LINE
  8
_0-0_計極細
  6
CONTINUOUS
 62
    2
 10
324.83862142953126
 20
806.65923387945554
 11
324.55591758291774
 21
805.10589685289415
  0
LINE
  8
_0-0_計極細
  6
CONTINUOUS
 62
    2
 10
324.55591758291774
 20
805.10589685289415
 11
324.09409695047879
 21
802.56418648735007
  0
LINE
  8
_0-0_計極細
  6
CONTINUOUS
 62
    2
 10
324.09409695047879
 20
802.56418648735007
 11
323.46845423813306
 21
799.1036515515716
  0
LINE
  8
_0-0_計極細
  6
CONTINUOUS
 62
    2
 10
323.46845423813306
 20
799.1036515515716
 11
322.70232476354698
 21
794.81919201568235
  0
LINE
  8
_0-0_計極細
  6
CONTINUOUS
 62
    2
 10
322.70232476354698
 20
794.81919201568235
 11
321.82776463170029
 21
789.82857661304138
  0
LINE
  8
_0-0_計極細
  6
CONTINUOUS
 62
    2
 10
321.82776463170029
 20
789.82857661304138
 11
320.88506415237708
 21
784.26926169236583
  0
LINE
  8
_0-0_計極細
  6
CONTINUOUS
 62
    2
 10
320.88506415237708
 20
784.26926169236583
 11
319.92068079027104
 21
778.29456369949867
  0
LINE
  8
_0-0_計極細
  6
CONTINUOUS
 62
    2
 10
319.92068079027104
 20
778.29456369949867
 11
318.98355697970374
 21
772.06928235066175
  0
LINE
  8
_0-0_計極細
  6
CONTINUOUS
 62
    2
 10
318.98355697970374
 20
772.06928235066175
 11
318.12022522483289
 21
765.76491823888205
  0
LINE
  8
_0-0_計極細
  6
CONTINUOUS
 62
    2
 10
318.12022522483289
 20
765.76491823888205
 11
317.36948658340765
 21
759.5546679520728
  0
LINE
  8
_0-0_計極細
  6
CONTINUOUS
 62
    2
 10
317.36948658340765
 20
759.5546679520728
 11
316.75767583444559
 21
753.60840323445916
  0
LINE
  8
_0-0_計極細
  6
CONTINUOUS
 62
    2
 10
316.75767583444559
 20
753.60840323445916
 11
316.2955286989062
 21
748.08784261570167
  0
LINE
  8
_0-0_計極細
  6
CONTINUOUS
 62
    2
 10
316.2955286989062
 20
748.08784261570167
 11
315.97742723013073
 21
743.14210291169547
  0
LINE
  8
_0-0_計極細
  6
CONTINUOUS
 62
    2
 10
315.97742723013073
 20
743.14210291169547
 11
315.78336080741371
 21
738.90377749289223
  0
LINE
  8
_0-0_計極細
  6
CONTINUOUS
 62
    2
 10
315.78336080741371
 20
738.90377749289223
 11
315.68339362759218
 21
735.48563574522075
  0
LINE
  8
_0-0_計極細
  6
CONTINUOUS
 62
    2
 10
315.68339362759218
 20
735.48563574522075
 11
315.64389590768718
 21
732.97798367907444
  0
LINE
  8
_0-0_計極細
  6
CONTINUOUS
 62
    2
 10
315.64389590768718
 20
732.97798367907444
 11
315.63439711302919
 21
731.44667931799336
  0
LINE
  8
_0-0_計極細
  6
CONTINUOUS
 62
    2
 10
315.63439711302919
 20
731.44667931799336
 11
315.63374986367262
 21
730.93176632391749
  0
LINE
  8
_0-0_計極細
  6
CONTINUOUS
 62
    2
 10
315.63374986367262
 20
730.93176632391749
 11
315.63439711302919
 21
730.41695772489891
  0
LINE
  8
_0-0_計極細
  6
CONTINUOUS
 62
    2
 10
315.63439711302919
 20
730.41695772489891
 11
315.64389590768718
 21
728.88718542747245
  0
LINE
  8
_0-0_計極細
  6
CONTINUOUS
 62
    2
 10
315.64389590768718
 20
728.88718542747245
 11
315.68339362759218
 21
726.38590396131065
  0
LINE
  8
_0-0_計極細
  6
CONTINUOUS
 62
    2
 10
315.68339362759218
 20
726.38590396131065
 11
315.78336080741371
 21
722.98388595232018
  0
LINE
  8
_0-0_計極細
  6
CONTINUOUS
 62
    2
 10
315.78336080741371
 20
722.98388595232018
 11
315.97742723013073
 21
718.77686156943901
  0
LINE
  8
_0-0_計極細
  6
CONTINUOUS
 62
    2
 10
315.97742723013073
 20
718.77686156943901
 11
316.2955286989062
 21
713.88242855394492
  0
LINE
  8
_0-0_計極細
  6
CONTINUOUS
 62
    2
 10
316.2955286989062
 20
713.88242855394492
 11
316.75767583444554
 21
708.43640779575833
  0
LINE
  8
_0-0_計極細
  6
CONTINUOUS
 62
    2
 10
316.75767583444554
 20
708.43640779575833
 11
317.36948658340765
 21
702.58882223120304
  0
LINE
  8
_0-0_計極細
  6
CONTINUOUS
 62
    2
 10
317.36948658340765
 20
702.58882223120304
 11
318.12022522483289
 21
696.4996588220431
  0
LINE
  8
_0-0_計極細
  6
CONTINUOUS
 62
    2
 10
318.12022522483289
 20
696.4996588220431
 11
318.98355697970374
 21
690.3345417675007
  0
LINE
  8
_0-0_計極細
  6
CONTINUOUS
 62
    2
 10
318.98355697970374
 20
690.3345417675007
 11
319.92068079027104
 21
684.26040942036832
  0
LINE
  8
_0-0_計極細
  6
CONTINUOUS
 62
    2
 10
319.92068079027104
 20
684.26040942036832
 11
320.88506415237708
 21
678.44125713106666
  0
LINE
  8
_0-0_計極細
  6
CONTINUOUS
 62
    2
 10
320.88506415237708
 20
678.44125713106666
 11
321.82776463170029
 21
673.03399067479802
  0
LINE
  8
_0-0_計極細
  6
CONTINUOUS
 62
    2
 10
321.82776463170029
 20
673.03399067479802
 11
322.70232476354693
 21
668.1844333579387
  0
LINE
  8
_0-0_計極細
  6
CONTINUOUS
 62
    2
 10
322.70232476354693
 20
668.1844333579387
 11
323.46845423813306
 21
664.02354309214388
  0
LINE
  8
_0-0_計極細
  6
CONTINUOUS
 62
    2
 10
323.46845423813306
 20
664.02354309214388
 11
324.09409695047879
 21
660.66391827126017
  0
LINE
  8
_0-0_計極細
  6
CONTINUOUS
 62
    2
 10
324.09409695047879
 20
660.66391827126017
 11
324.55591758291774
 21
658.19669510449626
  0
LINE
  8
_0-0_計極細
  6
CONTINUOUS
 62
    2
 10
324.55591758291774
 20
658.19669510449626
 11
324.83862142953126
 21
656.68895547255011
  0
LINE
  8
_0-0_計極細
  6
CONTINUOUS
 62
    2
 10
324.83862142953126
 20
656.68895547255011
 11
324.93374986367235
 21
656.18176632391737
  0
LINE
  8
_0-1_計細線
  6
CONTINUOUS
 62
    3
 10
284.93374986367286
 20
782.18176632391749
 11
320.53049289094497
 21
782.18176632391749
  0
LINE
  8
_0-1_計細線
  6
CONTINUOUS
 62
    3
 10
978.43374986367235
 20
628.18176632391737
 11
978.43374986367235
 21
622.18176632391737
  0
LINE
  8
_0-1_計細線
  6
CONTINUOUS
 62
    3
 10
978.43374986367235
 20
615.18176632391737
 11
978.43374986367235
 21
609.18176632391737
  0
LINE
  8
_0-1_計細線
  6
CONTINUOUS
 62
    3
 10
978.43374986367235
 20
602.18176632391737
 11
978.43374986367235
 21
596.18176632391737
  0
LINE
  8
_0-1_計細線
  6
CONTINUOUS
 62
    3
 10
978.43374986367235
 20
589.18176632391737
 11
978.43374986367235
 21
583.18176632391737
  0
LINE
  8
_0-1_計細線
  6
CONTINUOUS
 62
    3
 10
978.43374986367235
 20
576.18176632391737
 11
978.43374986367235
 21
570.18176632391737
  0
LINE
  8
_0-1_計細線
  6
CONTINUOUS
 62
    3
 10
1164.9337498636719
 20
500.18176632391743
 11
284.93374986367286
 21
500.18176632391743
  0
ARC
  8
_0-1_計細線
  6
CONTINUOUS
 62
    3
 10
1177.9962498636614
 20
507.68176632391919
 40
15.06249999999028
 50
150.13716564371109
 51
209.86283435630014
  0
ARC
  8
_0-1_計細線
  6
CONTINUOUS
 62
    3
 10
1151.8712498637051
 20
522.68176632390782
 40
15.062499999975882
 50
330.13716564369213
 51
29.862834356369127
  0
LINE
  8
_0-5_寸法線
  6
CONTINUOUS
 62
    7
 10
582.48907006124455
 20
501.39677801545054
 11
587.48907006124455
 21
492.73652397760611
  0
LINE
  8
_0-5_寸法線
  6
CONTINUOUS
 62
    7
 10
582.48907006124455
 20
501.39677801545054
 11
582.48907006124455
 21
491.39677801545054
  0
LINE
  8
_0-5_寸法線
  6
CONTINUOUS
 62
    7
 10
582.48907006124455
 20
501.39677801545054
 11
593.67073220116072
 21
459.66624679621304
  0
LINE
  8
_0-5_寸法線
  6
CONTINUOUS
 62
    7
 10
593.67073220116072
 20
459.66624679621304
 11
701.72160541259473
 21
459.66624679621304
  0
TEXT
  8
_0-5_寸法線
 62
    7
 10
593.72160541259473
 20
459.66624679621304
 40
15
 41
0.8000000000000001
 50
0
  1
ＳＵＳアングル受枠
  0
LINE
  8
_0-1_計細線
  6
CONTINUOUS
 62
    3
 10
978.43374986367235
 20
537.18176632391737
 11
978.43374986367235
 21
531.18176632391737
  0
LINE
  8
_0-1_計細線
  6
CONTINUOUS
 62
    3
 10
978.43374986367235
 20
524.18176632391737
 11
978.43374986367235
 21
518.18176632391737
  0
LINE
  8
_0-1_計細線
  6
CONTINUOUS
 62
    3
 10
978.43374986367235
 20
511.18176632391737
 11
978.43374986367235
 21
505.18176632391743
  0
LINE
  8
_0-1_計細線
  6
CONTINUOUS
 62
    3
 10
286.24584224919772
 20
503.18176632391737
 11
1163.621657478147
 21
503.18176632391737
  0
LINE
  8
_0-1_計細線
  6
CONTINUOUS
 62
    3
 10
978.43374986367235
 20
550.18176632391737
 11
978.43374986367235
 21
544.18176632391737
  0
LINE
  8
_0-1_計細線
  6
CONTINUOUS
 62
    3
 10
978.43374986367235
 20
563.18176632391737
 11
978.43374986367235
 21
557.18176632391737
  0
LINE
  8
_0-0_計極細
  6
CONTINUOUS
 62
    2
 10
1124.9337498636723
 20
656.18176632391612
 11
1124.8386214295313
 21
655.67457717528339
  0
LINE
  8
_0-0_計極細
  6
CONTINUOUS
 62
    2
 10
1124.8386214295313
 20
655.67457717528339
 11
1124.5559175829178
 21
654.16683754333712
  0
LINE
  8
_0-0_計極細
  6
CONTINUOUS
 62
    2
 10
1124.5559175829178
 20
654.16683754333712
 11
1124.0940969504788
 21
651.69961437657332
  0
LINE
  8
_0-0_計極細
  6
CONTINUOUS
 62
    2
 10
1124.0940969504788
 20
651.69961437657332
 11
1123.4684542381331
 21
648.33998955568961
  0
LINE
  8
_0-0_計極細
  6
CONTINUOUS
 62
    2
 10
1123.4684542381331
 20
648.33998955568961
 11
1122.702324763547
 21
644.17909928989457
  0
LINE
  8
_0-0_計極細
  6
CONTINUOUS
 62
    2
 10
1122.702324763547
 20
644.17909928989457
 11
1121.8277646317003
 21
639.32954197303536
  0
LINE
  8
_0-0_計極細
  6
CONTINUOUS
 62
    2
 10
1121.8277646317003
 20
639.32954197303536
 11
1120.885064152377
 21
633.92227551676683
  0
LINE
  8
_0-0_計極細
  6
CONTINUOUS
 62
    2
 10
1120.885064152377
 20
633.92227551676683
 11
1119.920680790271
 21
628.10312322746518
  0
LINE
  8
_0-0_計極細
  6
CONTINUOUS
 62
    2
 10
1119.920680790271
 20
628.10312322746518
 11
1118.9835569797037
 21
622.0289908803328
  0
LINE
  8
_0-0_計極細
  6
CONTINUOUS
 62
    2
 10
1118.9835569797037
 20
622.0289908803328
 11
1118.1202252248329
 21
615.86387382579028
  0
LINE
  8
_0-0_計極細
  6
CONTINUOUS
 62
    2
 10
1118.1202252248329
 20
615.86387382579028
 11
1117.3694865834077
 21
609.77471041663034
  0
LINE
  8
_0-0_計極細
  6
CONTINUOUS
 62
    2
 10
1117.3694865834077
 20
609.77471041663034
 11
1116.7576758344455
 21
603.92712485207517
  0
LINE
  8
_0-0_計極細
  6
CONTINUOUS
 62
    2
 10
1116.7576758344455
 20
603.92712485207517
 11
1116.2955286989061
 21
598.48110409388858
  0
LINE
  8
_0-0_計極細
  6
CONTINUOUS
 62
    2
 10
1116.2955286989061
 20
598.48110409388858
 11
1115.9774272301308
 21
593.58667107839449
  0
LINE
  8
_0-0_計極細
  6
CONTINUOUS
 62
    2
 10
1115.9774272301308
 20
593.58667107839449
 11
1115.7833608074138
 21
589.37964669551332
  0
LINE
  8
_0-0_計極細
  6
CONTINUOUS
 62
    2
 10
1115.7833608074138
 20
589.37964669551332
 11
1115.6833936275921
 21
585.97762868652273
  0
LINE
  8
_0-0_計極細
  6
CONTINUOUS
 62
    2
 10
1115.6833936275921
 20
585.97762868652273
 11
1115.6438959076872
 21
583.47634722036105
  0
LINE
  8
_0-0_計極細
  6
CONTINUOUS
 62
    2
 10
1115.6438959076872
 20
583.47634722036105
 11
1115.6343971130291
 21
581.94657492293447
  0
LINE
  8
_0-0_計極細
  6
CONTINUOUS
 62
    2
 10
1115.6343971130291
 20
581.94657492293447
 11
1115.6337498636726
 21
581.43176632391601
  0
LINE
  8
_0-0_計極細
  6
CONTINUOUS
 62
    2
 10
1115.6337498636726
 20
581.43176632391601
 11
1115.6343971130291
 21
580.91685332983991
  0
LINE
  8
_0-0_計極細
  6
CONTINUOUS
 62
    2
 10
1115.6343971130291
 20
580.91685332983991
 11
1115.6438959076872
 21
579.38554896875894
  0
LINE
  8
_0-0_計極細
  6
CONTINUOUS
 62
    2
 10
1115.6438959076872
 20
579.38554896875894
 11
1115.6833936275921
 21
576.87789690261275
  0
LINE
  8
_0-0_計極細
  6
CONTINUOUS
 62
    2
 10
1115.6833936275921
 20
576.87789690261275
 11
1115.7833608074136
 21
573.45975515494104
  0
LINE
  8
_0-0_計極細
  6
CONTINUOUS
 62
    2
 10
1115.7833608074136
 20
573.45975515494104
 11
1115.9774272301308
 21
569.22142973613779
  0
LINE
  8
_0-0_計極細
  6
CONTINUOUS
 62
    2
 10
1115.9774272301308
 20
569.22142973613779
 11
1116.2955286989061
 21
564.27569003213171
  0
LINE
  8
_0-0_計極細
  6
CONTINUOUS
 62
    2
 10
1116.2955286989061
 20
564.27569003213171
 11
1116.7576758344455
 21
558.75512941337422
  0
LINE
  8
_0-0_計極細
  6
CONTINUOUS
 62
    2
 10
1116.7576758344455
 20
558.75512941337422
 11
1117.3694865834077
 21
552.80886469576058
  0
LINE
  8
_0-0_計極細
  6
CONTINUOUS
 62
    2
 10
1117.3694865834077
 20
552.80886469576058
 11
1118.1202252248329
 21
546.59861440895133
  0
LINE
  8
_0-0_計極細
  6
CONTINUOUS
 62
    2
 10
1118.1202252248329
 20
546.59861440895133
 11
1118.9835569797037
 21
540.29425029717163
  0
LINE
  8
_0-0_計極細
  6
CONTINUOUS
 62
    2
 10
1118.9835569797037
 20
540.29425029717163
 11
1119.920680790271
 21
534.06896894833483
  0
LINE
  8
_0-0_計極細
  6
CONTINUOUS
 62
    2
 10
1119.920680790271
 20
534.06896894833483
 11
1120.8850641523773
 21
528.09427095546766
  0
LINE
  8
_0-0_計極細
  6
CONTINUOUS
 62
    2
 10
1120.8850641523773
 20
528.09427095546766
 11
1121.8277646317003
 21
522.53495603479212
  0
LINE
  8
_0-0_計極細
  6
CONTINUOUS
 62
    2
 10
1121.8277646317003
 20
522.53495603479212
 11
1122.702324763547
 21
517.54434063215115
  0
LINE
  8
_0-0_計極細
  6
CONTINUOUS
 62
    2
 10
1122.702324763547
 20
517.54434063215115
 11
1123.4684542381331
 21
513.25988109626178
  0
LINE
  8
_0-0_計極細
  6
CONTINUOUS
 62
    2
 10
1123.4684542381331
 20
513.25988109626178
 11
1124.0940969504788
 21
509.79934616048348
  0
LINE
  8
_0-0_計極細
  6
CONTINUOUS
 62
    2
 10
1124.0940969504788
 20
509.79934616048348
 11
1124.5559175829178
 21
507.25763579493929
  0
LINE
  8
_0-0_計極細
  6
CONTINUOUS
 62
    2
 10
1124.5559175829178
 20
507.25763579493929
 11
1124.8386214295313
 21
505.70429876837784
  0
LINE
  8
_0-0_計極細
  6
CONTINUOUS
 62
    2
 10
1124.8386214295313
 20
505.70429876837784
 11
1124.9337498636723
 21
505.18176632391601
  0
LINE
  8
_0-1_計細線
  6
CONTINUOUS
 62
    3
 10
1164.9337498636719
 20
530.18176632391737
 11
1120.5304928909445
 21
530.18176632391737
  0
LINE
  8
_0-1_計細線
  6
CONTINUOUS
 62
    3
 10
471.43374986367235
 20
628.18176632391737
 11
471.43374986367235
 21
622.18176632391737
  0
LINE
  8
_0-1_計細線
  6
CONTINUOUS
 62
    3
 10
471.43374986367235
 20
615.18176632391737
 11
471.43374986367235
 21
609.18176632391737
  0
LINE
  8
_0-1_計細線
  6
CONTINUOUS
 62
    3
 10
471.43374986367235
 20
602.18176632391737
 11
471.43374986367235
 21
596.18176632391737
  0
LINE
  8
_0-1_計細線
  6
CONTINUOUS
 62
    3
 10
471.43374986367235
 20
589.18176632391737
 11
471.43374986367235
 21
583.18176632391737
  0
LINE
  8
_0-1_計細線
  6
CONTINUOUS
 62
    3
 10
471.43374986367235
 20
576.18176632391737
 11
471.43374986367235
 21
570.18176632391737
  0
ARC
  8
_0-1_計細線
  6
CONTINUOUS
 62
    3
 10
271.87124986368332
 20
507.68176632391919
 40
15.06249999999028
 50
330.13716564369918
 51
29.86283435628857
  0
ARC
  8
_0-1_計細線
  6
CONTINUOUS
 62
    3
 10
297.99624986363966
 20
522.68176632390782
 40
15.062499999975882
 50
150.13716564363051
 51
209.8628343563071
  0
LINE
  8
_0-1_計細線
  6
CONTINUOUS
 62
    3
 10
471.43374986367235
 20
537.18176632391737
 11
471.43374986367235
 21
531.18176632391737
  0
LINE
  8
_0-1_計細線
  6
CONTINUOUS
 62
    3
 10
471.43374986367235
 20
524.18176632391737
 11
471.43374986367235
 21
518.18176632391737
  0
LINE
  8
_0-1_計細線
  6
CONTINUOUS
 62
    3
 10
471.43374986367235
 20
511.18176632391737
 11
471.43374986367235
 21
505.18176632391743
  0
LINE
  8
_0-1_計細線
  6
CONTINUOUS
 62
    3
 10
471.43374986367235
 20
550.18176632391737
 11
471.43374986367235
 21
544.18176632391737
  0
LINE
  8
_0-1_計細線
  6
CONTINUOUS
 62
    3
 10
471.43374986367235
 20
563.18176632391737
 11
471.43374986367235
 21
557.18176632391737
  0
LINE
  8
_0-0_計極細
  6
CONTINUOUS
 62
    2
 10
324.93374986367235
 20
656.18176632391612
 11
325.02887829781343
 21
655.67457717528339
  0
LINE
  8
_0-0_計極細
  6
CONTINUOUS
 62
    2
 10
325.02887829781343
 20
655.67457717528339
 11
325.31158214442701
 21
654.16683754333712
  0
LINE
  8
_0-0_計極細
  6
CONTINUOUS
 62
    2
 10
325.31158214442701
 20
654.16683754333712
 11
325.77340277686596
 21
651.69961437657332
  0
LINE
  8
_0-0_計極細
  6
CONTINUOUS
 62
    2
 10
325.77340277686596
 20
651.69961437657332
 11
326.39904548921163
 21
648.33998955568961
  0
LINE
  8
_0-0_計極細
  6
CONTINUOUS
 62
    2
 10
326.39904548921163
 20
648.33998955568961
 11
327.16517496379771
 21
644.17909928989457
  0
LINE
  8
_0-0_計極細
  6
CONTINUOUS
 62
    2
 10
327.16517496379771
 20
644.17909928989457
 11
328.03973509564446
 21
639.32954197303536
  0
LINE
  8
_0-0_計極細
  6
CONTINUOUS
 62
    2
 10
328.03973509564446
 20
639.32954197303536
 11
328.98243557496761
 21
633.92227551676683
  0
LINE
  8
_0-0_計極細
  6
CONTINUOUS
 62
    2
 10
328.98243557496761
 20
633.92227551676683
 11
329.9468189370736
 21
628.10312322746518
  0
LINE
  8
_0-0_計極細
  6
CONTINUOUS
 62
    2
 10
329.9468189370736
 20
628.10312322746518
 11
330.88394274764096
 21
622.0289908803328
  0
LINE
  8
_0-0_計極細
  6
CONTINUOUS
 62
    2
 10
330.88394274764096
 20
622.0289908803328
 11
331.74727450251191
 21
615.86387382579028
  0
LINE
  8
_0-0_計極細
  6
CONTINUOUS
 62
    2
 10
331.74727450251191
 20
615.86387382579028
 11
332.4980131439371
 21
609.77471041663034
  0
LINE
  8
_0-0_計極細
  6
CONTINUOUS
 62
    2
 10
332.4980131439371
 20
609.77471041663034
 11
333.1098238928991
 21
603.92712485207517
  0
LINE
  8
_0-0_計極細
  6
CONTINUOUS
 62
    2
 10
333.1098238928991
 20
603.92712485207517
 11
333.57197102843855
 21
598.48110409388858
  0
LINE
  8
_0-0_計極細
  6
CONTINUOUS
 62
    2
 10
333.57197102843855
 20
598.48110409388858
 11
333.89007249721402
 21
593.58667107839449
  0
LINE
  8
_0-0_計極細
  6
CONTINUOUS
 62
    2
 10
333.89007249721402
 20
593.58667107839449
 11
334.08413891993098
 21
589.37964669551332
  0
LINE
  8
_0-0_計極細
  6
CONTINUOUS
 62
    2
 10
334.08413891993098
 20
589.37964669551332
 11
334.18410609975251
 21
585.97762868652273
  0
LINE
  8
_0-0_計極細
  6
CONTINUOUS
 62
    2
 10
334.18410609975251
 20
585.97762868652273
 11
334.22360381965751
 21
583.47634722036105
  0
LINE
  8
_0-0_計極細
  6
CONTINUOUS
 62
    2
 10
334.22360381965751
 20
583.47634722036105
 11
334.2331026143155
 21
581.94657492293447
  0
LINE
  8
_0-0_計極細
  6
CONTINUOUS
 62
    2
 10
334.2331026143155
 20
581.94657492293447
 11
334.23374986367207
 21
581.43176632391601
  0
LINE
  8
_0-0_計極細
  6
CONTINUOUS
 62
    2
 10
334.23374986367207
 20
581.43176632391601
 11
334.2331026143155
 21
580.91685332983991
  0
LINE
  8
_0-0_計極細
  6
CONTINUOUS
 62
    2
 10
334.2331026143155
 20
580.91685332983991
 11
334.22360381965751
 21
579.38554896875894
  0
LINE
  8
_0-0_計極細
  6
CONTINUOUS
 62
    2
 10
334.22360381965751
 20
579.38554896875894
 11
334.18410609975251
 21
576.87789690261275
  0
LINE
  8
_0-0_計極細
  6
CONTINUOUS
 62
    2
 10
334.18410609975251
 20
576.87789690261275
 11
334.08413891993098
 21
573.45975515494104
  0
LINE
  8
_0-0_計極細
  6
CONTINUOUS
 62
    2
 10
334.08413891993098
 20
573.45975515494104
 11
333.89007249721402
 21
569.22142973613779
  0
LINE
  8
_0-0_計極細
  6
CONTINUOUS
 62
    2
 10
333.89007249721402
 20
569.22142973613779
 11
333.57197102843855
 21
564.27569003213171
  0
LINE
  8
_0-0_計極細
  6
CONTINUOUS
 62
    2
 10
333.57197102843855
 20
564.27569003213171
 11
333.10982389289916
 21
558.75512941337422
  0
LINE
  8
_0-0_計極細
  6
CONTINUOUS
 62
    2
 10
333.10982389289916
 20
558.75512941337422
 11
332.4980131439371
 21
552.80886469576058
  0
LINE
  8
_0-0_計極細
  6
CONTINUOUS
 62
    2
 10
332.4980131439371
 20
552.80886469576058
 11
331.74727450251191
 21
546.59861440895133
  0
LINE
  8
_0-0_計極細
  6
CONTINUOUS
 62
    2
 10
331.74727450251191
 20
546.59861440895133
 11
330.88394274764096
 21
540.29425029717163
  0
LINE
  8
_0-0_計極細
  6
CONTINUOUS
 62
    2
 10
330.88394274764096
 20
540.29425029717163
 11
329.9468189370736
 21
534.06896894833483
  0
LINE
  8
_0-0_計極細
  6
CONTINUOUS
 62
    2
 10
329.9468189370736
 20
534.06896894833483
 11
328.98243557496761
 21
528.09427095546766
  0
LINE
  8
_0-0_計極細
  6
CONTINUOUS
 62
    2
 10
328.98243557496761
 20
528.09427095546766
 11
328.03973509564446
 21
522.53495603479212
  0
LINE
  8
_0-0_計極細
  6
CONTINUOUS
 62
    2
 10
328.03973509564446
 20
522.53495603479212
 11
327.16517496379777
 21
517.54434063215115
  0
LINE
  8
_0-0_計極細
  6
CONTINUOUS
 62
    2
 10
327.16517496379777
 20
517.54434063215115
 11
326.39904548921163
 21
513.25988109626178
  0
LINE
  8
_0-0_計極細
  6
CONTINUOUS
 62
    2
 10
326.39904548921163
 20
513.25988109626178
 11
325.77340277686596
 21
509.79934616048348
  0
LINE
  8
_0-0_計極細
  6
CONTINUOUS
 62
    2
 10
325.77340277686596
 20
509.79934616048348
 11
325.31158214442701
 21
507.25763579493929
  0
LINE
  8
_0-0_計極細
  6
CONTINUOUS
 62
    2
 10
325.31158214442701
 20
507.25763579493929
 11
325.02887829781343
 21
505.70429876837784
  0
LINE
  8
_0-0_計極細
  6
CONTINUOUS
 62
    2
 10
325.02887829781343
 20
505.70429876837784
 11
324.93374986367235
 21
505.18176632391601
  0
LINE
  8
_0-1_計細線
  6
CONTINUOUS
 62
    3
 10
284.93374986367286
 20
530.18176632391737
 11
329.33700683640018
 21
530.18176632391737
  0
LINE
  8
_0-1_計細線
  6
CONTINUOUS
 62
    3
 10
471.43374986367286
 20
807.18176632391749
 11
474.4337498636728
 21
807.18176632391749
  0
LINE
  8
_0-1_計細線
  6
CONTINUOUS
 62
    3
 10
474.4337498636728
 20
807.18176632391749
 11
474.4337498636728
 21
505.18176632391743
  0
LINE
  8
_0-1_計細線
  6
CONTINUOUS
 62
    3
 10
474.4337498636728
 20
505.18176632391743
 11
471.43374986367286
 21
505.18176632391743
  0
LINE
  8
_0-1_計細線
  6
CONTINUOUS
 62
    3
 10
471.43374986367286
 20
505.18176632391743
 11
471.43374986367286
 21
807.18176632391749
  0
LINE
  8
_0-1_計細線
  6
CONTINUOUS
 62
    3
 10
978.43374986367235
 20
807.18176632391749
 11
975.43374986367235
 21
807.18176632391749
  0
LINE
  8
_0-1_計細線
  6
CONTINUOUS
 62
    3
 10
975.43374986367235
 20
807.18176632391749
 11
975.43374986367235
 21
505.18176632391743
  0
LINE
  8
_0-1_計細線
  6
CONTINUOUS
 62
    3
 10
975.43374986367235
 20
505.18176632391743
 11
978.43374986367235
 21
505.18176632391743
  0
LINE
  8
_0-1_計細線
  6
CONTINUOUS
 62
    3
 10
978.43374986367235
 20
505.18176632391743
 11
978.43374986367235
 21
807.18176632391749
  0
LINE
  8
_0-1_計細線
  6
CONTINUOUS
 62
    3
 10
974.43374986367246
 20
807.18176632391749
 11
971.43374986367235
 21
807.18176632391749
  0
LINE
  8
_0-1_計細線
  6
CONTINUOUS
 62
    3
 10
971.43374986367235
 20
807.18176632391749
 11
971.43374986367235
 21
505.18176632391743
  0
LINE
  8
_0-1_計細線
  6
CONTINUOUS
 62
    3
 10
971.43374986367235
 20
505.18176632391743
 11
974.43374986367246
 21
505.18176632391743
  0
LINE
  8
_0-1_計細線
  6
CONTINUOUS
 62
    3
 10
974.43374986367246
 20
505.18176632391743
 11
974.43374986367246
 21
807.18176632391749
  0
LINE
  8
_0-1_計細線
  6
CONTINUOUS
 62
    3
 10
478.43374986367235
 20
807.18176632391749
 11
475.4337498636724
 21
807.18176632391749
  0
LINE
  8
_0-1_計細線
  6
CONTINUOUS
 62
    3
 10
475.4337498636724
 20
807.18176632391749
 11
475.4337498636724
 21
505.18176632391743
  0
LINE
  8
_0-1_計細線
  6
CONTINUOUS
 62
    3
 10
475.4337498636724
 20
505.18176632391743
 11
478.43374986367235
 21
505.18176632391743
  0
LINE
  8
_0-1_計細線
  6
CONTINUOUS
 62
    3
 10
478.43374986367235
 20
505.18176632391743
 11
478.43374986367235
 21
807.18176632391749
  0
LINE
  8
_0-0_計極細
  6
CENTER2
 62
    2
 10
1074.9337498636723
 20
801.18176632391737
 11
1074.9337498636723
 21
511.18176632391737
  0
LINE
  8
_0-0_計極細
  6
CENTER2
 62
    2
 10
874.93374986367246
 20
801.18176632391737
 11
874.93374986367246
 21
511.18176632391737
  0
LINE
  8
_0-0_計極細
  6
CENTER2
 62
    2
 10
774.93374986367246
 20
801.18176632391737
 11
774.93374986367246
 21
511.18176632391737
  0
LINE
  8
_0-0_計極細
  6
CENTER2
 62
    2
 10
674.93374986367246
 20
801.18176632391737
 11
674.93374986367246
 21
511.18176632391737
  0
LINE
  8
_0-0_計極細
  6
CENTER2
 62
    2
 10
574.93374986367235
 20
801.18176632391737
 11
574.93374986367235
 21
511.18176632391737
  0
LINE
  8
_0-5_寸法線
  6
CONTINUOUS
 62
    7
 10
272.93374986367013
 20
500.18176632391607
 11
227.93374986367013
 21
500.18176632391601
  0
LINE
  8
_0-5_寸法線
  6
CONTINUOUS
 62
    7
 10
232.93374986367013
 20
500.18176632391601
 11
230.34555941264486
 21
509.84102458680667
  0
LINE
  8
_0-5_寸法線
  6
CONTINUOUS
 62
    7
 10
232.93374986367013
 20
500.18176632391601
 11
235.52194031469526
 21
509.84102458680667
  0
LINE
  8
_0-5_寸法線
  6
CONTINUOUS
 62
    7
 10
272.93374986367013
 20
530.18176632391737
 11
227.93374986367013
 21
530.1817663239176
  0
LINE
  8
_0-5_寸法線
  6
CONTINUOUS
 62
    7
 10
232.93374986367013
 20
530.1817663239176
 11
235.52194031469526
 21
520.52250806102688
  0
LINE
  8
_0-5_寸法線
  6
CONTINUOUS
 62
    7
 10
232.93374986367013
 20
530.1817663239176
 11
230.34555941264486
 21
520.52250806102688
  0
LINE
  8
_0-5_寸法線
  6
CONTINUOUS
 62
    7
 10
232.93374986367013
 20
500.18176632391601
 11
232.93374986367013
 21
530.1817663239176
  0
TEXT
  8
_0-5_寸法線
 62
    7
 10
232.93374986367013
 20
507.68176632391692
 40
15
 41
1
 50
90
  1
30
  0
LINE
  8
_0-5_寸法線
  6
CONTINUOUS
 62
    7
 10
232.93374986367013
 20
530.1817663239176
 11
230.34555941264486
 21
539.84102458680832
  0
LINE
  8
_0-5_寸法線
  6
CONTINUOUS
 62
    7
 10
232.93374986367013
 20
530.1817663239176
 11
235.52194031469526
 21
539.84102458680832
  0
LINE
  8
_0-5_寸法線
  6
CONTINUOUS
 62
    7
 10
272.93374986367013
 20
782.18176632391749
 11
227.93374986367013
 21
782.18176632391749
  0
LINE
  8
_0-5_寸法線
  6
CONTINUOUS
 62
    7
 10
232.93374986367013
 20
782.18176632391749
 11
235.52194031469526
 21
772.52250806102666
  0
LINE
  8
_0-5_寸法線
  6
CONTINUOUS
 62
    7
 10
232.93374986367013
 20
782.18176632391749
 11
230.34555941264486
 21
772.52250806102666
  0
LINE
  8
_0-5_寸法線
  6
CONTINUOUS
 62
    7
 10
232.93374986367013
 20
530.1817663239176
 11
232.93374986367013
 21
782.18176632391749
  0
TEXT
  8
_0-5_寸法線
 62
    7
 10
232.93374986367007
 20
644.9317663239176
 40
15
 41
1
 50
89.999999999999815
  1
252
  0
LINE
  8
_0-5_寸法線
  6
CONTINUOUS
 62
    7
 10
232.93374986367013
 20
782.18176632391749
 11
230.34555941264486
 21
791.84102458680809
  0
LINE
  8
_0-5_寸法線
  6
CONTINUOUS
 62
    7
 10
232.93374986367013
 20
782.18176632391749
 11
235.52194031469526
 21
791.84102458680809
  0
LINE
  8
_0-5_寸法線
  6
CONTINUOUS
 62
    7
 10
272.93374986367013
 20
812.18176632391601
 11
227.93374986367013
 21
812.18176632391601
  0
LINE
  8
_0-5_寸法線
  6
CONTINUOUS
 62
    7
 10
232.93374986367013
 20
812.18176632391601
 11
235.52194031469526
 21
802.52250806102541
  0
LINE
  8
_0-5_寸法線
  6
CONTINUOUS
 62
    7
 10
232.93374986367013
 20
812.18176632391601
 11
230.34555941264486
 21
802.52250806102541
  0
LINE
  8
_0-5_寸法線
  6
CONTINUOUS
 62
    7
 10
232.93374986367013
 20
782.18176632391749
 11
232.93374986367013
 21
812.18176632391601
  0
TEXT
  8
_0-5_寸法線
 62
    7
 10
232.93374986367013
 20
789.68176632391669
 40
15
 41
1
 50
90
  1
30
  0
LINE
  8
_0-5_寸法線
  6
CONTINUOUS
 62
    7
 10
1176.9337498636751
 20
500.18176632391601
 11
1256.9337498636751
 21
500.18176632391578
  0
LINE
  8
_0-5_寸法線
  6
CONTINUOUS
 62
    7
 10
1251.9337498636751
 20
500.18176632391578
 11
1249.3455594126499
 21
509.84102458680644
  0
LINE
  8
_0-5_寸法線
  6
CONTINUOUS
 62
    7
 10
1251.9337498636751
 20
500.18176632391578
 11
1254.5219403147003
 21
509.84102458680644
  0
LINE
  8
_0-5_寸法線
  6
CONTINUOUS
 62
    7
 10
1176.9337498636751
 20
812.18176632391601
 11
1256.9337498636751
 21
812.18176632391589
  0
LINE
  8
_0-5_寸法線
  6
CONTINUOUS
 62
    7
 10
1251.9337498636751
 20
812.18176632391589
 11
1254.5219403147003
 21
802.52250806102506
  0
LINE
  8
_0-5_寸法線
  6
CONTINUOUS
 62
    7
 10
1251.9337498636751
 20
812.18176632391589
 11
1249.3455594126499
 21
802.52250806102506
  0
LINE
  8
_0-5_寸法線
  6
CONTINUOUS
 62
    7
 10
1251.9337498636751
 20
500.18176632391578
 11
1251.9337498636751
 21
812.18176632391589
  0
TEXT
  8
_0-5_寸法線
 62
    7
 10
1251.9337498636751
 20
644.93176632391555
 40
15
 41
1
 50
90
  1
312
  0
LINE
  8
_0-0_計極細
  6
CENTER2
 62
    2
 10
374.93374986367235
 20
801.18176632391737
 11
374.93374986367235
 21
511.18176632391737
  0
LINE
  8
_0-1_計細線
  6
CONTINUOUS
 62
    3
 10
478.43374986367235
 20
807.18176632391749
 11
478.43374986367235
 21
799.1817663239176
  0
LINE
  8
_0-1_計細線
  6
CONTINUOUS
 62
    3
 10
478.43374986367235
 20
799.1817663239176
 11
971.43374986367235
 21
799.1817663239176
  0
LINE
  8
_0-1_計細線
  6
CONTINUOUS
 62
    3
 10
971.43374986367235
 20
799.1817663239176
 11
971.43374986367235
 21
807.18176632391749
  0
LINE
  8
_0-1_計細線
  6
CONTINUOUS
 62
    3
 10
971.43374986367235
 20
807.18176632391749
 11
478.43374986367235
 21
807.18176632391749
  0
LINE
  8
_0-1_計細線
  6
CONTINUOUS
 62
    3
 10
478.43374986367235
 20
793.18176632391737
 11
478.43374986367235
 21
785.18176632391771
  0
LINE
  8
_0-1_計細線
  6
CONTINUOUS
 62
    3
 10
478.43374986367235
 20
785.18176632391771
 11
971.43374986367235
 21
785.18176632391771
  0
LINE
  8
_0-1_計細線
  6
CONTINUOUS
 62
    3
 10
971.43374986367235
 20
785.18176632391771
 11
971.43374986367235
 21
793.18176632391737
  0
LINE
  8
_0-1_計細線
  6
CONTINUOUS
 62
    3
 10
971.43374986367235
 20
793.18176632391737
 11
478.43374986367235
 21
793.18176632391737
  0
LINE
  8
_0-1_計細線
  6
CONTINUOUS
 62
    3
 10
478.43374986367235
 20
779.1817663239176
 11
478.43374986367235
 21
771.18176632391805
  0
LINE
  8
_0-1_計細線
  6
CONTINUOUS
 62
    3
 10
478.43374986367235
 20
771.18176632391805
 11
971.43374986367235
 21
771.18176632391805
  0
LINE
  8
_0-1_計細線
  6
CONTINUOUS
 62
    3
 10
971.43374986367235
 20
771.18176632391805
 11
971.43374986367235
 21
779.1817663239176
  0
LINE
  8
_0-1_計細線
  6
CONTINUOUS
 62
    3
 10
971.43374986367235
 20
779.1817663239176
 11
478.43374986367235
 21
779.1817663239176
  0
LINE
  8
_0-1_計細線
  6
CONTINUOUS
 62
    3
 10
478.43374986367235
 20
765.1817663239176
 11
478.43374986367235
 21
757.18176632391783
  0
LINE
  8
_0-1_計細線
  6
CONTINUOUS
 62
    3
 10
478.43374986367235
 20
757.18176632391783
 11
971.43374986367235
 21
757.18176632391783
  0
LINE
  8
_0-1_計細線
  6
CONTINUOUS
 62
    3
 10
971.43374986367235
 20
757.18176632391783
 11
971.43374986367235
 21
765.1817663239176
  0
LINE
  8
_0-1_計細線
  6
CONTINUOUS
 62
    3
 10
971.43374986367235
 20
765.1817663239176
 11
478.43374986367235
 21
765.1817663239176
  0
LINE
  8
_0-1_計細線
  6
CONTINUOUS
 62
    3
 10
478.43374986367235
 20
751.1817663239176
 11
478.43374986367235
 21
743.18176632391783
  0
LINE
  8
_0-1_計細線
  6
CONTINUOUS
 62
    3
 10
478.43374986367235
 20
743.18176632391783
 11
971.43374986367235
 21
743.18176632391783
  0
LINE
  8
_0-1_計細線
  6
CONTINUOUS
 62
    3
 10
971.43374986367235
 20
743.18176632391783
 11
971.43374986367235
 21
751.1817663239176
  0
LINE
  8
_0-1_計細線
  6
CONTINUOUS
 62
    3
 10
971.43374986367235
 20
751.1817663239176
 11
478.43374986367235
 21
751.1817663239176
  0
LINE
  8
_0-1_計細線
  6
CONTINUOUS
 62
    3
 10
478.43374986367235
 20
737.18176632391749
 11
478.43374986367235
 21
729.1817663239176
  0
LINE
  8
_0-1_計細線
  6
CONTINUOUS
 62
    3
 10
478.43374986367235
 20
729.1817663239176
 11
971.43374986367235
 21
729.1817663239176
  0
LINE
  8
_0-1_計細線
  6
CONTINUOUS
 62
    3
 10
971.43374986367235
 20
729.1817663239176
 11
971.43374986367235
 21
737.18176632391749
  0
LINE
  8
_0-1_計細線
  6
CONTINUOUS
 62
    3
 10
971.43374986367235
 20
737.18176632391749
 11
478.43374986367235
 21
737.18176632391749
  0
LINE
  8
_0-1_計細線
  6
CONTINUOUS
 62
    3
 10
478.43374986367235
 20
723.18176632391737
 11
478.43374986367235
 21
715.1817663239176
  0
LINE
  8
_0-1_計細線
  6
CONTINUOUS
 62
    3
 10
478.43374986367235
 20
715.1817663239176
 11
971.43374986367235
 21
715.1817663239176
  0
LINE
  8
_0-1_計細線
  6
CONTINUOUS
 62
    3
 10
971.43374986367235
 20
715.1817663239176
 11
971.43374986367235
 21
723.18176632391737
  0
LINE
  8
_0-1_計細線
  6
CONTINUOUS
 62
    3
 10
971.43374986367235
 20
723.18176632391737
 11
478.43374986367235
 21
723.18176632391737
  0
LINE
  8
_0-0_計極細
  6
CONTINUOUS
 62
    2
 10
577.43374986367235
 20
799.1817663239176
 11
577.43374986367235
 21
793.18176632391737
  0
LINE
  8
_0-0_計極細
  6
CONTINUOUS
 62
    2
 10
572.43374986367235
 20
793.18176632391726
 11
572.43374986367235
 21
799.1817663239176
  0
LINE
  8
_0-0_計極細
  6
CONTINUOUS
 62
    2
 10
577.43374986367235
 20
785.18176632391771
 11
577.43374986367235
 21
779.18176632391715
  0
LINE
  8
_0-0_計極細
  6
CONTINUOUS
 62
    2
 10
572.43374986367235
 20
779.18176632391715
 11
572.43374986367235
 21
785.18176632391771
  0
LINE
  8
_0-0_計極細
  6
CONTINUOUS
 62
    2
 10
577.43374986367235
 20
771.1817663239176
 11
577.43374986367235
 21
765.18176632391715
  0
LINE
  8
_0-0_計極細
  6
CONTINUOUS
 62
    2
 10
572.43374986367235
 20
765.18176632391715
 11
572.43374986367235
 21
771.1817663239176
  0
LINE
  8
_0-0_計極細
  6
CONTINUOUS
 62
    2
 10
577.43374986367235
 20
757.18176632391715
 11
577.43374986367235
 21
751.18176632391692
  0
LINE
  8
_0-0_計極細
  6
CONTINUOUS
 62
    2
 10
572.43374986367235
 20
751.18176632391669
 11
572.43374986367235
 21
757.18176632391715
  0
LINE
  8
_0-0_計極細
  6
CONTINUOUS
 62
    2
 10
577.43374986367235
 20
743.18176632391715
 11
577.43374986367235
 21
737.18176632391692
  0
LINE
  8
_0-0_計極細
  6
CONTINUOUS
 62
    2
 10
572.43374986367235
 20
737.18176632391669
 11
572.43374986367235
 21
743.18176632391715
  0
LINE
  8
_0-0_計極細
  6
CONTINUOUS
 62
    2
 10
577.43374986367235
 20
729.18176632391715
 11
577.43374986367235
 21
723.18176632391692
  0
LINE
  8
_0-0_計極細
  6
CONTINUOUS
 62
    2
 10
572.43374986367235
 20
723.18176632391669
 11
572.43374986367235
 21
729.18176632391715
  0
LINE
  8
_0-0_計極細
  6
CONTINUOUS
 62
    2
 10
677.43374986367246
 20
799.1817663239176
 11
677.43374986367246
 21
793.18176632391737
  0
LINE
  8
_0-0_計極細
  6
CONTINUOUS
 62
    2
 10
672.43374986367246
 20
793.18176632391726
 11
672.43374986367246
 21
799.1817663239176
  0
LINE
  8
_0-0_計極細
  6
CONTINUOUS
 62
    2
 10
677.43374986367246
 20
785.18176632391771
 11
677.43374986367246
 21
779.18176632391715
  0
LINE
  8
_0-0_計極細
  6
CONTINUOUS
 62
    2
 10
672.43374986367246
 20
779.18176632391715
 11
672.43374986367246
 21
785.18176632391771
  0
LINE
  8
_0-0_計極細
  6
CONTINUOUS
 62
    2
 10
677.43374986367246
 20
771.1817663239176
 11
677.43374986367246
 21
765.18176632391715
  0
LINE
  8
_0-0_計極細
  6
CONTINUOUS
 62
    2
 10
672.43374986367246
 20
765.18176632391715
 11
672.43374986367246
 21
771.1817663239176
  0
LINE
  8
_0-0_計極細
  6
CONTINUOUS
 62
    2
 10
677.43374986367246
 20
757.18176632391715
 11
677.43374986367246
 21
751.18176632391692
  0
LINE
  8
_0-0_計極細
  6
CONTINUOUS
 62
    2
 10
672.43374986367246
 20
751.18176632391669
 11
672.43374986367246
 21
757.18176632391715
  0
LINE
  8
_0-0_計極細
  6
CONTINUOUS
 62
    2
 10
677.43374986367246
 20
743.18176632391715
 11
677.43374986367246
 21
737.18176632391692
  0
LINE
  8
_0-0_計極細
  6
CONTINUOUS
 62
    2
 10
672.43374986367246
 20
737.18176632391669
 11
672.43374986367246
 21
743.18176632391715
  0
LINE
  8
_0-0_計極細
  6
CONTINUOUS
 62
    2
 10
677.43374986367246
 20
729.18176632391715
 11
677.43374986367246
 21
723.18176632391692
  0
LINE
  8
_0-0_計極細
  6
CONTINUOUS
 62
    2
 10
672.43374986367246
 20
723.18176632391669
 11
672.43374986367246
 21
729.18176632391715
  0
LINE
  8
_0-0_計極細
  6
CONTINUOUS
 62
    2
 10
777.43374986367246
 20
799.1817663239176
 11
777.43374986367246
 21
793.18176632391737
  0
LINE
  8
_0-0_計極細
  6
CONTINUOUS
 62
    2
 10
772.43374986367246
 20
793.18176632391726
 11
772.43374986367246
 21
799.1817663239176
  0
LINE
  8
_0-0_計極細
  6
CONTINUOUS
 62
    2
 10
777.43374986367246
 20
785.18176632391771
 11
777.43374986367246
 21
779.18176632391715
  0
LINE
  8
_0-0_計極細
  6
CONTINUOUS
 62
    2
 10
772.43374986367246
 20
779.18176632391715
 11
772.43374986367246
 21
785.18176632391771
  0
LINE
  8
_0-0_計極細
  6
CONTINUOUS
 62
    2
 10
777.43374986367246
 20
771.1817663239176
 11
777.43374986367246
 21
765.18176632391715
  0
LINE
  8
_0-0_計極細
  6
CONTINUOUS
 62
    2
 10
772.43374986367246
 20
765.18176632391715
 11
772.43374986367246
 21
771.1817663239176
  0
LINE
  8
_0-0_計極細
  6
CONTINUOUS
 62
    2
 10
777.43374986367246
 20
757.18176632391715
 11
777.43374986367246
 21
751.18176632391692
  0
LINE
  8
_0-0_計極細
  6
CONTINUOUS
 62
    2
 10
772.43374986367246
 20
751.18176632391669
 11
772.43374986367246
 21
757.18176632391715
  0
LINE
  8
_0-0_計極細
  6
CONTINUOUS
 62
    2
 10
777.43374986367246
 20
743.18176632391715
 11
777.43374986367246
 21
737.18176632391692
  0
LINE
  8
_0-0_計極細
  6
CONTINUOUS
 62
    2
 10
772.43374986367246
 20
737.18176632391669
 11
772.43374986367246
 21
743.18176632391715
  0
LINE
  8
_0-0_計極細
  6
CONTINUOUS
 62
    2
 10
777.43374986367246
 20
729.18176632391715
 11
777.43374986367246
 21
723.18176632391692
  0
LINE
  8
_0-0_計極細
  6
CONTINUOUS
 62
    2
 10
772.43374986367246
 20
723.18176632391669
 11
772.43374986367246
 21
729.18176632391715
  0
LINE
  8
_0-0_計極細
  6
CONTINUOUS
 62
    2
 10
877.43374986367246
 20
799.1817663239176
 11
877.43374986367246
 21
793.18176632391737
  0
LINE
  8
_0-0_計極細
  6
CONTINUOUS
 62
    2
 10
872.43374986367246
 20
793.18176632391726
 11
872.43374986367246
 21
799.1817663239176
  0
LINE
  8
_0-0_計極細
  6
CONTINUOUS
 62
    2
 10
877.43374986367246
 20
785.18176632391771
 11
877.43374986367246
 21
779.18176632391715
  0
LINE
  8
_0-0_計極細
  6
CONTINUOUS
 62
    2
 10
872.43374986367246
 20
779.18176632391715
 11
872.43374986367246
 21
785.18176632391771
  0
LINE
  8
_0-0_計極細
  6
CONTINUOUS
 62
    2
 10
877.43374986367246
 20
771.1817663239176
 11
877.43374986367246
 21
765.18176632391715
  0
LINE
  8
_0-0_計極細
  6
CONTINUOUS
 62
    2
 10
872.43374986367246
 20
765.18176632391715
 11
872.43374986367246
 21
771.1817663239176
  0
LINE
  8
_0-0_計極細
  6
CONTINUOUS
 62
    2
 10
877.43374986367246
 20
757.18176632391715
 11
877.43374986367246
 21
751.18176632391692
  0
LINE
  8
_0-0_計極細
  6
CONTINUOUS
 62
    2
 10
872.43374986367246
 20
751.18176632391669
 11
872.43374986367246
 21
757.18176632391715
  0
LINE
  8
_0-0_計極細
  6
CONTINUOUS
 62
    2
 10
877.43374986367246
 20
743.18176632391715
 11
877.43374986367246
 21
737.18176632391692
  0
LINE
  8
_0-0_計極細
  6
CONTINUOUS
 62
    2
 10
872.43374986367246
 20
737.18176632391669
 11
872.43374986367246
 21
743.18176632391715
  0
LINE
  8
_0-0_計極細
  6
CONTINUOUS
 62
    2
 10
877.43374986367246
 20
729.18176632391715
 11
877.43374986367246
 21
723.18176632391692
  0
LINE
  8
_0-0_計極細
  6
CONTINUOUS
 62
    2
 10
872.43374986367246
 20
723.18176632391669
 11
872.43374986367246
 21
729.18176632391715
  0
LINE
  8
_0-1_計細線
  6
CONTINUOUS
 62
    3
 10
478.43374986367235
 20
709.18176632391737
 11
478.43374986367235
 21
701.1817663239176
  0
LINE
  8
_0-1_計細線
  6
CONTINUOUS
 62
    3
 10
478.43374986367235
 20
701.1817663239176
 11
971.43374986367235
 21
701.1817663239176
  0
LINE
  8
_0-1_計細線
  6
CONTINUOUS
 62
    3
 10
971.43374986367235
 20
701.1817663239176
 11
971.43374986367235
 21
709.18176632391737
  0
LINE
  8
_0-1_計細線
  6
CONTINUOUS
 62
    3
 10
971.43374986367235
 20
709.18176632391737
 11
478.43374986367235
 21
709.18176632391737
  0
LINE
  8
_0-0_計極細
  6
CONTINUOUS
 62
    2
 10
577.43374986367235
 20
715.18176632391715
 11
577.43374986367235
 21
709.18176632391692
  0
LINE
  8
_0-0_計極細
  6
CONTINUOUS
 62
    2
 10
572.43374986367235
 20
709.1817663239168
 11
572.43374986367235
 21
715.18176632391715
  0
LINE
  8
_0-0_計極細
  6
CONTINUOUS
 62
    2
 10
677.43374986367246
 20
715.18176632391715
 11
677.43374986367246
 21
709.18176632391692
  0
LINE
  8
_0-0_計極細
  6
CONTINUOUS
 62
    2
 10
672.43374986367246
 20
709.1817663239168
 11
672.43374986367246
 21
715.18176632391715
  0
LINE
  8
_0-0_計極細
  6
CONTINUOUS
 62
    2
 10
777.43374986367246
 20
715.18176632391715
 11
777.43374986367246
 21
709.18176632391692
  0
LINE
  8
_0-0_計極細
  6
CONTINUOUS
 62
    2
 10
772.43374986367246
 20
709.1817663239168
 11
772.43374986367246
 21
715.18176632391715
  0
LINE
  8
_0-0_計極細
  6
CONTINUOUS
 62
    2
 10
877.43374986367246
 20
715.18176632391715
 11
877.43374986367246
 21
709.18176632391692
  0
LINE
  8
_0-0_計極細
  6
CONTINUOUS
 62
    2
 10
872.43374986367246
 20
709.1817663239168
 11
872.43374986367246
 21
715.18176632391715
  0
LINE
  8
_0-1_計細線
  6
CONTINUOUS
 62
    3
 10
478.43374986367235
 20
695.18176632391737
 11
478.43374986367235
 21
687.1817663239176
  0
LINE
  8
_0-1_計細線
  6
CONTINUOUS
 62
    3
 10
478.43374986367235
 20
687.1817663239176
 11
971.43374986367235
 21
687.1817663239176
  0
LINE
  8
_0-1_計細線
  6
CONTINUOUS
 62
    3
 10
971.43374986367235
 20
687.1817663239176
 11
971.43374986367235
 21
695.18176632391737
  0
LINE
  8
_0-1_計細線
  6
CONTINUOUS
 62
    3
 10
971.43374986367235
 20
695.18176632391737
 11
478.43374986367235
 21
695.18176632391737
  0
LINE
  8
_0-0_計極細
  6
CONTINUOUS
 62
    2
 10
577.43374986367235
 20
701.18176632391726
 11
577.43374986367235
 21
695.18176632391703
  0
LINE
  8
_0-0_計極細
  6
CONTINUOUS
 62
    2
 10
572.43374986367235
 20
695.18176632391669
 11
572.43374986367235
 21
701.18176632391726
  0
LINE
  8
_0-0_計極細
  6
CONTINUOUS
 62
    2
 10
677.43374986367246
 20
701.18176632391726
 11
677.43374986367246
 21
695.18176632391703
  0
LINE
  8
_0-0_計極細
  6
CONTINUOUS
 62
    2
 10
672.43374986367246
 20
695.18176632391669
 11
672.43374986367246
 21
701.18176632391726
  0
LINE
  8
_0-0_計極細
  6
CONTINUOUS
 62
    2
 10
777.43374986367246
 20
701.18176632391726
 11
777.43374986367246
 21
695.18176632391703
  0
LINE
  8
_0-0_計極細
  6
CONTINUOUS
 62
    2
 10
772.43374986367246
 20
695.18176632391669
 11
772.43374986367246
 21
701.18176632391726
  0
LINE
  8
_0-0_計極細
  6
CONTINUOUS
 62
    2
 10
877.43374986367246
 20
701.18176632391726
 11
877.43374986367246
 21
695.18176632391703
  0
LINE
  8
_0-0_計極細
  6
CONTINUOUS
 62
    2
 10
872.43374986367246
 20
695.18176632391669
 11
872.43374986367246
 21
701.18176632391726
  0
LINE
  8
_0-1_計細線
  6
CONTINUOUS
 62
    3
 10
478.43374986367235
 20
681.18176632391737
 11
478.43374986367235
 21
673.18176632391771
  0
LINE
  8
_0-1_計細線
  6
CONTINUOUS
 62
    3
 10
478.43374986367235
 20
673.18176632391771
 11
971.43374986367235
 21
673.18176632391771
  0
LINE
  8
_0-1_計細線
  6
CONTINUOUS
 62
    3
 10
971.43374986367235
 20
673.18176632391771
 11
971.43374986367235
 21
681.18176632391737
  0
LINE
  8
_0-1_計細線
  6
CONTINUOUS
 62
    3
 10
971.43374986367235
 20
681.18176632391737
 11
478.43374986367235
 21
681.18176632391737
  0
LINE
  8
_0-0_計極細
  6
CONTINUOUS
 62
    2
 10
577.43374986367235
 20
687.18176632391715
 11
577.43374986367235
 21
681.18176632391692
  0
LINE
  8
_0-0_計極細
  6
CONTINUOUS
 62
    2
 10
572.43374986367235
 20
681.18176632391669
 11
572.43374986367235
 21
687.18176632391715
  0
LINE
  8
_0-0_計極細
  6
CONTINUOUS
 62
    2
 10
677.43374986367246
 20
687.18176632391715
 11
677.43374986367246
 21
681.18176632391692
  0
LINE
  8
_0-0_計極細
  6
CONTINUOUS
 62
    2
 10
672.43374986367246
 20
681.18176632391669
 11
672.43374986367246
 21
687.18176632391715
  0
LINE
  8
_0-0_計極細
  6
CONTINUOUS
 62
    2
 10
777.43374986367246
 20
687.18176632391715
 11
777.43374986367246
 21
681.18176632391692
  0
LINE
  8
_0-0_計極細
  6
CONTINUOUS
 62
    2
 10
772.43374986367246
 20
681.18176632391669
 11
772.43374986367246
 21
687.18176632391715
  0
LINE
  8
_0-0_計極細
  6
CONTINUOUS
 62
    2
 10
877.43374986367246
 20
687.18176632391715
 11
877.43374986367246
 21
681.18176632391692
  0
LINE
  8
_0-0_計極細
  6
CONTINUOUS
 62
    2
 10
872.43374986367246
 20
681.18176632391669
 11
872.43374986367246
 21
687.18176632391715
  0
LINE
  8
_0-1_計細線
  6
CONTINUOUS
 62
    3
 10
478.43374986367235
 20
667.18176632391749
 11
478.43374986367235
 21
659.1817663239176
  0
LINE
  8
_0-1_計細線
  6
CONTINUOUS
 62
    3
 10
478.43374986367235
 20
659.1817663239176
 11
971.43374986367235
 21
659.1817663239176
  0
LINE
  8
_0-1_計細線
  6
CONTINUOUS
 62
    3
 10
971.43374986367235
 20
659.1817663239176
 11
971.43374986367235
 21
667.18176632391749
  0
LINE
  8
_0-1_計細線
  6
CONTINUOUS
 62
    3
 10
971.43374986367235
 20
667.18176632391749
 11
478.43374986367235
 21
667.18176632391749
  0
LINE
  8
_0-0_計極細
  6
CONTINUOUS
 62
    2
 10
577.43374986367235
 20
673.18176632391715
 11
577.43374986367235
 21
667.18176632391692
  0
LINE
  8
_0-0_計極細
  6
CONTINUOUS
 62
    2
 10
572.43374986367235
 20
667.18176632391669
 11
572.43374986367235
 21
673.18176632391715
  0
LINE
  8
_0-0_計極細
  6
CONTINUOUS
 62
    2
 10
677.43374986367246
 20
673.18176632391715
 11
677.43374986367246
 21
667.18176632391692
  0
LINE
  8
_0-0_計極細
  6
CONTINUOUS
 62
    2
 10
672.43374986367246
 20
667.18176632391669
 11
672.43374986367246
 21
673.18176632391715
  0
LINE
  8
_0-0_計極細
  6
CONTINUOUS
 62
    2
 10
777.43374986367246
 20
673.18176632391715
 11
777.43374986367246
 21
667.18176632391692
  0
LINE
  8
_0-0_計極細
  6
CONTINUOUS
 62
    2
 10
772.43374986367246
 20
667.18176632391669
 11
772.43374986367246
 21
673.18176632391715
  0
LINE
  8
_0-0_計極細
  6
CONTINUOUS
 62
    2
 10
877.43374986367246
 20
673.18176632391715
 11
877.43374986367246
 21
667.18176632391692
  0
LINE
  8
_0-0_計極細
  6
CONTINUOUS
 62
    2
 10
872.43374986367246
 20
667.18176632391669
 11
872.43374986367246
 21
673.18176632391715
  0
LINE
  8
_0-1_計細線
  6
CONTINUOUS
 62
    3
 10
478.43374986367235
 20
653.18176632391737
 11
478.43374986367235
 21
645.1817663239176
  0
LINE
  8
_0-1_計細線
  6
CONTINUOUS
 62
    3
 10
478.43374986367235
 20
645.1817663239176
 11
971.43374986367235
 21
645.1817663239176
  0
LINE
  8
_0-1_計細線
  6
CONTINUOUS
 62
    3
 10
971.43374986367235
 20
645.1817663239176
 11
971.43374986367235
 21
653.18176632391737
  0
LINE
  8
_0-1_計細線
  6
CONTINUOUS
 62
    3
 10
971.43374986367235
 20
653.18176632391737
 11
478.43374986367235
 21
653.18176632391737
  0
LINE
  8
_0-0_計極細
  6
CONTINUOUS
 62
    2
 10
577.43374986367235
 20
659.18176632391715
 11
577.43374986367235
 21
653.18176632391692
  0
LINE
  8
_0-0_計極細
  6
CONTINUOUS
 62
    2
 10
572.43374986367235
 20
653.18176632391669
 11
572.43374986367235
 21
659.18176632391715
  0
LINE
  8
_0-0_計極細
  6
CONTINUOUS
 62
    2
 10
677.43374986367246
 20
659.18176632391715
 11
677.43374986367246
 21
653.18176632391692
  0
LINE
  8
_0-0_計極細
  6
CONTINUOUS
 62
    2
 10
672.43374986367246
 20
653.18176632391669
 11
672.43374986367246
 21
659.18176632391715
  0
LINE
  8
_0-0_計極細
  6
CONTINUOUS
 62
    2
 10
777.43374986367246
 20
659.18176632391715
 11
777.43374986367246
 21
653.18176632391692
  0
LINE
  8
_0-0_計極細
  6
CONTINUOUS
 62
    2
 10
772.43374986367246
 20
653.18176632391669
 11
772.43374986367246
 21
659.18176632391715
  0
LINE
  8
_0-0_計極細
  6
CONTINUOUS
 62
    2
 10
877.43374986367246
 20
659.18176632391715
 11
877.43374986367246
 21
653.18176632391692
  0
LINE
  8
_0-0_計極細
  6
CONTINUOUS
 62
    2
 10
872.43374986367246
 20
653.18176632391669
 11
872.43374986367246
 21
659.18176632391715
  0
LINE
  8
_0-1_計細線
  6
CONTINUOUS
 62
    3
 10
478.43374986367235
 20
639.18176632391737
 11
478.43374986367235
 21
631.1817663239176
  0
LINE
  8
_0-1_計細線
  6
CONTINUOUS
 62
    3
 10
478.43374986367235
 20
631.1817663239176
 11
971.43374986367235
 21
631.1817663239176
  0
LINE
  8
_0-1_計細線
  6
CONTINUOUS
 62
    3
 10
971.43374986367235
 20
631.1817663239176
 11
971.43374986367235
 21
639.18176632391737
  0
LINE
  8
_0-1_計細線
  6
CONTINUOUS
 62
    3
 10
971.43374986367235
 20
639.18176632391737
 11
478.43374986367235
 21
639.18176632391737
  0
LINE
  8
_0-0_計極細
  6
CONTINUOUS
 62
    2
 10
577.43374986367235
 20
645.18176632391715
 11
577.43374986367235
 21
639.18176632391692
  0
LINE
  8
_0-0_計極細
  6
CONTINUOUS
 62
    2
 10
572.43374986367235
 20
639.18176632391669
 11
572.43374986367235
 21
645.18176632391715
  0
LINE
  8
_0-0_計極細
  6
CONTINUOUS
 62
    2
 10
677.43374986367246
 20
645.18176632391715
 11
677.43374986367246
 21
639.18176632391692
  0
LINE
  8
_0-0_計極細
  6
CONTINUOUS
 62
    2
 10
672.43374986367246
 20
639.18176632391669
 11
672.43374986367246
 21
645.18176632391715
  0
LINE
  8
_0-0_計極細
  6
CONTINUOUS
 62
    2
 10
777.43374986367246
 20
645.18176632391715
 11
777.43374986367246
 21
639.18176632391692
  0
LINE
  8
_0-0_計極細
  6
CONTINUOUS
 62
    2
 10
772.43374986367246
 20
639.18176632391669
 11
772.43374986367246
 21
645.18176632391715
  0
LINE
  8
_0-0_計極細
  6
CONTINUOUS
 62
    2
 10
877.43374986367246
 20
645.18176632391715
 11
877.43374986367246
 21
639.18176632391692
  0
LINE
  8
_0-0_計極細
  6
CONTINUOUS
 62
    2
 10
872.43374986367246
 20
639.18176632391669
 11
872.43374986367246
 21
645.18176632391715
  0
LINE
  8
_0-1_計細線
  6
CONTINUOUS
 62
    3
 10
478.43374986367235
 20
625.18176632391737
 11
478.43374986367235
 21
617.1817663239176
  0
LINE
  8
_0-1_計細線
  6
CONTINUOUS
 62
    3
 10
478.43374986367235
 20
617.1817663239176
 11
971.43374986367235
 21
617.1817663239176
  0
LINE
  8
_0-1_計細線
  6
CONTINUOUS
 62
    3
 10
971.43374986367235
 20
617.1817663239176
 11
971.43374986367235
 21
625.18176632391737
  0
LINE
  8
_0-1_計細線
  6
CONTINUOUS
 62
    3
 10
971.43374986367235
 20
625.18176632391737
 11
478.43374986367235
 21
625.18176632391737
  0
LINE
  8
_0-0_計極細
  6
CONTINUOUS
 62
    2
 10
577.43374986367235
 20
631.18176632391715
 11
577.43374986367235
 21
625.18176632391692
  0
LINE
  8
_0-0_計極細
  6
CONTINUOUS
 62
    2
 10
572.43374986367235
 20
625.18176632391669
 11
572.43374986367235
 21
631.18176632391715
  0
LINE
  8
_0-0_計極細
  6
CONTINUOUS
 62
    2
 10
677.43374986367246
 20
631.18176632391715
 11
677.43374986367246
 21
625.18176632391692
  0
LINE
  8
_0-0_計極細
  6
CONTINUOUS
 62
    2
 10
672.43374986367246
 20
625.18176632391669
 11
672.43374986367246
 21
631.18176632391715
  0
LINE
  8
_0-0_計極細
  6
CONTINUOUS
 62
    2
 10
777.43374986367246
 20
631.18176632391715
 11
777.43374986367246
 21
625.18176632391692
  0
LINE
  8
_0-0_計極細
  6
CONTINUOUS
 62
    2
 10
772.43374986367246
 20
625.18176632391669
 11
772.43374986367246
 21
631.18176632391715
  0
LINE
  8
_0-0_計極細
  6
CONTINUOUS
 62
    2
 10
877.43374986367246
 20
631.18176632391715
 11
877.43374986367246
 21
625.18176632391692
  0
LINE
  8
_0-0_計極細
  6
CONTINUOUS
 62
    2
 10
872.43374986367246
 20
625.18176632391669
 11
872.43374986367246
 21
631.18176632391715
  0
LINE
  8
_0-1_計細線
  6
CONTINUOUS
 62
    3
 10
478.43374986367235
 20
611.18176632391737
 11
478.43374986367235
 21
603.1817663239176
  0
LINE
  8
_0-1_計細線
  6
CONTINUOUS
 62
    3
 10
478.43374986367235
 20
603.1817663239176
 11
971.43374986367235
 21
603.1817663239176
  0
LINE
  8
_0-1_計細線
  6
CONTINUOUS
 62
    3
 10
971.43374986367235
 20
603.1817663239176
 11
971.43374986367235
 21
611.18176632391737
  0
LINE
  8
_0-1_計細線
  6
CONTINUOUS
 62
    3
 10
971.43374986367235
 20
611.18176632391737
 11
478.43374986367235
 21
611.18176632391737
  0
LINE
  8
_0-0_計極細
  6
CONTINUOUS
 62
    2
 10
577.43374986367235
 20
617.18176632391715
 11
577.43374986367235
 21
611.18176632391692
  0
LINE
  8
_0-0_計極細
  6
CONTINUOUS
 62
    2
 10
572.43374986367235
 20
611.18176632391669
 11
572.43374986367235
 21
617.18176632391715
  0
LINE
  8
_0-0_計極細
  6
CONTINUOUS
 62
    2
 10
677.43374986367246
 20
617.18176632391715
 11
677.43374986367246
 21
611.18176632391692
  0
LINE
  8
_0-0_計極細
  6
CONTINUOUS
 62
    2
 10
672.43374986367246
 20
611.18176632391669
 11
672.43374986367246
 21
617.18176632391715
  0
LINE
  8
_0-0_計極細
  6
CONTINUOUS
 62
    2
 10
777.43374986367246
 20
617.18176632391715
 11
777.43374986367246
 21
611.18176632391692
  0
LINE
  8
_0-0_計極細
  6
CONTINUOUS
 62
    2
 10
772.43374986367246
 20
611.18176632391669
 11
772.43374986367246
 21
617.18176632391715
  0
LINE
  8
_0-0_計極細
  6
CONTINUOUS
 62
    2
 10
877.43374986367246
 20
617.18176632391715
 11
877.43374986367246
 21
611.18176632391692
  0
LINE
  8
_0-0_計極細
  6
CONTINUOUS
 62
    2
 10
872.43374986367246
 20
611.18176632391669
 11
872.43374986367246
 21
617.18176632391715
  0
LINE
  8
_0-0_計極細
  6
CONTINUOUS
 62
    2
 10
377.43374986367235
 20
799.1817663239176
 11
377.43374986367235
 21
793.18176632391737
  0
LINE
  8
_0-0_計極細
  6
CONTINUOUS
 62
    2
 10
372.43374986367235
 20
793.18176632391726
 11
372.43374986367235
 21
799.1817663239176
  0
LINE
  8
_0-0_計極細
  6
CONTINUOUS
 62
    2
 10
377.43374986367235
 20
785.18176632391771
 11
377.43374986367235
 21
779.18176632391715
  0
LINE
  8
_0-0_計極細
  6
CONTINUOUS
 62
    2
 10
372.43374986367235
 20
779.18176632391715
 11
372.43374986367235
 21
785.18176632391771
  0
LINE
  8
_0-0_計極細
  6
CONTINUOUS
 62
    2
 10
377.43374986367235
 20
771.1817663239176
 11
377.43374986367235
 21
765.18176632391715
  0
LINE
  8
_0-0_計極細
  6
CONTINUOUS
 62
    2
 10
372.43374986367235
 20
765.18176632391715
 11
372.43374986367235
 21
771.1817663239176
  0
LINE
  8
_0-0_計極細
  6
CONTINUOUS
 62
    2
 10
377.43374986367235
 20
757.18176632391715
 11
377.43374986367235
 21
751.18176632391692
  0
LINE
  8
_0-0_計極細
  6
CONTINUOUS
 62
    2
 10
372.43374986367235
 20
751.18176632391669
 11
372.43374986367235
 21
757.18176632391715
  0
LINE
  8
_0-0_計極細
  6
CONTINUOUS
 62
    2
 10
377.43374986367235
 20
743.18176632391715
 11
377.43374986367235
 21
737.18176632391692
  0
LINE
  8
_0-0_計極細
  6
CONTINUOUS
 62
    2
 10
372.43374986367235
 20
737.18176632391669
 11
372.43374986367235
 21
743.18176632391715
  0
LINE
  8
_0-0_計極細
  6
CONTINUOUS
 62
    2
 10
377.43374986367235
 20
729.18176632391715
 11
377.43374986367235
 21
723.18176632391692
  0
LINE
  8
_0-0_計極細
  6
CONTINUOUS
 62
    2
 10
372.43374986367235
 20
723.18176632391669
 11
372.43374986367235
 21
729.18176632391715
  0
LINE
  8
_0-0_計極細
  6
CONTINUOUS
 62
    2
 10
377.43374986367235
 20
715.18176632391715
 11
377.43374986367235
 21
709.18176632391692
  0
LINE
  8
_0-0_計極細
  6
CONTINUOUS
 62
    2
 10
372.43374986367235
 20
709.1817663239168
 11
372.43374986367235
 21
715.18176632391715
  0
LINE
  8
_0-0_計極細
  6
CONTINUOUS
 62
    2
 10
377.43374986367235
 20
701.18176632391726
 11
377.43374986367235
 21
695.18176632391703
  0
LINE
  8
_0-0_計極細
  6
CONTINUOUS
 62
    2
 10
372.43374986367235
 20
695.18176632391669
 11
372.43374986367235
 21
701.18176632391726
  0
LINE
  8
_0-0_計極細
  6
CONTINUOUS
 62
    2
 10
377.43374986367235
 20
687.18176632391715
 11
377.43374986367235
 21
681.18176632391692
  0
LINE
  8
_0-0_計極細
  6
CONTINUOUS
 62
    2
 10
372.43374986367235
 20
681.18176632391669
 11
372.43374986367235
 21
687.18176632391715
  0
LINE
  8
_0-0_計極細
  6
CONTINUOUS
 62
    2
 10
377.43374986367235
 20
673.18176632391715
 11
377.43374986367235
 21
667.18176632391692
  0
LINE
  8
_0-0_計極細
  6
CONTINUOUS
 62
    2
 10
372.43374986367235
 20
667.18176632391669
 11
372.43374986367235
 21
673.18176632391715
  0
LINE
  8
_0-1_計細線
  6
CONTINUOUS
 62
    3
 10
324.93374986367235
 20
807.18176632391749
 11
471.43374986367235
 21
807.18176632391749
  0
LINE
  8
_0-0_計極細
  6
CONTINUOUS
 62
    2
 10
377.43374986367235
 20
659.18176632391715
 11
377.43374986367235
 21
653.18176632391692
  0
LINE
  8
_0-0_計極細
  6
CONTINUOUS
 62
    2
 10
372.43374986367235
 20
653.18176632391669
 11
372.43374986367235
 21
659.18176632391715
  0
LINE
  8
_0-0_計極細
  6
CONTINUOUS
 62
    2
 10
377.43374986367235
 20
645.18176632391715
 11
377.43374986367235
 21
639.18176632391692
  0
LINE
  8
_0-0_計極細
  6
CONTINUOUS
 62
    2
 10
372.43374986367235
 20
639.18176632391669
 11
372.43374986367235
 21
645.18176632391715
  0
LINE
  8
_0-0_計極細
  6
CONTINUOUS
 62
    2
 10
377.43374986367235
 20
631.18176632391715
 11
377.43374986367235
 21
625.18176632391692
  0
LINE
  8
_0-0_計極細
  6
CONTINUOUS
 62
    2
 10
372.43374986367235
 20
625.18176632391669
 11
372.43374986367235
 21
631.18176632391715
  0
LINE
  8
_0-0_計極細
  6
CONTINUOUS
 62
    2
 10
377.43374986367235
 20
617.18176632391715
 11
377.43374986367235
 21
611.18176632391692
  0
LINE
  8
_0-0_計極細
  6
CONTINUOUS
 62
    2
 10
372.43374986367235
 20
611.18176632391669
 11
372.43374986367235
 21
617.18176632391715
  0
LINE
  8
_0-0_計極細
  6
CONTINUOUS
 62
    2
 10
1077.4337498636723
 20
799.18176632391794
 11
1077.4337498636723
 21
793.18176632391771
  0
LINE
  8
_0-0_計極細
  6
CONTINUOUS
 62
    2
 10
1072.4337498636723
 20
793.18176632391737
 11
1072.4337498636723
 21
799.18176632391794
  0
LINE
  8
_0-0_計極細
  6
CONTINUOUS
 62
    2
 10
1077.4337498636723
 20
785.18176632391783
 11
1077.4337498636723
 21
779.18176632391749
  0
LINE
  8
_0-0_計極細
  6
CONTINUOUS
 62
    2
 10
1072.4337498636723
 20
779.18176632391749
 11
1072.4337498636723
 21
785.18176632391783
  0
LINE
  8
_0-0_計極細
  6
CONTINUOUS
 62
    2
 10
1077.4337498636723
 20
771.18176632391794
 11
1077.4337498636723
 21
765.18176632391737
  0
LINE
  8
_0-0_計極細
  6
CONTINUOUS
 62
    2
 10
1072.4337498636723
 20
765.18176632391737
 11
1072.4337498636723
 21
771.18176632391794
  0
LINE
  8
_0-0_計極細
  6
CONTINUOUS
 62
    2
 10
1077.4337498636723
 20
757.18176632391749
 11
1077.4337498636723
 21
751.18176632391726
  0
LINE
  8
_0-0_計極細
  6
CONTINUOUS
 62
    2
 10
1072.4337498636723
 20
751.18176632391692
 11
1072.4337498636723
 21
757.18176632391749
  0
LINE
  8
_0-0_計極細
  6
CONTINUOUS
 62
    2
 10
1077.4337498636723
 20
743.18176632391737
 11
1077.4337498636723
 21
737.18176632391715
  0
LINE
  8
_0-0_計極細
  6
CONTINUOUS
 62
    2
 10
1072.4337498636723
 20
737.18176632391692
 11
1072.4337498636723
 21
743.18176632391737
  0
LINE
  8
_0-0_計極細
  6
CONTINUOUS
 62
    2
 10
1077.4337498636723
 20
729.18176632391737
 11
1077.4337498636723
 21
723.18176632391715
  0
LINE
  8
_0-0_計極細
  6
CONTINUOUS
 62
    2
 10
1072.4337498636723
 20
723.18176632391692
 11
1072.4337498636723
 21
729.18176632391737
  0
LINE
  8
_0-0_計極細
  6
CONTINUOUS
 62
    2
 10
1077.4337498636723
 20
715.18176632391737
 11
1077.4337498636723
 21
709.18176632391715
  0
LINE
  8
_0-0_計極細
  6
CONTINUOUS
 62
    2
 10
1072.4337498636723
 20
709.18176632391692
 11
1072.4337498636723
 21
715.18176632391737
  0
LINE
  8
_0-0_計極細
  6
CONTINUOUS
 62
    2
 10
1077.4337498636723
 20
701.18176632391737
 11
1077.4337498636723
 21
695.18176632391715
  0
LINE
  8
_0-0_計極細
  6
CONTINUOUS
 62
    2
 10
1072.4337498636723
 20
695.18176632391703
 11
1072.4337498636723
 21
701.18176632391737
  0
LINE
  8
_0-0_計極細
  6
CONTINUOUS
 62
    2
 10
1077.4337498636723
 20
687.18176632391749
 11
1077.4337498636723
 21
681.18176632391726
  0
LINE
  8
_0-0_計極細
  6
CONTINUOUS
 62
    2
 10
1072.4337498636723
 20
681.18176632391692
 11
1072.4337498636723
 21
687.18176632391749
  0
LINE
  8
_0-0_計極細
  6
CONTINUOUS
 62
    2
 10
1077.4337498636723
 20
673.18176632391737
 11
1077.4337498636723
 21
667.18176632391715
  0
LINE
  8
_0-0_計極細
  6
CONTINUOUS
 62
    2
 10
1072.4337498636723
 20
667.18176632391692
 11
1072.4337498636723
 21
673.18176632391737
  0
LINE
  8
_0-1_計細線
  6
CONTINUOUS
 62
    3
 10
1124.9337498636723
 20
807.1817663239176
 11
978.43374986367235
 21
807.1817663239176
  0
LINE
  8
_0-0_計極細
  6
CONTINUOUS
 62
    2
 10
1077.4337498636723
 20
659.18176632391737
 11
1077.4337498636723
 21
653.18176632391715
  0
LINE
  8
_0-0_計極細
  6
CONTINUOUS
 62
    2
 10
1072.4337498636723
 20
653.18176632391692
 11
1072.4337498636723
 21
659.18176632391737
  0
LINE
  8
_0-0_計極細
  6
CONTINUOUS
 62
    2
 10
1077.4337498636723
 20
645.18176632391737
 11
1077.4337498636723
 21
639.18176632391715
  0
LINE
  8
_0-0_計極細
  6
CONTINUOUS
 62
    2
 10
1072.4337498636723
 20
639.18176632391692
 11
1072.4337498636723
 21
645.18176632391737
  0
LINE
  8
_0-0_計極細
  6
CONTINUOUS
 62
    2
 10
1077.4337498636723
 20
631.18176632391737
 11
1077.4337498636723
 21
625.18176632391715
  0
LINE
  8
_0-0_計極細
  6
CONTINUOUS
 62
    2
 10
1072.4337498636723
 20
625.18176632391692
 11
1072.4337498636723
 21
631.18176632391737
  0
LINE
  8
_0-0_計極細
  6
CONTINUOUS
 62
    2
 10
1077.4337498636723
 20
617.18176632391737
 11
1077.4337498636723
 21
611.18176632391715
  0
LINE
  8
_0-0_計極細
  6
CONTINUOUS
 62
    2
 10
1072.4337498636723
 20
611.18176632391692
 11
1072.4337498636723
 21
617.18176632391737
  0
LINE
  8
_0-1_計細線
  6
CONTINUOUS
 62
    3
 10
478.43374986367235
 20
597.18176632391737
 11
478.43374986367235
 21
589.1817663239176
  0
LINE
  8
_0-1_計細線
  6
CONTINUOUS
 62
    3
 10
478.43374986367235
 20
589.1817663239176
 11
971.43374986367235
 21
589.1817663239176
  0
LINE
  8
_0-1_計細線
  6
CONTINUOUS
 62
    3
 10
971.43374986367235
 20
589.1817663239176
 11
971.43374986367235
 21
597.18176632391737
  0
LINE
  8
_0-1_計細線
  6
CONTINUOUS
 62
    3
 10
971.43374986367235
 20
597.18176632391737
 11
478.43374986367235
 21
597.18176632391737
  0
LINE
  8
_0-0_計極細
  6
CONTINUOUS
 62
    2
 10
577.43374986367235
 20
603.18176632391715
 11
577.43374986367235
 21
597.18176632391692
  0
LINE
  8
_0-0_計極細
  6
CONTINUOUS
 62
    2
 10
572.43374986367235
 20
597.18176632391669
 11
572.43374986367235
 21
603.18176632391715
  0
LINE
  8
_0-0_計極細
  6
CONTINUOUS
 62
    2
 10
677.43374986367246
 20
603.18176632391715
 11
677.43374986367246
 21
597.18176632391692
  0
LINE
  8
_0-0_計極細
  6
CONTINUOUS
 62
    2
 10
672.43374986367246
 20
597.18176632391669
 11
672.43374986367246
 21
603.18176632391715
  0
LINE
  8
_0-0_計極細
  6
CONTINUOUS
 62
    2
 10
777.43374986367246
 20
603.18176632391715
 11
777.43374986367246
 21
597.18176632391692
  0
LINE
  8
_0-0_計極細
  6
CONTINUOUS
 62
    2
 10
772.43374986367246
 20
597.18176632391669
 11
772.43374986367246
 21
603.18176632391715
  0
LINE
  8
_0-0_計極細
  6
CONTINUOUS
 62
    2
 10
877.43374986367246
 20
603.18176632391715
 11
877.43374986367246
 21
597.18176632391692
  0
LINE
  8
_0-0_計極細
  6
CONTINUOUS
 62
    2
 10
872.43374986367246
 20
597.18176632391669
 11
872.43374986367246
 21
603.18176632391715
  0
LINE
  8
_0-1_計細線
  6
CONTINUOUS
 62
    3
 10
478.43374986367235
 20
583.18176632391737
 11
478.43374986367235
 21
575.1817663239176
  0
LINE
  8
_0-1_計細線
  6
CONTINUOUS
 62
    3
 10
478.43374986367235
 20
575.1817663239176
 11
971.43374986367235
 21
575.1817663239176
  0
LINE
  8
_0-1_計細線
  6
CONTINUOUS
 62
    3
 10
971.43374986367235
 20
575.1817663239176
 11
971.43374986367235
 21
583.18176632391737
  0
LINE
  8
_0-1_計細線
  6
CONTINUOUS
 62
    3
 10
971.43374986367235
 20
583.18176632391737
 11
478.43374986367235
 21
583.18176632391737
  0
LINE
  8
_0-0_計極細
  6
CONTINUOUS
 62
    2
 10
577.43374986367235
 20
589.18176632391715
 11
577.43374986367235
 21
583.18176632391692
  0
LINE
  8
_0-0_計極細
  6
CONTINUOUS
 62
    2
 10
572.43374986367235
 20
583.18176632391669
 11
572.43374986367235
 21
589.18176632391715
  0
LINE
  8
_0-0_計極細
  6
CONTINUOUS
 62
    2
 10
677.43374986367246
 20
589.18176632391715
 11
677.43374986367246
 21
583.18176632391692
  0
LINE
  8
_0-0_計極細
  6
CONTINUOUS
 62
    2
 10
672.43374986367246
 20
583.18176632391669
 11
672.43374986367246
 21
589.18176632391715
  0
LINE
  8
_0-0_計極細
  6
CONTINUOUS
 62
    2
 10
777.43374986367246
 20
589.18176632391715
 11
777.43374986367246
 21
583.18176632391692
  0
LINE
  8
_0-0_計極細
  6
CONTINUOUS
 62
    2
 10
772.43374986367246
 20
583.18176632391669
 11
772.43374986367246
 21
589.18176632391715
  0
LINE
  8
_0-0_計極細
  6
CONTINUOUS
 62
    2
 10
877.43374986367246
 20
589.18176632391715
 11
877.43374986367246
 21
583.18176632391692
  0
LINE
  8
_0-0_計極細
  6
CONTINUOUS
 62
    2
 10
872.43374986367246
 20
583.18176632391669
 11
872.43374986367246
 21
589.18176632391715
  0
LINE
  8
_0-1_計細線
  6
CONTINUOUS
 62
    3
 10
478.43374986367235
 20
569.18176632391737
 11
478.43374986367235
 21
561.1817663239176
  0
LINE
  8
_0-1_計細線
  6
CONTINUOUS
 62
    3
 10
478.43374986367235
 20
561.1817663239176
 11
971.43374986367235
 21
561.1817663239176
  0
LINE
  8
_0-1_計細線
  6
CONTINUOUS
 62
    3
 10
971.43374986367235
 20
561.1817663239176
 11
971.43374986367235
 21
569.18176632391737
  0
LINE
  8
_0-1_計細線
  6
CONTINUOUS
 62
    3
 10
971.43374986367235
 20
569.18176632391737
 11
478.43374986367235
 21
569.18176632391737
  0
LINE
  8
_0-0_計極細
  6
CONTINUOUS
 62
    2
 10
577.43374986367235
 20
575.18176632391715
 11
577.43374986367235
 21
569.18176632391692
  0
LINE
  8
_0-0_計極細
  6
CONTINUOUS
 62
    2
 10
572.43374986367235
 20
569.18176632391669
 11
572.43374986367235
 21
575.18176632391715
  0
LINE
  8
_0-0_計極細
  6
CONTINUOUS
 62
    2
 10
677.43374986367246
 20
575.18176632391715
 11
677.43374986367246
 21
569.18176632391692
  0
LINE
  8
_0-0_計極細
  6
CONTINUOUS
 62
    2
 10
672.43374986367246
 20
569.18176632391669
 11
672.43374986367246
 21
575.18176632391715
  0
LINE
  8
_0-0_計極細
  6
CONTINUOUS
 62
    2
 10
777.43374986367246
 20
575.18176632391715
 11
777.43374986367246
 21
569.18176632391692
  0
LINE
  8
_0-0_計極細
  6
CONTINUOUS
 62
    2
 10
772.43374986367246
 20
569.18176632391669
 11
772.43374986367246
 21
575.18176632391715
  0
LINE
  8
_0-0_計極細
  6
CONTINUOUS
 62
    2
 10
877.43374986367246
 20
575.18176632391715
 11
877.43374986367246
 21
569.18176632391692
  0
LINE
  8
_0-0_計極細
  6
CONTINUOUS
 62
    2
 10
872.43374986367246
 20
569.18176632391669
 11
872.43374986367246
 21
575.18176632391715
  0
LINE
  8
_0-0_計極細
  6
CONTINUOUS
 62
    2
 10
377.43374986367235
 20
603.18176632391715
 11
377.43374986367235
 21
597.18176632391692
  0
LINE
  8
_0-0_計極細
  6
CONTINUOUS
 62
    2
 10
372.43374986367235
 20
597.18176632391669
 11
372.43374986367235
 21
603.18176632391715
  0
LINE
  8
_0-0_計極細
  6
CONTINUOUS
 62
    2
 10
377.43374986367235
 20
589.18176632391715
 11
377.43374986367235
 21
583.18176632391692
  0
LINE
  8
_0-0_計極細
  6
CONTINUOUS
 62
    2
 10
372.43374986367235
 20
583.18176632391669
 11
372.43374986367235
 21
589.18176632391715
  0
LINE
  8
_0-0_計極細
  6
CONTINUOUS
 62
    2
 10
377.43374986367235
 20
575.18176632391715
 11
377.43374986367235
 21
569.18176632391692
  0
LINE
  8
_0-0_計極細
  6
CONTINUOUS
 62
    2
 10
372.43374986367235
 20
569.18176632391669
 11
372.43374986367235
 21
575.18176632391715
  0
LINE
  8
_0-0_計極細
  6
CONTINUOUS
 62
    2
 10
1077.4337498636723
 20
603.18176632391737
 11
1077.4337498636723
 21
597.18176632391715
  0
LINE
  8
_0-0_計極細
  6
CONTINUOUS
 62
    2
 10
1072.4337498636723
 20
597.18176632391692
 11
1072.4337498636723
 21
603.18176632391737
  0
LINE
  8
_0-0_計極細
  6
CONTINUOUS
 62
    2
 10
1077.4337498636723
 20
589.18176632391737
 11
1077.4337498636723
 21
583.18176632391715
  0
LINE
  8
_0-0_計極細
  6
CONTINUOUS
 62
    2
 10
1072.4337498636723
 20
583.18176632391692
 11
1072.4337498636723
 21
589.18176632391737
  0
LINE
  8
_0-0_計極細
  6
CONTINUOUS
 62
    2
 10
1077.4337498636723
 20
575.18176632391737
 11
1077.4337498636723
 21
569.18176632391715
  0
LINE
  8
_0-0_計極細
  6
CONTINUOUS
 62
    2
 10
1072.4337498636723
 20
569.18176632391692
 11
1072.4337498636723
 21
575.18176632391737
  0
LINE
  8
_0-1_計細線
  6
CONTINUOUS
 62
    3
 10
471.43374986367235
 20
799.1817663239176
 11
323.39711781645019
 21
799.1817663239176
  0
LINE
  8
_0-1_計細線
  6
CONTINUOUS
 62
    3
 10
322.28341313811461
 20
793.18176632391737
 11
471.43374986367235
 21
793.18176632391737
  0
LINE
  8
_0-1_計細線
  6
CONTINUOUS
 62
    3
 10
471.43374986367235
 20
785.18176632391771
 11
320.89949285850389
 21
785.18176632391771
  0
LINE
  8
_0-1_計細線
  6
CONTINUOUS
 62
    3
 10
319.97838266901141
 20
779.1817663239176
 11
471.43374986367235
 21
779.1817663239176
  0
LINE
  8
_0-1_計細線
  6
CONTINUOUS
 62
    3
 10
471.43374986367235
 20
771.18176632391805
 11
318.94065393453417
 21
771.18176632391805
  0
LINE
  8
_0-1_計細線
  6
CONTINUOUS
 62
    3
 10
318.33689899729779
 20
765.1817663239176
 11
471.43374986367235
 21
765.1817663239176
  0
LINE
  8
_0-1_計細線
  6
CONTINUOUS
 62
    3
 10
978.43374986367235
 20
799.18176632391794
 11
1126.470381910894
 21
799.18176632391794
  0
LINE
  8
_0-1_計細線
  6
CONTINUOUS
 62
    3
 10
1127.5840865892301
 20
793.18176632391771
 11
978.43374986367235
 21
793.18176632391771
  0
LINE
  8
_0-1_計細線
  6
CONTINUOUS
 62
    3
 10
978.43374986367235
 20
785.18176632391783
 11
1128.9680068688408
 21
785.18176632391783
  0
LINE
  8
_0-1_計細線
  6
CONTINUOUS
 62
    3
 10
1129.8891170583333
 20
779.18176632391794
 11
978.43374986367235
 21
779.18176632391794
  0
LINE
  8
_0-1_計細線
  6
CONTINUOUS
 62
    3
 10
978.43374986367235
 20
771.1817663239184
 11
1130.9268457928106
 21
771.1817663239184
  0
LINE
  8
_0-1_計細線
  6
CONTINUOUS
 62
    3
 10
478.43374986367235
 20
555.18176632391737
 11
478.43374986367235
 21
547.1817663239176
  0
LINE
  8
_0-1_計細線
  6
CONTINUOUS
 62
    3
 10
478.43374986367235
 20
547.1817663239176
 11
971.43374986367235
 21
547.1817663239176
  0
LINE
  8
_0-1_計細線
  6
CONTINUOUS
 62
    3
 10
971.43374986367235
 20
547.1817663239176
 11
971.43374986367235
 21
555.18176632391737
  0
LINE
  8
_0-1_計細線
  6
CONTINUOUS
 62
    3
 10
971.43374986367235
 20
555.18176632391737
 11
478.43374986367235
 21
555.18176632391737
  0
LINE
  8
_0-0_計極細
  6
CONTINUOUS
 62
    2
 10
577.43374986367235
 20
561.18176632391715
 11
577.43374986367235
 21
555.18176632391692
  0
LINE
  8
_0-0_計極細
  6
CONTINUOUS
 62
    2
 10
572.43374986367235
 20
555.18176632391669
 11
572.43374986367235
 21
561.18176632391715
  0
LINE
  8
_0-0_計極細
  6
CONTINUOUS
 62
    2
 10
677.43374986367246
 20
561.18176632391715
 11
677.43374986367246
 21
555.18176632391692
  0
LINE
  8
_0-0_計極細
  6
CONTINUOUS
 62
    2
 10
672.43374986367246
 20
555.18176632391669
 11
672.43374986367246
 21
561.18176632391715
  0
LINE
  8
_0-0_計極細
  6
CONTINUOUS
 62
    2
 10
777.43374986367246
 20
561.18176632391715
 11
777.43374986367246
 21
555.18176632391692
  0
LINE
  8
_0-0_計極細
  6
CONTINUOUS
 62
    2
 10
772.43374986367246
 20
555.18176632391669
 11
772.43374986367246
 21
561.18176632391715
  0
LINE
  8
_0-0_計極細
  6
CONTINUOUS
 62
    2
 10
877.43374986367246
 20
561.18176632391715
 11
877.43374986367246
 21
555.18176632391692
  0
LINE
  8
_0-0_計極細
  6
CONTINUOUS
 62
    2
 10
872.43374986367246
 20
555.18176632391669
 11
872.43374986367246
 21
561.18176632391715
  0
LINE
  8
_0-0_計極細
  6
CONTINUOUS
 62
    2
 10
377.43374986367235
 20
561.18176632391715
 11
377.43374986367235
 21
555.18176632391692
  0
LINE
  8
_0-0_計極細
  6
CONTINUOUS
 62
    2
 10
372.43374986367235
 20
555.18176632391669
 11
372.43374986367235
 21
561.18176632391715
  0
LINE
  8
_0-0_計極細
  6
CONTINUOUS
 62
    2
 10
1077.4337498636723
 20
561.18176632391737
 11
1077.4337498636723
 21
555.18176632391715
  0
LINE
  8
_0-0_計極細
  6
CONTINUOUS
 62
    2
 10
1072.4337498636723
 20
555.18176632391692
 11
1072.4337498636723
 21
561.18176632391737
  0
LINE
  8
_0-1_計細線
  6
CONTINUOUS
 62
    3
 10
478.43374986367235
 20
541.18176632391737
 11
478.43374986367235
 21
533.1817663239176
  0
LINE
  8
_0-1_計細線
  6
CONTINUOUS
 62
    3
 10
478.43374986367235
 20
533.1817663239176
 11
971.43374986367235
 21
533.1817663239176
  0
LINE
  8
_0-1_計細線
  6
CONTINUOUS
 62
    3
 10
971.43374986367235
 20
533.1817663239176
 11
971.43374986367235
 21
541.18176632391737
  0
LINE
  8
_0-1_計細線
  6
CONTINUOUS
 62
    3
 10
971.43374986367235
 20
541.18176632391737
 11
478.43374986367235
 21
541.18176632391737
  0
LINE
  8
_0-0_計極細
  6
CONTINUOUS
 62
    2
 10
577.43374986367235
 20
547.18176632391715
 11
577.43374986367235
 21
541.18176632391692
  0
LINE
  8
_0-0_計極細
  6
CONTINUOUS
 62
    2
 10
572.43374986367235
 20
541.18176632391669
 11
572.43374986367235
 21
547.18176632391715
  0
LINE
  8
_0-0_計極細
  6
CONTINUOUS
 62
    2
 10
677.43374986367246
 20
547.18176632391715
 11
677.43374986367246
 21
541.18176632391692
  0
LINE
  8
_0-0_計極細
  6
CONTINUOUS
 62
    2
 10
672.43374986367246
 20
541.18176632391669
 11
672.43374986367246
 21
547.18176632391715
  0
LINE
  8
_0-0_計極細
  6
CONTINUOUS
 62
    2
 10
777.43374986367246
 20
547.18176632391715
 11
777.43374986367246
 21
541.18176632391692
  0
LINE
  8
_0-0_計極細
  6
CONTINUOUS
 62
    2
 10
772.43374986367246
 20
541.18176632391669
 11
772.43374986367246
 21
547.18176632391715
  0
LINE
  8
_0-0_計極細
  6
CONTINUOUS
 62
    2
 10
877.43374986367246
 20
547.18176632391715
 11
877.43374986367246
 21
541.18176632391692
  0
LINE
  8
_0-0_計極細
  6
CONTINUOUS
 62
    2
 10
872.43374986367246
 20
541.18176632391669
 11
872.43374986367246
 21
547.18176632391715
  0
LINE
  8
_0-0_計極細
  6
CONTINUOUS
 62
    2
 10
377.43374986367235
 20
547.18176632391715
 11
377.43374986367235
 21
541.18176632391692
  0
LINE
  8
_0-0_計極細
  6
CONTINUOUS
 62
    2
 10
372.43374986367235
 20
541.18176632391669
 11
372.43374986367235
 21
547.18176632391715
  0
LINE
  8
_0-0_計極細
  6
CONTINUOUS
 62
    2
 10
1077.4337498636723
 20
547.18176632391737
 11
1077.4337498636723
 21
541.18176632391715
  0
LINE
  8
_0-0_計極細
  6
CONTINUOUS
 62
    2
 10
1072.4337498636723
 20
541.18176632391692
 11
1072.4337498636723
 21
547.18176632391737
  0
LINE
  8
_0-1_計細線
  6
CONTINUOUS
 62
    3
 10
478.43374986367235
 20
527.18176632391737
 11
478.43374986367235
 21
519.1817663239176
  0
LINE
  8
_0-1_計細線
  6
CONTINUOUS
 62
    3
 10
478.43374986367235
 20
519.1817663239176
 11
971.43374986367235
 21
519.1817663239176
  0
LINE
  8
_0-1_計細線
  6
CONTINUOUS
 62
    3
 10
971.43374986367235
 20
519.1817663239176
 11
971.43374986367235
 21
527.18176632391737
  0
LINE
  8
_0-1_計細線
  6
CONTINUOUS
 62
    3
 10
971.43374986367235
 20
527.18176632391737
 11
478.43374986367235
 21
527.18176632391737
  0
LINE
  8
_0-0_計極細
  6
CONTINUOUS
 62
    2
 10
577.43374986367235
 20
533.18176632391715
 11
577.43374986367235
 21
527.18176632391692
  0
LINE
  8
_0-0_計極細
  6
CONTINUOUS
 62
    2
 10
572.43374986367235
 20
527.18176632391669
 11
572.43374986367235
 21
533.18176632391715
  0
LINE
  8
_0-0_計極細
  6
CONTINUOUS
 62
    2
 10
677.43374986367246
 20
533.18176632391715
 11
677.43374986367246
 21
527.18176632391692
  0
LINE
  8
_0-0_計極細
  6
CONTINUOUS
 62
    2
 10
672.43374986367246
 20
527.18176632391669
 11
672.43374986367246
 21
533.18176632391715
  0
LINE
  8
_0-0_計極細
  6
CONTINUOUS
 62
    2
 10
777.43374986367246
 20
533.18176632391715
 11
777.43374986367246
 21
527.18176632391692
  0
LINE
  8
_0-0_計極細
  6
CONTINUOUS
 62
    2
 10
772.43374986367246
 20
527.18176632391669
 11
772.43374986367246
 21
533.18176632391715
  0
LINE
  8
_0-0_計極細
  6
CONTINUOUS
 62
    2
 10
877.43374986367246
 20
533.18176632391715
 11
877.43374986367246
 21
527.18176632391692
  0
LINE
  8
_0-0_計極細
  6
CONTINUOUS
 62
    2
 10
872.43374986367246
 20
527.18176632391669
 11
872.43374986367246
 21
533.18176632391715
  0
LINE
  8
_0-0_計極細
  6
CONTINUOUS
 62
    2
 10
377.43374986367235
 20
533.18176632391715
 11
377.43374986367235
 21
527.18176632391692
  0
LINE
  8
_0-0_計極細
  6
CONTINUOUS
 62
    2
 10
372.43374986367235
 20
527.18176632391669
 11
372.43374986367235
 21
533.18176632391715
  0
LINE
  8
_0-0_計極細
  6
CONTINUOUS
 62
    2
 10
1077.4337498636723
 20
533.18176632391737
 11
1077.4337498636723
 21
527.18176632391715
  0
LINE
  8
_0-0_計極細
  6
CONTINUOUS
 62
    2
 10
1072.4337498636723
 20
527.18176632391692
 11
1072.4337498636723
 21
533.18176632391737
  0
LINE
  8
_0-1_計細線
  6
CONTINUOUS
 62
    3
 10
478.43374986367235
 20
513.18176632391737
 11
478.43374986367235
 21
505.18176632391766
  0
LINE
  8
_0-1_計細線
  6
CONTINUOUS
 62
    3
 10
478.43374986367235
 20
505.18176632391766
 11
971.43374986367235
 21
505.18176632391766
  0
LINE
  8
_0-1_計細線
  6
CONTINUOUS
 62
    3
 10
971.43374986367235
 20
505.18176632391766
 11
971.43374986367235
 21
513.18176632391737
  0
LINE
  8
_0-1_計細線
  6
CONTINUOUS
 62
    3
 10
971.43374986367235
 20
513.18176632391737
 11
478.43374986367235
 21
513.18176632391737
  0
LINE
  8
_0-0_計極細
  6
CONTINUOUS
 62
    2
 10
577.43374986367235
 20
519.18176632391715
 11
577.43374986367235
 21
513.18176632391692
  0
LINE
  8
_0-0_計極細
  6
CONTINUOUS
 62
    2
 10
572.43374986367235
 20
513.18176632391669
 11
572.43374986367235
 21
519.18176632391715
  0
LINE
  8
_0-0_計極細
  6
CONTINUOUS
 62
    2
 10
677.43374986367246
 20
519.18176632391715
 11
677.43374986367246
 21
513.18176632391692
  0
LINE
  8
_0-0_計極細
  6
CONTINUOUS
 62
    2
 10
672.43374986367246
 20
513.18176632391669
 11
672.43374986367246
 21
519.18176632391715
  0
LINE
  8
_0-0_計極細
  6
CONTINUOUS
 62
    2
 10
777.43374986367246
 20
519.18176632391715
 11
777.43374986367246
 21
513.18176632391692
  0
LINE
  8
_0-0_計極細
  6
CONTINUOUS
 62
    2
 10
772.43374986367246
 20
513.18176632391669
 11
772.43374986367246
 21
519.18176632391715
  0
LINE
  8
_0-0_計極細
  6
CONTINUOUS
 62
    2
 10
877.43374986367246
 20
519.18176632391715
 11
877.43374986367246
 21
513.18176632391692
  0
LINE
  8
_0-0_計極細
  6
CONTINUOUS
 62
    2
 10
872.43374986367246
 20
513.18176632391669
 11
872.43374986367246
 21
519.18176632391715
  0
LINE
  8
_0-0_計極細
  6
CONTINUOUS
 62
    2
 10
377.43374986367235
 20
519.18176632391715
 11
377.43374986367235
 21
513.18176632391692
  0
LINE
  8
_0-0_計極細
  6
CONTINUOUS
 62
    2
 10
372.43374986367235
 20
513.18176632391669
 11
372.43374986367235
 21
519.18176632391715
  0
LINE
  8
_0-1_計細線
  6
CONTINUOUS
 62
    3
 10
471.43374986367235
 20
505.18176632391766
 11
324.89539085573688
 21
505.18176632391766
  0
LINE
  8
_0-0_計極細
  6
CONTINUOUS
 62
    2
 10
1077.4337498636723
 20
519.18176632391737
 11
1077.4337498636723
 21
513.18176632391715
  0
LINE
  8
_0-0_計極細
  6
CONTINUOUS
 62
    2
 10
1072.4337498636723
 20
513.18176632391692
 11
1072.4337498636723
 21
519.18176632391737
  0
LINE
  8
_0-1_計細線
  6
CONTINUOUS
 62
    3
 10
978.43374986367235
 20
505.18176632391783
 11
1124.998890170004
 21
505.18176632391783
  0
LINE
  8
_0-1_計細線
  6
CONTINUOUS
 62
    3
 10
326.60164207417034
 20
513.18176632391737
 11
471.43374986367235
 21
513.18176632391737
  0
LINE
  8
_0-1_計細線
  6
CONTINUOUS
 62
    3
 10
1131.8177699988551
 20
765.18176632391783
 11
978.43374986367235
 21
765.18176632391783
  0
LINE
  8
_0-1_計細線
  6
CONTINUOUS
 62
    3
 10
978.43374986367235
 20
757.18176632391805
 11
1132.7421608217278
 21
757.18176632391805
  0
LINE
  8
_0-1_計細線
  6
CONTINUOUS
 62
    3
 10
1133.3129669022142
 20
751.18176632391783
 11
978.43374986367235
 21
751.18176632391783
  0
LINE
  8
_0-1_計細線
  6
CONTINUOUS
 62
    3
 10
978.43374986367235
 20
743.18176632391805
 11
1133.8875214147797
 21
743.18176632391805
  0
LINE
  8
_0-1_計細線
  6
CONTINUOUS
 62
    3
 10
1134.1345009624943
 20
737.1817663239176
 11
978.43374986367235
 21
737.1817663239176
  0
LINE
  8
_0-1_計細線
  6
CONTINUOUS
 62
    3
 10
978.43374986367235
 20
729.18176632391794
 11
1134.2254329568764
 21
729.18176632391794
  0
LINE
  8
_0-1_計細線
  6
CONTINUOUS
 62
    3
 10
1134.0899535695416
 20
723.18176632391771
 11
978.43374986367235
 21
723.18176632391771
  0
LINE
  8
_0-1_計細線
  6
CONTINUOUS
 62
    3
 10
978.43374986367235
 20
715.18176632391783
 11
1133.6564182466877
 21
715.18176632391783
  0
LINE
  8
_0-1_計細線
  6
CONTINUOUS
 62
    3
 10
1133.1730747184165
 20
709.1817663239176
 11
978.43374986367235
 21
709.1817663239176
  0
LINE
  8
_0-1_計細線
  6
CONTINUOUS
 62
    3
 10
978.43374986367235
 20
701.18176632391783
 11
1132.3245359075313
 21
701.18176632391783
  0
LINE
  8
_0-1_計細線
  6
CONTINUOUS
 62
    3
 10
1131.5627235145789
 20
695.1817663239176
 11
978.43374986367235
 21
695.1817663239176
  0
LINE
  8
_0-1_計細線
  6
CONTINUOUS
 62
    3
 10
978.43374986367235
 20
687.18176632391783
 11
1130.3975290890799
 21
687.18176632391783
  0
LINE
  8
_0-1_計細線
  6
CONTINUOUS
 62
    3
 10
1129.436608509081
 20
681.1817663239176
 11
978.43374986367235
 21
681.1817663239176
  0
LINE
  8
_0-1_計細線
  6
CONTINUOUS
 62
    3
 10
978.43374986367235
 20
673.18176632391783
 11
1128.0654982379615
 21
673.18176632391783
  0
LINE
  8
_0-1_計細線
  6
CONTINUOUS
 62
    3
 10
1126.9805575576925
 20
667.1817663239176
 11
978.43374986367235
 21
667.1817663239176
  0
LINE
  8
_0-1_計細線
  6
CONTINUOUS
 62
    3
 10
978.43374986367235
 20
659.18176632391794
 11
1125.4959700910381
 21
659.18176632391794
  0
LINE
  8
_0-1_計細線
  6
CONTINUOUS
 62
    3
 10
1124.3715296363071
 20
653.18176632391771
 11
978.43374986367235
 21
653.18176632391771
  0
LINE
  8
_0-1_計細線
  6
CONTINUOUS
 62
    3
 10
978.43374986367235
 20
645.18176632391783
 11
1122.8869421696522
 21
645.18176632391783
  0
LINE
  8
_0-1_計細線
  6
CONTINUOUS
 62
    3
 10
1121.8020014893841
 20
639.1817663239176
 11
978.43374986367235
 21
639.1817663239176
  0
LINE
  8
_0-1_計細線
  6
CONTINUOUS
 62
    3
 10
978.43374986367235
 20
631.18176632391783
 11
1120.4308912182637
 21
631.18176632391783
  0
LINE
  8
_0-1_計細線
  6
CONTINUOUS
 62
    3
 10
1119.4699706382648
 20
625.1817663239176
 11
978.43374986367235
 21
625.1817663239176
  0
LINE
  8
_0-1_計細線
  6
CONTINUOUS
 62
    3
 10
978.43374986367235
 20
617.18176632391783
 11
1118.3450710856932
 21
617.18176632391783
  0
LINE
  8
_0-1_計細線
  6
CONTINUOUS
 62
    3
 10
1117.5429638198134
 20
611.1817663239176
 11
978.43374986367235
 21
611.1817663239176
  0
LINE
  8
_0-1_計細線
  6
CONTINUOUS
 62
    3
 10
978.43374986367235
 20
603.18176632391783
 11
1116.6944250089286
 21
603.18176632391783
  0
LINE
  8
_0-1_計細線
  6
CONTINUOUS
 62
    3
 10
1116.2110814806574
 20
597.1817663239176
 11
978.43374986367235
 21
597.1817663239176
  0
LINE
  8
_0-1_計細線
  6
CONTINUOUS
 62
    3
 10
978.43374986367235
 20
589.18176632391783
 11
1115.777546157803
 21
589.18176632391783
  0
LINE
  8
_0-1_計細線
  6
CONTINUOUS
 62
    3
 10
1115.6420667704683
 20
583.1817663239176
 11
978.43374986367235
 21
583.1817663239176
  0
LINE
  8
_0-1_計細線
  6
CONTINUOUS
 62
    3
 10
978.43374986367235
 20
575.18176632391783
 11
1115.73299876485
 21
575.18176632391783
  0
LINE
  8
_0-1_計細線
  6
CONTINUOUS
 62
    3
 10
1115.979978312565
 20
569.1817663239176
 11
978.43374986367235
 21
569.1817663239176
  0
LINE
  8
_0-1_計細線
  6
CONTINUOUS
 62
    3
 10
978.43374986367235
 20
561.18176632391783
 11
1116.5545328251301
 21
561.18176632391783
  0
LINE
  8
_0-1_計細線
  6
CONTINUOUS
 62
    3
 10
1117.1253389056164
 20
555.1817663239176
 11
978.43374986367235
 21
555.1817663239176
  0
LINE
  8
_0-1_計細線
  6
CONTINUOUS
 62
    3
 10
978.43374986367235
 20
547.18176632391783
 11
1118.0497297284892
 21
547.18176632391783
  0
LINE
  8
_0-1_計細線
  6
CONTINUOUS
 62
    3
 10
1118.8620188268842
 20
541.1817663239176
 11
978.43374986367235
 21
541.1817663239176
  0
LINE
  8
_0-1_計細線
  6
CONTINUOUS
 62
    3
 10
978.43374986367235
 20
533.18176632391783
 11
1120.0638852586521
 21
533.18176632391783
  0
LINE
  8
_0-1_計細線
  6
CONTINUOUS
 62
    3
 10
1121.0397987852989
 20
527.1817663239176
 11
978.43374986367235
 21
527.1817663239176
  0
LINE
  8
_0-1_計細線
  6
CONTINUOUS
 62
    3
 10
978.43374986367235
 20
519.18176632391783
 11
1122.4153807469588
 21
519.18176632391783
  0
LINE
  8
_0-1_計細線
  6
CONTINUOUS
 62
    3
 10
1123.4825768922751
 20
513.1817663239176
 11
978.43374986367235
 21
513.1817663239176
  0
LINE
  8
_0-1_計細線
  6
CONTINUOUS
 62
    3
 10
471.43374986367235
 20
757.18176632391783
 11
317.1253389056169
 21
757.18176632391783
  0
LINE
  8
_0-1_計細線
  6
CONTINUOUS
 62
    3
 10
316.55453282513008
 20
751.1817663239176
 11
471.43374986367235
 21
751.1817663239176
  0
LINE
  8
_0-1_計細線
  6
CONTINUOUS
 62
    3
 10
471.43374986367235
 20
743.18176632391783
 11
315.97997831256498
 21
743.18176632391783
  0
LINE
  8
_0-1_計細線
  6
CONTINUOUS
 62
    3
 10
315.73299876485044
 20
737.18176632391749
 11
471.43374986367235
 21
737.18176632391749
  0
LINE
  8
_0-1_計細線
  6
CONTINUOUS
 62
    3
 10
471.43374986367235
 20
729.1817663239176
 11
315.64206677046832
 21
729.1817663239176
  0
LINE
  8
_0-1_計細線
  6
CONTINUOUS
 62
    3
 10
315.77754615780304
 20
723.18176632391737
 11
471.43374986367235
 21
723.18176632391737
  0
LINE
  8
_0-1_計細線
  6
CONTINUOUS
 62
    3
 10
471.43374986367235
 20
715.1817663239176
 11
316.21108148065701
 21
715.1817663239176
  0
LINE
  8
_0-1_計細線
  6
CONTINUOUS
 62
    3
 10
316.69442500892819
 20
709.18176632391737
 11
471.43374986367235
 21
709.18176632391737
  0
LINE
  8
_0-1_計細線
  6
CONTINUOUS
 62
    3
 10
471.43374986367235
 20
701.1817663239176
 11
317.54296381981339
 21
701.1817663239176
  0
LINE
  8
_0-1_計細線
  6
CONTINUOUS
 62
    3
 10
318.30477621276577
 20
695.18176632391737
 11
471.43374986367235
 21
695.18176632391737
  0
LINE
  8
_0-1_計細線
  6
CONTINUOUS
 62
    3
 10
471.43374986367235
 20
687.1817663239176
 11
319.46997063826484
 21
687.1817663239176
  0
LINE
  8
_0-1_計細線
  6
CONTINUOUS
 62
    3
 10
320.4308912182637
 20
681.18176632391737
 11
471.43374986367235
 21
681.18176632391737
  0
LINE
  8
_0-1_計細線
  6
CONTINUOUS
 62
    3
 10
471.43374986367235
 20
673.18176632391771
 11
321.44083972480485
 21
673.18176632391771
  0
LINE
  8
_0-1_計細線
  6
CONTINUOUS
 62
    3
 10
322.88694216965223
 20
667.18176632391749
 11
471.43374986367235
 21
667.18176632391749
  0
LINE
  8
_0-1_計細線
  6
CONTINUOUS
 62
    3
 10
471.43374986367235
 20
659.1817663239176
 11
324.3715296363066
 21
659.1817663239176
  0
LINE
  8
_0-1_計細線
  6
CONTINUOUS
 62
    3
 10
325.49597009103763
 20
653.18176632391737
 11
471.43374986367235
 21
653.18176632391737
  0
LINE
  8
_0-1_計細線
  6
CONTINUOUS
 62
    3
 10
471.43374986367235
 20
645.1817663239176
 11
326.98055755769246
 21
645.1817663239176
  0
LINE
  8
_0-1_計細線
  6
CONTINUOUS
 62
    3
 10
328.06549823796104
 20
639.18176632391737
 11
471.43374986367235
 21
639.18176632391737
  0
LINE
  8
_0-1_計細線
  6
CONTINUOUS
 62
    3
 10
471.43374986367235
 20
631.1817663239176
 11
329.43660850908054
 21
631.1817663239176
  0
LINE
  8
_0-1_計細線
  6
CONTINUOUS
 62
    3
 10
330.39752908907985
 20
625.18176632391737
 11
471.43374986367235
 21
625.18176632391737
  0
LINE
  8
_0-1_計細線
  6
CONTINUOUS
 62
    3
 10
471.43374986367235
 20
617.1817663239176
 11
331.56272351457892
 21
617.1817663239176
  0
LINE
  8
_0-1_計細線
  6
CONTINUOUS
 62
    3
 10
332.3245359075313
 20
611.18176632391737
 11
471.43374986367235
 21
611.18176632391737
  0
LINE
  8
_0-1_計細線
  6
CONTINUOUS
 62
    3
 10
471.43374986367235
 20
603.1817663239176
 11
333.1730747184161
 21
603.1817663239176
  0
LINE
  8
_0-1_計細線
  6
CONTINUOUS
 62
    3
 10
333.65641824668779
 20
597.18176632391737
 11
471.43374986367235
 21
597.18176632391737
  0
LINE
  8
_0-1_計細線
  6
CONTINUOUS
 62
    3
 10
471.43374986367235
 20
589.1817663239176
 11
334.08995356954165
 21
589.1817663239176
  0
LINE
  8
_0-1_計細線
  6
CONTINUOUS
 62
    3
 10
334.22543295687638
 20
583.18176632391737
 11
471.43374986367235
 21
583.18176632391737
  0
LINE
  8
_0-1_計細線
  6
CONTINUOUS
 62
    3
 10
471.43374986367235
 20
575.1817663239176
 11
334.13450096249426
 21
575.1817663239176
  0
LINE
  8
_0-1_計細線
  6
CONTINUOUS
 62
    3
 10
333.88752141477971
 20
569.18176632391737
 11
471.43374986367235
 21
569.18176632391737
  0
LINE
  8
_0-1_計細線
  6
CONTINUOUS
 62
    3
 10
471.43374986367235
 20
561.1817663239176
 11
333.31296690221461
 21
561.1817663239176
  0
LINE
  8
_0-1_計細線
  6
CONTINUOUS
 62
    3
 10
332.74216082172825
 20
555.18176632391737
 11
471.43374986367235
 21
555.18176632391737
  0
LINE
  8
_0-1_計細線
  6
CONTINUOUS
 62
    3
 10
471.43374986367235
 20
547.1817663239176
 11
331.81776999885551
 21
547.1817663239176
  0
LINE
  8
_0-1_計細線
  6
CONTINUOUS
 62
    3
 10
331.00548090046055
 20
541.18176632391737
 11
471.43374986367235
 21
541.18176632391737
  0
LINE
  8
_0-1_計細線
  6
CONTINUOUS
 62
    3
 10
471.43374986367235
 20
533.1817663239176
 11
329.80361446869301
 21
533.1817663239176
  0
LINE
  8
_0-1_計細線
  6
CONTINUOUS
 62
    3
 10
328.82770094204579
 20
527.18176632391737
 11
471.43374986367235
 21
527.18176632391737
  0
LINE
  8
_0-1_計細線
  6
CONTINUOUS
 62
    3
 10
471.43374986367235
 20
519.1817663239176
 11
327.45211898038588
 21
519.1817663239176
  0
LINE
  8
_0-5_寸法線
  6
CONTINUOUS
 62
    7
 10
791.08699663997777
 20
591.84451399798104
 11
795.2382654980629
 21
582.74687876304802
  0
LINE
  8
_0-5_寸法線
  6
CONTINUOUS
 62
    7
 10
791.08699663997777
 20
591.84451399798104
 11
790.13328331155208
 21
581.89009634112222
  0
LINE
  8
_0-5_寸法線
  6
CONTINUOUS
 62
    7
 10
791.08699663997777
 20
591.84451399798104
 11
813.27081859303826
 21
459.66624679621304
  0
LINE
  8
_0-5_寸法線
  6
CONTINUOUS
 62
    7
 10
813.27081859303826
 20
459.66624679621304
 11
944.85192038408115
 21
459.66624679621304
  0
TEXT
  8
_0-5_寸法線
 62
    7
 10
812.85192038408115
 20
459.66624679621304
 40
15
 41
0.8000000000000001
 50
0
  1
ステンレスグレーチング
  0
TEXT
  8
_0-5_寸法線
 62
    7
 10
593.67073225861395
 20
444.66624679621304
 40
15
 41
0.8000000000000001
 50
0
  1
ＧＳＬ－１５
  0
TEXT
  8
_0-5_寸法線
 62
    7
 10
813.27081859303826
 20
444.66624679621304
 40
15
 41
0.8000000000000001
 50
0
  1
ＧＳＴ－１５Ｗ３０２
  0
TEXT
  8
_0-7_枠細線
 62
    5
 10
965.50000000000011
 20
110
 40
20
 41
0.6
 50
0
  1
ＧＳＴ－１５Ｗ３０２
  0
TEXT
  8
_0-7_枠細線
 62
    5
 10
965.50000000000011
 20
150
 40
20
 41
0.5
 50
0
  1
Ｔバー ステンレスグレーチング Ｈ１５タイプ
  0
TEXT
  8
_0-7_枠細線
 62
    5
 10
965.49999999999966
 20
70
 40
20.000000000000004
 41
0.5999999999999997
 50
0
  1
表面形状については記号表参照のこと
  0
LINE
  8
_0-7_枠細線
  6
CONTINUOUS
 62
    5
 10
1409.4018171150183
 20
328.47321710336234
 11
1409.4018171150183
 21
223.47321710336274
  0
TEXT
  8
_0-7_枠細線
 62
    5
 10
1318.4018171150192
 20
308.47321710336234
 40
15.000000000000002
 41
0.8
 50
0
  1
ノンスリップ
  0
TEXT
  8
_0-7_枠細線
 62
    5
 10
1330.4018171150185
 20
283.47321710336234
 40
15.000000000000002
 41
0.8
 50
0
  1
品番－Ｄ
  0
LINE
  8
_0-7_枠細線
  6
CONTINUOUS
 62
    5
 10
1299.4018171150178
 20
328.47321710336234
 11
1299.4018171150178
 21
223.47321710336274
  0
TEXT
  8
_0-7_枠細線
 62
    5
 10
1220.4018171150178
 20
308.4732171033624
 40
15.000000000000002
 41
0.8
 50
0
  1
プレーン
  0
TEXT
  8
_0-7_枠細線
 62
    5
 10
1220.4018171150185
 20
283.47321710336234
 40
15.000000000000002
 41
0.8
 50
0
  1
品番－Ｆ
  0
TEXT
  8
_0-7_枠細線
 62
    5
 10
1140.4018171150183
 20
308.47321710336234
 40
15.000000000000002
 41
0.8
 50
0
  1
タ イ プ
  0
LINE
  8
_0-7_枠細線
  6
CONTINUOUS
 62
    5
 10
1139.4018171150174
 20
278.47321710336234
 11
1409.4018171150183
 21
278.47321710336234
  0
LINE
  8
_0-7_枠細線
  6
CONTINUOUS
 62
    5
 10
1139.4018171150174
 20
303.47321710336234
 11
1409.4018171150183
 21
303.47321710336234
  0
LINE
  8
_0-7_枠細線
  6
CONTINUOUS
 62
    5
 10
1139.4018171150174
 20
328.47321710336234
 11
1409.4018171150183
 21
328.47321710336234
  0
LINE
  8
_0-7_枠細線
  6
CONTINUOUS
 62
    5
 10
1139.4018171150174
 20
223.47321710336274
 11
1409.4018171150183
 21
223.47321710336274
  0
LINE
  8
_0-7_枠細線
  6
CONTINUOUS
 62
    5
 10
1189.4018171150183
 20
328.47321710336234
 11
1189.4018171150183
 21
223.47321710336274
  0
LINE
  8
_0-7_枠細線
  6
CONTINUOUS
 62
    5
 10
1139.4018171150174
 20
328.47321710336234
 11
1139.4018171150174
 21
223.47321710336274
  0
TEXT
  8
_0-7_枠細線
 62
    5
 10
1140.4018171150183
 20
243.47321710336257
 40
15.000000000000002
 41
0.8
 50
0
  1
表面形状
  0
TEXT
  8
_0-7_枠細線
 62
    5
 10
1147.1760284558286
 20
330.9732171033624
 40
17.500000000000004
 41
0.7999999999999996
 50
0
  1
記号表
  0
TEXT
  8
_0-7_枠細線
 62
    5
 10
1140.4018171150183
 20
283.47321710336246
 40
15.000000000000002
 41
0.8
 50
0
  1
記　　号
  0
ARC
  8
_0-7_枠細線
  6
CONTINUOUS
 62
    5
 10
1282.9664605906703
 20
242.85777402966897
 40
12.026499332130607
 50
317.5616290000047
 51
42.438370999994966
  0
ARC
  8
_0-7_枠細線
  6
CONTINUOUS
 62
    5
 10
1300.7176602555628
 20
259.08866002804609
 40
12.026499332130607
 50
137.56162900000001
 51
222.43837100000297
  0
ARC
  8
_0-7_枠細線
  6
CONTINUOUS
 62
    5
 10
1188.0859738141417
 20
242.85777402966897
 40
12.026499332130607
 50
317.5616290000047
 51
42.438370999994966
  0
ARC
  8
_0-7_枠細線
  6
CONTINUOUS
 62
    5
 10
1205.8371734790342
 20
259.08866002804609
 40
12.026499332130607
 50
137.56162900000001
 51
222.43837100000297
  0
LINE
  8
_0-7_枠細線
  6
CONTINUOUS
 62
    5
 10
1194.4553061852557
 20
262.97321702885733
 11
1289.3357929617841
 21
262.97321702885733
  0
LINE
  8
_0-7_枠細線
  6
CONTINUOUS
 62
    5
 10
1294.3483278844485
 20
238.97321702885733
 11
1199.4678411079201
 21
238.97321702885733
  0
ARC
  8
_0-7_枠細線
  6
CONTINUOUS
 62
    5
 10
1392.966460590671
 20
242.85777402966897
 40
12.026499332130607
 50
317.5616290000047
 51
42.438370999994966
  0
ARC
  8
_0-7_枠細線
  6
CONTINUOUS
 62
    5
 10
1410.7176602555635
 20
259.08866002804609
 40
12.026499332130607
 50
137.56162900000001
 51
222.43837100000297
  0
ARC
  8
_0-7_枠細線
  6
CONTINUOUS
 62
    5
 10
1298.0859738141421
 20
242.85777402966897
 40
12.026499332130607
 50
317.5616290000047
 51
42.438370999994966
  0
ARC
  8
_0-7_枠細線
  6
CONTINUOUS
 62
    5
 10
1315.8371734790348
 20
259.08866002804609
 40
12.026499332130607
 50
137.56162900000001
 51
222.43837100000297
  0
LINE
  8
_0-7_枠細線
  6
CONTINUOUS
 62
    5
 10
1304.4553061852562
 20
262.97321702885733
 11
1399.3357929617846
 21
262.97321702885733
  0
LINE
  8
_0-7_枠細線
  6
CONTINUOUS
 62
    5
 10
1404.3483278844492
 20
238.97321702885733
 11
1309.4678411079208
 21
238.97321702885733
  0
LINE
  8
_0-7_枠細線
  6
CONTINUOUS
 62
    5
 10
1310.0055655050667
 20
244.4577803132122
 11
1315.4901287894213
 21
238.9732170288575
  0
LINE
  8
_0-7_枠細線
  6
CONTINUOUS
 62
    5
 10
1304.3960893257238
 20
262.79517855391305
 11
1328.218050850779
 21
238.97321702885748
  0
LINE
  8
_0-7_枠細線
  6
CONTINUOUS
 62
    5
 10
1316.9459729121372
 20
262.97321702885756
 11
1340.9459729121368
 21
238.97321702885748
  0
LINE
  8
_0-7_枠細線
  6
CONTINUOUS
 62
    5
 10
1329.6738949734947
 20
262.97321702885745
 11
1353.6738949734945
 21
238.97321702885748
  0
LINE
  8
_0-7_枠細線
  6
CONTINUOUS
 62
    5
 10
1342.4018170348527
 20
262.97321702885745
 11
1366.4018170348525
 21
238.97321702885745
  0
LINE
  8
_0-7_枠細線
  6
CONTINUOUS
 62
    5
 10
1355.1297390962102
 20
262.97321702885739
 11
1379.12973909621
 21
238.97321702885739
  0
LINE
  8
_0-7_枠細線
  6
CONTINUOUS
 62
    5
 10
1367.8576611575681
 20
262.97321702885739
 11
1391.8576611575677
 21
238.97321702885739
  0
LINE
  8
_0-7_枠細線
  6
CONTINUOUS
 62
    5
 10
1380.5855832189261
 20
262.97321702885739
 11
1404.4075447439814
 21
239.15125550380145
  0
LINE
  8
_0-7_枠細線
  6
CONTINUOUS
 62
    5
 10
1393.3135052802836
 20
262.97321702885733
 11
1398.7980685646389
 21
257.48865374450207
  0
LINE
  8
_0-7_枠細線
  6
CONTINUOUS
 62
    5
 10
1393.3135052802843
 20
238.97321702885739
 11
1403.3188705607763
 21
248.97858230934932
  0
LINE
  8
_0-7_枠細線
  6
CONTINUOUS
 62
    5
 10
1380.5855832189263
 20
238.97321702885739
 11
1398.8365633238182
 21
257.22419713374904
  0
LINE
  8
_0-7_枠細線
  6
CONTINUOUS
 62
    5
 10
1367.8576611575684
 20
238.97321702885745
 11
1391.8576611575686
 21
262.97321702885733
  0
LINE
  8
_0-7_枠細線
  6
CONTINUOUS
 62
    5
 10
1355.1297390962109
 20
238.97321702885748
 11
1379.1297390962106
 21
262.97321702885739
  0
LINE
  8
_0-7_枠細線
  6
CONTINUOUS
 62
    5
 10
1342.4018170348527
 20
238.97321702885748
 11
1366.4018170348527
 21
262.97321702885739
  0
LINE
  8
_0-7_枠細線
  6
CONTINUOUS
 62
    5
 10
1329.673894973495
 20
238.97321702885748
 11
1353.673894973495
 21
262.97321702885739
  0
LINE
  8
_0-7_枠細線
  6
CONTINUOUS
 62
    5
 10
1316.9459729121374
 20
238.9732170288575
 11
1340.9459729121372
 21
262.97321702885745
  0
LINE
  8
_0-7_枠細線
  6
CONTINUOUS
 62
    5
 10
1309.9670707458877
 20
244.72223692396568
 11
1328.2180508507793
 21
262.97321702885745
  0
LINE
  8
_0-7_枠細線
  6
CONTINUOUS
 62
    5
 10
1305.4847635089297
 20
252.96785174836555
 11
1315.4901287894218
 21
262.97321702885756
  0
LINE
  8
_0-9_枠極太
  6
CONTINUOUS
 62
    5
 10
60
 20
60
 11
60
 21
960
  0
LINE
  8
_0-9_枠極太
  6
CONTINUOUS
 62
    5
 10
60
 20
960
 11
1425
 21
960
  0
LINE
  8
_0-9_枠極太
  6
CONTINUOUS
 62
    5
 10
1425
 20
960
 11
1425
 21
60
  0
LINE
  8
_0-9_枠極太
  6
CONTINUOUS
 62
    5
 10
1425
 20
60
 11
60
 21
60
  0
LINE
  8
_0-a_極細3
  6
CONTINUOUS
 62
    7
 10
734.26399310350553
 20
256.56810602460041
 11
730.43065977017204
 21
256.56810602460041
  0
LINE
  8
_0-a_極細3
  6
CONTINUOUS
 62
    7
 10
734.26399310350553
 20
259.9014393579339
 11
730.43065977017204
 21
259.9014393579339
  0
LINE
  8
_0-a_極細3
  6
CONTINUOUS
 62
    7
 10
734.26399310350553
 20
253.23477269126715
 11
730.43065977017204
 21
253.23477269126715
  0
LINE
  8
_0-a_極細3
  6
CONTINUOUS
 62
    7
 10
734.26399310350553
 20
263.23477269126715
 11
730.43065977017204
 21
263.23477269126715
  0
LINE
  8
_0-a_極細3
  6
CONTINUOUS
 62
    7
 10
730.43065977017204
 20
229.9014393579339
 11
734.26399310350553
 21
229.9014393579339
  0
LINE
  8
_0-a_極細3
  6
CONTINUOUS
 62
    7
 10
734.26399310350553
 20
279.9014393579339
 11
730.43065977017204
 21
279.9014393579339
  0
LINE
  8
_0-b_細線3
  6
CONTINUOUS
 62
    7
 10
730.43065977017204
 20
283.23477269126715
 11
730.43065977017204
 21
224.9014393579339
  0
LINE
  8
_0-b_細線3
  6
CONTINUOUS
 62
    7
 10
730.43065977017204
 20
224.9014393579339
 11
734.26399310350553
 21
224.9014393579339
  0
LINE
  8
_0-b_細線3
  6
CONTINUOUS
 62
    7
 10
734.26399310350553
 20
224.9014393579339
 11
734.26399310350553
 21
283.23477269126715
  0
LINE
  8
_0-b_細線3
  6
CONTINUOUS
 62
    7
 10
734.26399310350553
 20
283.23477269126715
 11
730.43065977017204
 21
283.23477269126715
  0
LINE
  8
_0-7_枠細線
  6
CONTINUOUS
 62
    5
 10
753.349861196745
 20
260.96352268742118
 11
745.849861196745
 21
275.96352268742118
  0
LINE
  8
_0-7_枠細線
  6
CONTINUOUS
 62
    5
 10
738.349861196745
 20
260.96352268742118
 11
753.349861196745
 21
260.96352268742118
  0
LINE
  8
_0-7_枠細線
  6
CONTINUOUS
 62
    5
 10
745.849861196745
 20
275.96352268742118
 11
738.349861196745
 21
260.96352268742118
  0
TEXT
  8
_0-7_枠細線
 62
    5
 10
740.71501246489311
 20
260.65652044204063
 40
12.5
 41
0.8
 50
0
  1
１
  0
LINE
  8
_0-a_極細3
  6
CONTINUOUS
 62
    7
 10
206.59732643683867
 20
256.56810602460041
 11
210.43065977017199
 21
256.56810602460041
  0
LINE
  8
_0-a_極細3
  6
CONTINUOUS
 62
    7
 10
206.59732643683867
 20
259.9014393579339
 11
210.43065977017199
 21
259.9014393579339
  0
LINE
  8
_0-a_極細3
  6
CONTINUOUS
 62
    7
 10
206.59732643683867
 20
253.23477269126715
 11
210.43065977017199
 21
253.23477269126715
  0
LINE
  8
_0-a_極細3
  6
CONTINUOUS
 62
    7
 10
206.59732643683867
 20
263.23477269126715
 11
210.43065977017199
 21
263.23477269126715
  0
LINE
  8
_0-a_極細3
  6
CONTINUOUS
 62
    7
 10
210.43065977017199
 20
229.9014393579339
 11
206.59732643683867
 21
229.9014393579339
  0
LINE
  8
_0-a_極細3
  6
CONTINUOUS
 62
    7
 10
206.59732643683867
 20
279.9014393579339
 11
210.43065977017199
 21
279.9014393579339
  0
LINE
  8
_0-b_細線3
  6
CONTINUOUS
 62
    7
 10
210.43065977017199
 20
283.23477269126715
 11
210.43065977017199
 21
224.9014393579339
  0
LINE
  8
_0-b_細線3
  6
CONTINUOUS
 62
    7
 10
210.43065977017199
 20
224.9014393579339
 11
206.59732643683867
 21
224.9014393579339
  0
LINE
  8
_0-b_細線3
  6
CONTINUOUS
 62
    7
 10
206.59732643683867
 20
224.9014393579339
 11
206.59732643683867
 21
283.23477269126715
  0
LINE
  8
_0-b_細線3
  6
CONTINUOUS
 62
    7
 10
206.59732643683867
 20
283.23477269126715
 11
210.43065977017199
 21
283.23477269126715
  0
LINE
  8
_0-7_枠細線
  6
CONTINUOUS
 62
    5
 10
1425
 20
907.5
 11
890
 21
907.5
  0
LINE
  8
_0-7_枠細線
  6
CONTINUOUS
 62
    5
 10
915
 20
908.94233397174708
 11
907.5
 21
923.94233397174708
  0
LINE
  8
_0-7_枠細線
  6
CONTINUOUS
 62
    5
 10
900
 20
908.94233397174708
 11
915
 21
908.94233397174708
  0
LINE
  8
_0-7_枠細線
  6
CONTINUOUS
 62
    5
 10
907.5
 20
923.94233397174708
 11
900
 21
908.94233397174708
  0
TEXT
  8
_0-7_枠細線
 62
    5
 10
902.36515126814822
 20
908.63533172636653
 40
12.5
 41
0.8
 50
0
  1
１
  0
TEXT
  8
_0-7_枠細線
 62
    5
 10
1180
 20
910
 40
12.5
 41
0.7199999999999999
 50
0
  1
２０１９．０９．０１
  0
TEXT
  8
_0-7_枠細線
 62
    5
 10
938.85037037037023
 20
910
 40
12.500000000000002
 41
1
 50
0
  1
アンカー材質･厚み変更
  0
LINE
  8
_0-7_枠細線
  6
CONTINUOUS
 62
    5
 10
890
 20
907.5
 11
890
 21
959.99999999999909
  0
LINE
  8
_0-7_枠細線
  6
CONTINUOUS
 62
    5
 10
925
 20
907.5
 11
925
 21
959.99999999999943
  0
LINE
  8
_0-7_枠細線
  6
CONTINUOUS
 62
    5
 10
1175
 20
907.5
 11
1175
 21
959.99999999999943
  0
LINE
  8
_0-7_枠細線
  6
CONTINUOUS
 62
    5
 10
1275
 20
907.5
 11
1275
 21
959.99999999999943
  0
LINE
  8
_0-5_寸法線
  6
CONTINUOUS
 62
    7
 10
1176.9337498636751
 20
500.18176632391601
 11
1221.9337498636751
 21
500.18176632391578
  0
LINE
  8
_0-5_寸法線
  6
CONTINUOUS
 62
    7
 10
1216.9337498636751
 20
500.18176632391578
 11
1219.5219403147003
 21
490.52250806102506
  0
LINE
  8
_0-5_寸法線
  6
CONTINUOUS
 62
    7
 10
1216.9337498636751
 20
500.18176632391578
 11
1214.3455594126499
 21
490.52250806102512
  0
LINE
  8
_0-5_寸法線
  6
CONTINUOUS
 62
    7
 10
1176.9337498636751
 20
503.18176632391737
 11
1221.9337498636751
 21
503.18176632391737
  0
CIRCLE
  8
_0-5_寸法線
  6
CONTINUOUS
 62
    1
 10
1216.9337498636751
 20
503.18176632391737
 40
1.5000000000000002
  0
LINE
  8
_0-5_寸法線
  6
CONTINUOUS
 62
    7
 10
1216.9337498636751
 20
475.18176632391578
 11
1216.9337498636751
 21
503.18176632391737
  0
TEXT
  8
_0-5_寸法線
 62
    7
 10
1216.9337498636751
 20
478.98123528189171
 40
15
 41
1
 50
90
  1
3
  0
LINE
  8
_0-5_寸法線
  6
CONTINUOUS
 62
    7
 10
1176.9337498636751
 20
505.18176632391715
 11
1221.9337498636751
 21
505.18176632391715
  0
LINE
  8
_0-5_寸法線
  6
CONTINUOUS
 62
    7
 10
1216.9337498636751
 20
503.18176632391737
 11
1216.9337498636751
 21
505.18176632391715
  0
TEXT
  8
_0-5_寸法線
 62
    7
 10
1235.0241183036501
 20
503.18176632391737
 40
15
 41
1
 50
90
  1
2
  0
LINE
  8
_0-5_寸法線
  6
CONTINUOUS
 62
    7
 10
1216.9337498636751
 20
505.18176632391715
 11
1214.3455594126499
 21
514.84102458680786
  0
LINE
  8
_0-5_寸法線
  6
CONTINUOUS
 62
    7
 10
1216.9337498636751
 20
505.18176632391715
 11
1219.5219403147003
 21
514.84102458680786
  0
LINE
  8
_0-5_寸法線
  6
CONTINUOUS
 62
    7
 10
1176.9337498636751
 20
807.18176632391715
 11
1221.9337498636751
 21
807.18176632391715
  0
LINE
  8
_0-5_寸法線
  6
CONTINUOUS
 62
    7
 10
1216.9337498636751
 20
807.18176632391715
 11
1219.5219403147003
 21
797.52250806102654
  0
LINE
  8
_0-5_寸法線
  6
CONTINUOUS
 62
    7
 10
1216.9337498636751
 20
807.18176632391715
 11
1214.3455594126499
 21
797.52250806102654
  0
LINE
  8
_0-5_寸法線
  6
CONTINUOUS
 62
    7
 10
1216.9337498636751
 20
505.18176632391715
 11
1216.9337498636751
 21
807.18176632391715
  0
TEXT
  8
_0-5_寸法線
 62
    7
 10
1216.9337498636751
 20
644.93176632391692
 40
15
 41
1
 50
90
  1
302
  0
LINE
  8
_0-5_寸法線
  6
CONTINUOUS
 62
    7
 10
1176.9337498636751
 20
809.18176632391749
 11
1221.9337498636751
 21
809.18176632391715
  0
CIRCLE
  8
_0-5_寸法線
  6
CONTINUOUS
 62
    1
 10
1216.9337498636751
 20
809.18176632391715
 40
1.5000000000000002
  0
LINE
  8
_0-5_寸法線
  6
CONTINUOUS
 62
    7
 10
1216.9337498636751
 20
807.18176632391715
 11
1216.9337498636751
 21
809.18176632391715
  0
TEXT
  8
_0-5_寸法線
 62
    7
 10
1234.8144151990984
 20
801.68176632391749
 40
15
 41
1
 50
90
  1
2
  0
LINE
  8
_0-5_寸法線
  6
CONTINUOUS
 62
    7
 10
1176.9337498636751
 20
812.18176632391601
 11
1221.9337498636751
 21
812.18176632391589
  0
LINE
  8
_0-5_寸法線
  6
CONTINUOUS
 62
    7
 10
1216.9337498636751
 20
812.18176632391589
 11
1214.3455594126499
 21
821.8410245868065
  0
LINE
  8
_0-5_寸法線
  6
CONTINUOUS
 62
    7
 10
1216.9337498636751
 20
812.18176632391589
 11
1219.5219403147003
 21
821.8410245868065
  0
LINE
  8
_0-5_寸法線
  6
CONTINUOUS
 62
    7
 10
1216.9337498636751
 20
809.18176632391715
 11
1216.9337498636751
 21
837.18176632391589
  0
TEXT
  8
_0-5_寸法線
 62
    7
 10
1216.9337498636751
 20
825.56910908161274
 40
15
 41
1
 50
90
  1
3
  0
LINE
  8
_0-d_寸法3
  6
CONTINUOUS
 62
    7
 10
210.43065977017199
 20
368.23477102292236
 11
200.77140150728127
 21
365.64658057189718
  0
LINE
  8
_0-d_寸法3
  6
CONTINUOUS
 62
    7
 10
210.43065977017199
 20
368.23477102292236
 11
200.77140150728133
 21
370.82296147394766
  0
LINE
  8
_0-d_寸法3
  6
CONTINUOUS
 62
    7
 10
215.43065977017199
 20
297.40143935793367
 11
215.43065977017199
 21
373.23477102292236
  0
CIRCLE
  8
_0-d_寸法3
  6
CONTINUOUS
 62
    1
 10
215.43065977017199
 20
368.23477102292236
 40
1.5000000000000002
  0
LINE
  8
_0-d_寸法3
  6
CONTINUOUS
 62
    7
 10
185.43065977017199
 20
368.23477102292236
 11
215.43065977017199
 21
368.23477102292236
  0
TEXT
  8
_0-d_寸法3
 62
    7
 10
189.28599182624879
 20
368.23477102292236
 40
15
 41
1
 50
0
  1
3
  0
LINE
  8
_0-d_寸法3
  6
CONTINUOUS
 62
    7
 10
218.76399310350507
 20
294.90143768958933
 11
218.7639931035055
 21
373.23477102292236
  0
LINE
  8
_0-d_寸法3
  6
CONTINUOUS
 62
    7
 10
215.43065977017199
 20
368.23477102292236
 11
218.7639931035055
 21
368.23477102292236
  0
TEXT
  8
_0-d_寸法3
 62
    7
 10
213.3473264368385
 20
368.23477102292236
 40
15
 41
1
 50
0
  1
2
  0
LINE
  8
_0-d_寸法3
  6
CONTINUOUS
 62
    7
 10
218.7639931035055
 20
368.23477102292236
 11
228.42325136639616
 21
370.82296147394754
  0
LINE
  8
_0-d_寸法3
  6
CONTINUOUS
 62
    7
 10
218.7639931035055
 20
368.23477102292236
 11
228.42325136639616
 21
365.64658057189718
  0
LINE
  8
_0-d_寸法3
  6
CONTINUOUS
 62
    7
 10
722.09732643683867
 20
294.90143768958933
 11
722.09732643683867
 21
373.23477102292236
  0
LINE
  8
_0-d_寸法3
  6
CONTINUOUS
 62
    7
 10
722.09732643683867
 20
368.23477102292236
 11
712.43806817394784
 21
365.64658057189718
  0
LINE
  8
_0-d_寸法3
  6
CONTINUOUS
 62
    7
 10
722.09732643683867
 20
368.23477102292236
 11
712.43806817394784
 21
370.82296147394766
  0
LINE
  8
_0-d_寸法3
  6
CONTINUOUS
 62
    7
 10
218.7639931035055
 20
368.23477102292236
 11
722.09732643683867
 21
368.23477102292236
  0
TEXT
  8
_0-d_寸法3
 62
    7
 10
459.18065977017159
 20
368.23477102292236
 40
15
 41
1
 50
0
  1
302
  0
LINE
  8
_0-d_寸法3
  6
CONTINUOUS
 62
    7
 10
725.43065977017159
 20
297.40143935793367
 11
725.43065977017204
 21
373.23477102292236
  0
CIRCLE
  8
_0-d_寸法3
  6
CONTINUOUS
 62
    1
 10
725.43065977017204
 20
368.23477102292236
 40
1.5000000000000002
  0
LINE
  8
_0-d_寸法3
  6
CONTINUOUS
 62
    7
 10
722.09732643683867
 20
368.23477102292236
 11
725.43065977017204
 21
368.23477102292236
  0
TEXT
  8
_0-d_寸法3
 62
    7
 10
720.01399310350507
 20
368.23477102292236
 40
15
 41
1
 50
0
  1
2
  0
LINE
  8
_0-d_寸法3
  6
CONTINUOUS
 62
    7
 10
730.43065977017204
 20
368.23477102292236
 11
740.08991803306276
 21
370.82296147394749
  0
LINE
  8
_0-d_寸法3
  6
CONTINUOUS
 62
    7
 10
730.43065977017204
 20
368.23477102292236
 11
740.08991803306276
 21
365.64658057189712
  0
LINE
  8
_0-d_寸法3
  6
CONTINUOUS
 62
    7
 10
725.43065977017204
 20
368.23477102292236
 11
755.43065977017204
 21
368.23477102292236
  0
TEXT
  8
_0-d_寸法3
 62
    7
 10
744.94925152248152
 20
368.23477102292236
 40
15
 41
1
 50
0
  1
3
  0
ENDSEC
  0
EOF
