  0
SECTION
  2
HEADER
  9
$ACADVER
  1
AC1009
  9
$INSBASE
 10
0
 20
0
 30
0
  9
$EXTMIN
 10
0
 20
0
  9
$EXTMAX
 10
1485
 20
1050
  9
$LIMMIN
 10
0
 20
0
  9
$LIMMAX
 10
1485
 20
1050
  9
$LTSCALE
 40
5
  0
ENDSEC
  0
SECTION
  2
TABLES
  0
TABLE
  2
LTYPE
 70
     9
  0
LTYPE
  2
CONTINUOUS
 70
    64
  3
実線
 72
    65
 73
     0
 40
0.0
  0
LTYPE
  2
DASHED1
 70
    64
  3
--  --  --  --  --  --  --  --  
 72
    65
 73
     2
 40
2.5
 49
1.25
 49
-1.25
  0
LTYPE
  2
DASHED2
 70
    64
  3
----    ----    ----    ----    
 72
    65
 73
     2
 40
5.0
 49
2.5
 49
-2.5
  0
LTYPE
  2
DASHED3
 70
    64
  3
------  ------  ------  ------  
 72
    65
 73
     2
 40
5.0
 49
3.75
 49
-1.25
  0
LTYPE
  2
CENTER1
 70
    64
  3
----- - ----- - ----- - ----- - 
 72
    65
 73
     4
 40
10.0
 49
6.25
 49
-1.25
 49
1.25
 49
-1.25
  0
LTYPE
  2
CENTER2
 70
    64
  3
----------  --  ----------  --  
 72
    65
 73
     4
 40
20.0
 49
12.5
 49
-2.5
 49
2.5
 49
-2.5
  0
LTYPE
  2
PHANTOM1
 70
    64
  3
--- - - --- - - --- - - --- - - 
 72
    65
 73
     6
 40
10.0
 49
3.25
 49
-1.25
 49
1.25
 49
-1.25
 49
1.25
 49
-1.25
  0
LTYPE
  2
PHANTOM2
 70
    64
  3
--------  -  -  --------  -  -  
 72
    65
 73
     6
 40
20.0
 49
10.0
 49
-2.5
 49
1.25
 49
-2.5
 49
1.25
 49
-2.5
  0
LTYPE
  2
DOT
 70
    64
  3
-   -   -   -   -   -   -   -   
 72
    65
 73
     2
 40
2.5
 49
0.625
 49
-1.875
  0
LTYPE
  2
DUMMY
 70
    64
  3
ダミー
 72
    65
 73
     0
 40
0.0
  0
LTYPE
  2
RAND1
 70
    64
  3
ランダム線1
 72
    65
 73
     4
 40
10.0
 49
1.0
 49
-2.0
 49
3.0
 49
-4.0
  0
LTYPE
  2
RAND2
 70
    64
  3
ランダム線2
 72
    65
 73
     4
 40
14.0
 49
2.0
 49
-3.0
 49
4.0
 49
-5.0
  0
LTYPE
  2
RAND3
 70
    64
  3
ランダム線3
 72
    65
 73
     4
 40
18.0
 49
3.0
 49
-4.0
 49
5.0
 49
-6.0
  0
LTYPE
  2
RAND4
 70
    64
  3
ランダム線4
 72
    65
 73
     4
 40
22.0
 49
4.0
 49
-5.0
 49
6.0
 49
-7.0
  0
LTYPE
  2
RAND5
 70
    64
  3
ランダム線5
 72
    65
 73
     4
 40
26.0
 49
5.0
 49
-6.0
 49
7.0
 49
-8.0
  0
LTYPE
  2
LONG1
 70
    64
  3
----------  --  ----------  --  
 72
    65
 73
     4
 40
40.0
 49
32.5
 49
-2.5
 49
2.5
 49
-2.5
  0
LTYPE
  2
LONG2
 70
    64
  3
--------  -  -  --------  -  -  
 72
    65
 73
     6
 40
40.0
 49
30.0
 49
-2.5
 49
1.25
 49
-2.5
 49
1.25
 49
-2.5
  0
LTYPE
  2
LONG3
 70
    64
  3
+++++++++++++++..+++++++++++++++
 72
    65
 73
     2
 40
40.0
 49
37.5
 49
-2.5
  0
LTYPE
  2
LONG4
 70
    64
  3
+++++++++++++++..+++++++++++++++
 72
    65
 73
     2
 40
80.0
 49
75.0
 49
-5.0
  0
LTYPE
  2
LONG5
 70
    64
  3
----------  --  ----------  --  
 72
    65
 73
     4
 40
60.0
 49
37.5
 49
-7.5
 49
7.5
 49
-7.5
  0
LTYPE
  2
dashed
 70
   64
  3
-------   -------------   ------
 72
   65
 73
    2
 40
7.5
 49
6
 49
-1.5
  0
LTYPE
  2
dashed_spaced
 70
   64
  3
----        --------        ----
 72
   65
 73
    2
 40
12
 49
6
 49
-6
  0
LTYPE
  2
long_dashed_dotted
 70
   64
  3
------------- --- --------------
 72
   65
 73
    4
 40
15.25
 49
12
 49
-1.5
 49
0.25
 49
-1.5
  0
LTYPE
  2
long_dashed_double-dotted
 70
   64
  3
----------- --- --- ------------
 72
   65
 73
    6
 40
17
 49
12
 49
-1.5
 49
0.25
 49
-1.5
 49
0.25
 49
-1.5
  0
LTYPE
  2
long_dashed_triplicate-dotted
 70
   64
  3
--------- --- --- --- ----------
 72
   65
 73
    8
 40
18.75
 49
12
 49
-1.5
 49
0.25
 49
-1.5
 49
0.25
 49
-1.5
 49
0.25
 49
-1.5
  0
LTYPE
  2
dotted
 70
   64
  3
   -       -       -       -    
 72
   65
 73
    2
 40
1.75
 49
0.25
 49
-1.5
  0
LTYPE
  2
chain
 70
   64
  3
-------------- -- --------------
 72
   65
 73
    4
 40
18.5
 49
12
 49
-1.5
 49
3.5
 49
-1.5
  0
LTYPE
  2
chain_double_dash
 70
   64
  3
------------ -- -- -------------
 72
   65
 73
    6
 40
23.5
 49
12
 49
-1.5
 49
3.5
 49
-1.5
 49
3.5
 49
-1.5
  0
LTYPE
  2
dashed_dotted
 70
   64
  3
-----------     -     ----------
 72
   65
 73
    4
 40
9.25
 49
6
 49
-1.5
 49
0.25
 49
-1.5
  0
LTYPE
  2
double-dashed_dotted
 70
   64
  3
------   -----------   -   -----
 72
   65
 73
    6
 40
16.75
 49
6
 49
-1.5
 49
6
 49
-1.5
 49
0.25
 49
-1.5
  0
LTYPE
  2
dashed_double-dotted
 70
   64
  3
---------    -    -    ---------
 72
   65
 73
    6
 40
11
 49
6
 49
-1.5
 49
0.25
 49
-1.5
 49
0.25
 49
-1.5
  0
LTYPE
  2
double-dashed_double-dotted
 70
   64
  3
-----   ---------   -   -   ----
 72
   65
 73
    8
 40
18.5
 49
6
 49
-1.5
 49
6
 49
-1.5
 49
0.25
 49
-1.5
 49
0.25
 49
-1.5
  0
LTYPE
  2
dashed_triplicate-dotted
 70
   64
  3
-------    -    -    -    ------
 72
   65
 73
    8
 40
12.75
 49
6
 49
-1.5
 49
0.25
 49
-1.5
 49
0.25
 49
-1.5
 49
0.25
 49
-1.5
  0
LTYPE
  2
double-dashed_triplicate-dotted
 70
   64
  3
-----  ---------  -  -  -  -----
 72
   65
 73
   10
 40
20.25
 49
6
 49
-1.5
 49
6
 49
-1.5
 49
0.25
 49
-1.5
 49
0.25
 49
-1.5
 49
0.25
 49
-1.5
  0
LTYPE
  2
undefined
 70
   64
  3
--------------------------------
 72
   65
 73
    0
 40
0
  0
ENDTAB
  0
TABLE
  2
STYLE
  5
3
100
AcDbSymbolTable
 70
     1
  0
STYLE
  5
10
100
AcDbSymbolTableRecord
100
AcDbTextStyleTableRecord
  2
STANDARD
 70
     0
 40
0.0
 41
1.0
 50
0.0
 71
     0
 42
0.2
  3
txt
  4
bigfont.shx
  0
STYLE
  5
26
100
AcDbSymbolTableRecord
100
AcDbTextStyleTableRecord
  2
TATEGAKI
 70
    68
 40
0.0
 41
1.0
 50
0.0
 71
     0
 42
1.0
  3
txt
  4
bigfont.shx
  0
ENDTAB
  0
TABLE
  2
LAYER
 70
   10
  0
LAYER
  2
_0-0_計極細
 70
   64
 62
    7
  6
CONTINUOUS
  0
LAYER
  2
_0-1_計細線
 70
   64
 62
    7
  6
CONTINUOUS
  0
LAYER
  2
_0-5_寸法線
 70
   64
 62
    7
  6
CONTINUOUS
  0
LAYER
  2
_0-7_枠細線
 70
   64
 62
    7
  6
CONTINUOUS
  0
LAYER
  2
_0-8_枠中線
 70
   64
 62
    7
  6
CONTINUOUS
  0
LAYER
  2
_0-9_枠極太
 70
   64
 62
    7
  6
CONTINUOUS
  0
LAYER
  2
_0-a_極細3
 70
   64
 62
    7
  6
CONTINUOUS
  0
LAYER
  2
_0-b_細線3
 70
   64
 62
    7
  6
CONTINUOUS
  0
LAYER
  2
_0-d_寸法3
 70
   64
 62
    7
  6
CONTINUOUS
  0
LAYER
  2
ADD_LINE
 70
   64
 62
    7
  6
CONTINUOUS
  0
ENDTAB
  0
ENDSEC
  0
SECTION
  2
BLOCKS
  0
ENDSEC
  0
SECTION
  2
ENTITIES
  0
LINE
  8
_0-7_枠細線
  6
CONTINUOUS
 62
    5
 10
1425
 20
942.5
 11
890
 21
942.5
  0
TEXT
  8
_0-7_枠細線
 62
    5
 10
895
 20
945
 40
12.5
 41
1
 50
0
  1
記号
  0
TEXT
  8
_0-7_枠細線
 62
    5
 10
996.875
 20
945
 40
12.5
 41
1
 50
0
  1
訂　 正　 記　 事
  0
TEXT
  8
_0-7_枠細線
 62
    5
 10
1181.25
 20
945
 40
12.5
 41
1
 50
0
  1
訂 正 年 月 日
  0
TEXT
  8
_0-7_枠細線
 62
    5
 10
1306.25
 20
945
 40
12.5
 41
1
 50
0
  1
備　　　　　考
  0
LINE
  8
_0-7_枠細線
  6
CONTINUOUS
 62
    5
 10
1185
 20
180
 11
1185
 21
100
  0
TEXT
  8
_0-7_枠細線
 62
    5
 10
937.5
 20
97.5
 40
17.5
 41
1
 50
0
  1
備考
  7
TATEGAKI
  0
TEXT
  8
_0-7_枠細線
 62
    5
 10
937.5
 20
137.5
 40
17.5
 41
1
 50
0
  1
品番
  7
TATEGAKI
  0
TEXT
  8
_0-7_枠細線
 62
    5
 10
937.5
 20
177.5
 40
17.5
 41
1
 50
0
  1
品名
  7
TATEGAKI
  0
LINE
  8
_0-7_枠細線
  6
CONTINUOUS
 62
    5
 10
1185
 20
140
 11
925
 21
140
  0
LINE
  8
_0-7_枠細線
  6
CONTINUOUS
 62
    5
 10
950
 20
180
 11
950
 21
60
  0
LINE
  8
_0-8_枠中線
  6
CONTINUOUS
 62
    5
 10
1425
 20
180
 11
925
 21
180
  0
LINE
  8
_0-8_枠中線
  6
CONTINUOUS
 62
    5
 10
925
 20
180
 11
925
 21
60
  0
LINE
  8
_0-7_枠細線
  6
CONTINUOUS
 62
    5
 10
1245
 20
180
 11
1245
 21
60
  0
TEXT
  8
_0-7_枠細線
 62
    5
 10
1192.5
 20
160
 40
15
 41
1
 50
0
  1
縮　尺
  0
TEXT
  8
_0-7_枠細線
 62
    5
 10
1194
 20
117.5
 40
20
 41
0.7000000000000001
 50
0
  1
１：５
  0
LINE
  8
_0-7_枠細線
  6
CONTINUOUS
 62
    5
 10
1185
 20
155
 11
1245
 21
155
  0
LINE
  8
_0-7_枠細線
  6
CONTINUOUS
 62
    5
 10
1245
 20
100
 11
925
 21
100
  0
LINE
  8
_0-7_枠細線
  6
CONTINUOUS
 62
    5
 10
1425
 20
90
 11
1245
 21
90
  0
LINE
  8
_0-7_枠細線
  6
CONTINUOUS
 62
    5
 10
1245
 20
120
 11
1425
 21
120
  0
LINE
  8
_0-7_枠細線
  6
CONTINUOUS
 62
    5
 10
1425
 20
140
 11
1245
 21
140
  0
TEXT
  8
_0-7_枠細線
 62
    5
 10
1255
 20
147.5
 40
25
 41
0.8
 50
0
  1
株式会社シマブン
  0
TEXT
  8
_0-7_枠細線
 62
    5
 10
1252.5
 20
60
 40
15
 41
1
 50
0
  1
年月日
  0
TEXT
  8
_0-7_枠細線
 62
    5
 10
1252.5
 20
75
 40
15
 41
1
 50
0
  1
作　成
  0
TEXT
  8
_0-7_枠細線
 62
    5
 10
1256.25
 20
122.5
 40
15
 41
1
 50
0
  1
承 認
  0
LINE
  8
_0-7_枠細線
  6
CONTINUOUS
 62
    5
 10
1305
 20
140
 11
1305
 21
60
  0
TEXT
  8
_0-7_枠細線
 62
    5
 10
1316.25
 20
122.5
 40
15
 41
1
 50
0
  1
検 図
  0
LINE
  8
_0-7_枠細線
  6
CONTINUOUS
 62
    5
 10
1365
 20
140
 11
1365
 21
90
  0
TEXT
  8
_0-7_枠細線
 62
    5
 10
1375
 20
95
 40
20
 41
1
 50
0
  1
藤戸
  0
TEXT
  8
_0-7_枠細線
 62
    5
 10
1376.25
 20
122.5
 40
15
 41
1
 50
0
  1
設 計
  0
TEXT
  8
_0-7_枠細線
 62
    5
 10
1255
 20
95
 40
20
 41
1
 50
0
  1
隠塚
  0
TEXT
  8
_0-7_枠細線
 62
    5
 10
1315
 20
95
 40
20
 41
1
 50
0
  1
渋田
  0
TEXT
  8
_0-7_枠細線
 62
    5
 10
965.50000000000011
 20
150
 40
20
 41
0.5
 50
0
  1
Ｔバー ステンレスグレーチング Ｈ２０タイプ
  0
TEXT
  8
_0-7_枠細線
 62
    5
 10
1310
 20
67.5
 40
15
 41
0.6666666666666666
 50
0
  1
２０１２年０２月２９日
  0
LINE
  8
_0-7_枠細線
  6
CONTINUOUS
 62
    5
 10
1425
 20
925
 11
890
 21
925
  0
TEXT
  8
_0-7_枠細線
 62
    5
 10
938.85037037037023
 20
927.5
 40
12.500000000000002
 41
1
 50
0
  1
品番変更
  0
TEXT
  8
_0-7_枠細線
 62
    5
 10
1180
 20
927.5
 40
12.5
 41
0.7199999999999999
 50
0
  1
２０１５．０４．０１
  0
CIRCLE
  8
_0-a_極細3
  6
CONTINUOUS
 62
    7
 10
372.0475659003227
 20
281.52707199681595
 40
0.5530864197530718
  0
LINE
  8
_0-a_極細3
  6
CONTINUOUS
 62
    7
 10
377.0973264368385
 20
296.56810602460064
 11
377.0973264368385
 21
284.90143935793367
  0
LINE
  8
_0-a_極細3
  6
CONTINUOUS
 62
    7
 10
385.43065977017199
 20
284.90143935793367
 11
287.91957929172338
 21
284.90143935793367
  0
LINE
  8
_0-a_極細3
  6
CONTINUOUS
 62
    7
 10
385.43065977017199
 20
295.73477269126715
 11
385.43065977017199
 21
296.56810602460064
  0
LINE
  8
_0-a_極細3
  6
CONTINUOUS
 62
    7
 10
385.23256951381245
 20
284.90143935793367
 11
385.43065977017159
 21
285.09952961429326
  0
LINE
  8
_0-a_極細3
  6
CONTINUOUS
 62
    7
 10
380.9899288266933
 20
284.90143935793367
 11
385.43065977017199
 21
289.34217030141235
  0
LINE
  8
_0-a_極細3
  6
CONTINUOUS
 62
    7
 10
377.0973264368385
 20
285.25147765519841
 11
385.43065977017199
 21
293.58481098853167
  0
LINE
  8
_0-a_極細3
  6
CONTINUOUS
 62
    7
 10
377.0973264368385
 20
289.49411834231751
 11
384.17131411912123
 21
296.56810602460064
  0
LINE
  8
_0-a_極細3
  6
CONTINUOUS
 62
    7
 10
377.0973264368385
 20
293.73675902943705
 11
379.92867343200209
 21
296.56810602460064
  0
LINE
  8
_0-a_極細3
  6
CONTINUOUS
 62
    7
 10
385.43065977017199
 20
294.28713915234198
 11
383.14969289791355
 21
296.56810602460064
  0
LINE
  8
_0-a_極細3
  6
CONTINUOUS
 62
    7
 10
385.43065977017199
 20
290.04449846522266
 11
378.90705221079401
 21
296.56810602460064
  0
LINE
  8
_0-a_極細3
  6
CONTINUOUS
 62
    7
 10
377.0973264368385
 20
294.13519111143682
 11
385.43065977017199
 21
285.80185777810357
  0
LINE
  8
_0-a_極細3
  6
CONTINUOUS
 62
    7
 10
377.0973264368385
 20
289.89255042431751
 11
382.08843750322188
 21
284.90143935793367
  0
LINE
  8
_0-a_極細3
  6
CONTINUOUS
 62
    7
 10
377.0973264368385
 20
285.64990973719819
 11
377.84579681610285
 21
284.90143935793367
  0
LINE
  8
_0-a_極細3
  6
CONTINUOUS
 62
    7
 10
368.26200675920791
 20
284.9014393518064
 11
377.0973264368385
 21
293.73675902943705
  0
LINE
  8
_0-a_極細3
  6
CONTINUOUS
 62
    7
 10
347.0488033089004
 20
284.90143933709533
 11
358.71546999640572
 21
296.56810602460041
  0
LINE
  8
_0-a_極細3
  6
CONTINUOUS
 62
    7
 10
325.83559985859256
 20
284.90143932238379
 11
337.50226656080889
 21
296.56810602460064
  0
LINE
  8
_0-a_極細3
  6
CONTINUOUS
 62
    7
 10
304.62239640828454
 20
284.90143930767272
 11
316.28906312521252
 21
296.56810602460064
  0
LINE
  8
_0-a_極細3
  6
CONTINUOUS
 62
    7
 10
287.91957929172338
 20
289.41182562670792
 11
295.0758596896157
 21
296.56810602460041
  0
LINE
  8
_0-a_極細3
  6
DASHED2
 62
    7
 10
357.65540503405413
 20
284.90143934445086
 11
369.32207171420396
 21
296.56810602460064
  0
LINE
  8
_0-a_極細3
  6
DASHED2
 62
    7
 10
336.44220158374623
 20
284.90143932973956
 11
348.10886827860759
 21
296.56810602460064
  0
LINE
  8
_0-a_極細3
  6
DASHED2
 62
    7
 10
315.22899813343884
 20
284.90143931502826
 11
326.89566484301076
 21
296.56810602460064
  0
LINE
  8
_0-a_極細3
  6
DASHED2
 62
    7
 10
294.01579468313048
 20
284.90143930031718
 11
305.68246140741394
 21
296.56810602460064
  0
CIRCLE
  8
_0-a_極細3
  6
CONTINUOUS
 62
    7
 10
305.81546713489109
 20
275.10484977459396
 40
0.5530864197530718
  0
CIRCLE
  8
_0-a_極細3
  6
CONTINUOUS
 62
    7
 10
347.15867701143401
 20
279.90484977459391
 40
0.5530864197530718
  0
CIRCLE
  8
_0-a_極細3
  6
CONTINUOUS
 62
    7
 10
316.1521128655545
 20
280.71100725916835
 40
1.825531472681392
  0
CIRCLE
  8
_0-a_極細3
  6
CONTINUOUS
 62
    7
 10
295.95503332447504
 20
281.60361520669267
 40
1.825531472681392
  0
LINE
  8
_0-a_極細3
  6
CONTINUOUS
 62
    7
 10
385.43065977017199
 20
296.56810602460064
 11
287.91957929172338
 21
296.56810602460064
  0
CIRCLE
  8
_0-a_極細3
  6
CONTINUOUS
 62
    7
 10
627.4253436780964
 20
281.83355347829729
 40
0.5530864197530718
  0
CIRCLE
  8
_0-a_極細3
  6
CONTINUOUS
 62
    7
 10
575.42534367809731
 20
282.76688681163068
 40
0.5530864197530718
  0
LINE
  8
_0-a_極細3
  6
CONTINUOUS
 62
    7
 10
563.76399310350462
 20
296.56810602460064
 11
563.76399310350462
 21
284.90143935793367
  0
LINE
  8
_0-a_極細3
  6
CONTINUOUS
 62
    7
 10
555.43065977017159
 20
284.90143935793367
 11
652.94174024861968
 21
284.90143935793367
  0
LINE
  8
_0-a_極細3
  6
CONTINUOUS
 62
    7
 10
555.43065977017159
 20
295.73477269126715
 11
555.43065977017159
 21
296.56810602460064
  0
LINE
  8
_0-a_極細3
  6
CONTINUOUS
 62
    7
 10
563.76399310350462
 20
288.57052563865864
 11
560.0949068227801
 21
284.90143935793367
  0
LINE
  8
_0-a_極細3
  6
CONTINUOUS
 62
    7
 10
563.76399310350462
 20
292.81316632577773
 11
555.85226613566101
 21
284.90143935793367
  0
LINE
  8
_0-a_極細3
  6
CONTINUOUS
 62
    7
 10
555.43065977017159
 20
288.72247367956379
 11
563.27629211520798
 21
296.56810602460064
  0
LINE
  8
_0-a_極細3
  6
CONTINUOUS
 62
    7
 10
555.43065977017159
 20
292.96511436668311
 11
559.03365142808889
 21
296.56810602460041
  0
LINE
  8
_0-a_極細3
  6
CONTINUOUS
 62
    7
 10
563.76399310350462
 20
295.05878381509501
 11
562.25467089399899
 21
296.56810602460064
  0
LINE
  8
_0-a_極細3
  6
CONTINUOUS
 62
    7
 10
563.76399310350462
 20
290.81614312797569
 11
558.0120302068799
 21
296.56810602460064
  0
LINE
  8
_0-a_極細3
  6
CONTINUOUS
 62
    7
 10
563.76399310350462
 20
286.57350244085637
 11
555.43065977017159
 21
294.90683577418986
  0
LINE
  8
_0-a_極細3
  6
CONTINUOUS
 62
    7
 10
561.19341549930778
 20
284.90143935793367
 11
555.43065977017159
 21
290.66419508707054
  0
LINE
  8
_0-a_極細3
  6
CONTINUOUS
 62
    7
 10
556.95077481218868
 20
284.90143935793367
 11
555.43065977017159
 21
286.42155439995122
  0
LINE
  8
_0-a_極細3
  6
CONTINUOUS
 62
    7
 10
632.2197985038074
 20
284.90143935793367
 11
643.88646454368529
 21
296.56810539781145
  0
LINE
  8
_0-a_極細3
  6
CONTINUOUS
 62
    7
 10
611.00659506821103
 20
284.9014393579339
 11
622.67326127403794
 21
296.56810556376013
  0
LINE
  8
_0-a_極細3
  6
CONTINUOUS
 62
    7
 10
589.79339163261466
 20
284.90143935793367
 11
601.46005800438979
 21
296.56810572970835
  0
LINE
  8
_0-a_極細3
  6
CONTINUOUS
 62
    7
 10
568.58018819701829
 20
284.90143935793367
 11
580.24685473474165
 21
296.56810589565703
  0
LINE
  8
_0-a_極細3
  6
DASHED2
 62
    7
 10
642.82640022160649
 20
284.9014393579339
 11
652.94174024861968
 21
295.01677938494731
  0
LINE
  8
_0-a_極細3
  6
DASHED2
 62
    7
 10
621.61319678600921
 20
284.90143935793367
 11
633.27986290886111
 21
296.56810548078556
  0
LINE
  8
_0-a_極細3
  6
DASHED2
 62
    7
 10
600.39999335041284
 20
284.90143935793367
 11
612.06665963921387
 21
296.56810564673424
  0
LINE
  8
_0-a_極細3
  6
DASHED2
 62
    7
 10
579.18678991481647
 20
284.90143935793367
 11
590.85345636956572
 21
296.56810581268269
  0
LINE
  8
_0-a_極細3
  6
DASHED2
 62
    7
 10
563.76399310350462
 20
290.69184598221818
 11
569.64025309991757
 21
296.56810597863114
  0
CIRCLE
  8
_0-a_極細3
  6
CONTINUOUS
 62
    7
 10
635.4253436780964
 20
282.20361520669258
 40
1.825531472681392
  0
CIRCLE
  8
_0-a_極細3
  6
CONTINUOUS
 62
    7
 10
596.75867701143034
 20
278.78139298447059
 40
1.825531472681392
  0
LINE
  8
_0-a_極細3
  6
CONTINUOUS
 62
    7
 10
555.43065977017159
 20
296.56810602460064
 11
652.94174024861968
 21
296.56810602460064
  0
LINE
  8
_0-d_寸法3
  6
CONTINUOUS
 62
    7
 10
385.43065977017199
 20
301.56810602460064
 11
385.43065977017199
 21
411.56810435625584
  0
LINE
  8
_0-d_寸法3
  6
CONTINUOUS
 62
    7
 10
385.43065977017199
 20
406.56810435625584
 11
395.08991803306265
 21
409.15629480728109
  0
LINE
  8
_0-d_寸法3
  6
CONTINUOUS
 62
    7
 10
385.43065977017199
 20
406.56810435625584
 11
395.08991803306265
 21
403.97991390523066
  0
LINE
  8
_0-d_寸法3
  6
CONTINUOUS
 62
    7
 10
555.43065977017159
 20
301.56810602460064
 11
555.43065977017159
 21
411.56810435625584
  0
LINE
  8
_0-d_寸法3
  6
CONTINUOUS
 62
    7
 10
555.43065977017159
 20
406.56810435625584
 11
545.77140150728087
 21
403.97991390523066
  0
LINE
  8
_0-d_寸法3
  6
CONTINUOUS
 62
    7
 10
555.43065977017159
 20
406.56810435625584
 11
545.77140150728087
 21
409.15629480728114
  0
LINE
  8
_0-d_寸法3
  6
CONTINUOUS
 62
    7
 10
385.43065977017199
 20
406.56810435625584
 11
555.43065977017159
 21
406.56810435625584
  0
TEXT
  8
_0-d_寸法3
 62
    7
 10
459.18065977017159
 20
406.56810435625584
 40
15
 41
1
 50
0
  1
102
  0
LINE
  8
_0-d_寸法3
  6
CONTINUOUS
 62
    7
 10
493.76399310350553
 20
306.56810602460041
 11
493.76399310350553
 21
348.23477269126784
  0
LINE
  8
_0-d_寸法3
  6
CONTINUOUS
 62
    7
 10
493.76399310350553
 20
343.23477269126784
 11
503.42325136639613
 21
345.82296314229302
  0
LINE
  8
_0-d_寸法3
  6
CONTINUOUS
 62
    7
 10
493.76399310350553
 20
343.23477269126784
 11
503.42325136639613
 21
340.64658224024265
  0
LINE
  8
_0-d_寸法3
  6
CONTINUOUS
 62
    7
 10
517.09732643683856
 20
306.56810602460041
 11
517.09732643683856
 21
348.23477269126784
  0
LINE
  8
_0-d_寸法3
  6
CONTINUOUS
 62
    7
 10
517.09732643683856
 20
343.23477269126784
 11
507.43806817394784
 21
340.64658224024265
  0
LINE
  8
_0-d_寸法3
  6
CONTINUOUS
 62
    7
 10
517.09732643683856
 20
343.23477269126784
 11
507.4380681739479
 21
345.82296314229313
  0
LINE
  8
_0-d_寸法3
  6
CONTINUOUS
 62
    7
 10
493.76399310350553
 20
343.23477269126784
 11
517.09732643683856
 21
343.23477269126784
  0
TEXT
  8
_0-d_寸法3
 62
    7
 10
497.9306597701725
 20
343.23477269126784
 40
15
 41
1
 50
0
  1
14
  0
LINE
  8
_0-d_寸法3
  6
CONTINUOUS
 62
    7
 10
517.09732643683856
 20
343.23477269126784
 11
526.75658469972927
 21
345.82296314229296
  0
LINE
  8
_0-d_寸法3
  6
CONTINUOUS
 62
    7
 10
517.09732643683856
 20
343.23477269126784
 11
526.75658469972927
 21
340.64658224024265
  0
LINE
  8
_0-d_寸法3
  6
CONTINUOUS
 62
    7
 10
540.43065977017227
 20
306.56810602460041
 11
540.4306597701725
 21
348.23477269126784
  0
LINE
  8
_0-d_寸法3
  6
CONTINUOUS
 62
    7
 10
540.4306597701725
 20
343.23477269126784
 11
530.77140150728178
 21
340.64658224024265
  0
LINE
  8
_0-d_寸法3
  6
CONTINUOUS
 62
    7
 10
540.4306597701725
 20
343.23477269126784
 11
530.77140150728178
 21
345.82296314229313
  0
LINE
  8
_0-d_寸法3
  6
CONTINUOUS
 62
    7
 10
517.09732643683856
 20
343.23477269126784
 11
540.4306597701725
 21
343.23477269126784
  0
TEXT
  8
_0-d_寸法3
 62
    7
 10
521.26399310350553
 20
343.23477269126784
 40
15
 41
1
 50
0
  1
14
  0
LINE
  8
_0-d_寸法3
  6
CONTINUOUS
 62
    7
 10
417.0973264368385
 20
306.56810602460041
 11
417.0973264368385
 21
348.23477269126784
  0
LINE
  8
_0-d_寸法3
  6
CONTINUOUS
 62
    7
 10
417.0973264368385
 20
343.23477269126784
 11
407.43806817394784
 21
340.64658224024265
  0
LINE
  8
_0-d_寸法3
  6
CONTINUOUS
 62
    7
 10
417.0973264368385
 20
343.23477269126784
 11
407.43806817394784
 21
345.82296314229313
  0
LINE
  8
_0-d_寸法3
  6
CONTINUOUS
 62
    7
 10
430.43065977017164
 20
306.56810602460041
 11
430.43065977017204
 21
348.23477269126784
  0
CIRCLE
  8
_0-d_寸法3
  6
CONTINUOUS
 62
    1
 10
430.43065977017199
 20
343.23477269126784
 40
1.5000000000000002
  0
LINE
  8
_0-d_寸法3
  6
CONTINUOUS
 62
    7
 10
392.0973264368385
 20
343.23477269126784
 11
430.43065977017199
 21
343.23477269126784
  0
TEXT
  8
_0-d_寸法3
 62
    7
 10
399.67331047146217
 20
343.23477269126784
 40
15
 41
1
 50
0
  1
8
  0
LINE
  8
_0-d_寸法3
  6
CONTINUOUS
 62
    7
 10
440.43065977017159
 20
306.56810602460041
 11
440.43065977017159
 21
348.23477269126784
  0
LINE
  8
_0-d_寸法3
  6
CONTINUOUS
 62
    7
 10
440.43065977017159
 20
343.23477269126784
 11
450.0899180330623
 21
345.82296314229296
  0
LINE
  8
_0-d_寸法3
  6
CONTINUOUS
 62
    7
 10
440.43065977017159
 20
343.23477269126784
 11
450.08991803306225
 21
340.64658224024265
  0
LINE
  8
_0-d_寸法3
  6
CONTINUOUS
 62
    7
 10
430.43065977017199
 20
343.23477269126784
 11
465.43065977017159
 21
343.23477269126784
  0
TEXT
  8
_0-d_寸法3
 62
    7
 10
446.72252857845706
 20
343.23477269126784
 40
15
 41
1
 50
0
  1
6
  0
LINE
  8
_0-a_極細3
  6
CONTINUOUS
 62
    7
 10
318.76399310350507
 20
251.56810602460067
 11
318.76399310350507
 21
183.23477269126712
  0
LINE
  8
_0-a_極細3
  6
CONTINUOUS
 62
    7
 10
402.0973264368385
 20
183.23477269126712
 11
318.76399310350507
 21
183.23477269126712
  0
LINE
  8
_0-a_極細3
  6
CONTINUOUS
 62
    7
 10
318.76399310350507
 20
251.56810602460067
 11
287.91957929172389
 21
251.56810602460067
  0
LINE
  8
_0-a_極細3
  6
CONTINUOUS
 62
    7
 10
402.0973264368385
 20
183.23477269126712
 11
402.0973264368385
 21
156.99317239648826
  0
LINE
  8
_0-a_極細3
  6
CONTINUOUS
 62
    7
 10
364.6753518718487
 20
156.99317251292499
 11
390.91695205019136
 21
183.23477269126712
  0
LINE
  8
_0-a_極細3
  6
CONTINUOUS
 62
    7
 10
293.96467397320748
 20
156.99317273293809
 11
320.20627393153654
 21
183.23477269126712
  0
LINE
  8
_0-a_極細3
  6
CONTINUOUS
 62
    7
 10
287.91957929172389
 20
221.65875617010943
 11
317.82892914621516
 21
251.56810602460067
  0
LINE
  8
_0-a_極細3
  6
CONTINUOUS
 62
    7
 10
357.60428408198459
 20
156.99317253492652
 11
383.8458842383256
 21
183.23477269126712
  0
LINE
  8
_0-a_極細3
  6
CONTINUOUS
 62
    7
 10
287.91957929172389
 20
158.01914586332032
 11
318.76399310350507
 21
188.86355967510141
  0
LINE
  8
_0-a_極細3
  6
CONTINUOUS
 62
    7
 10
287.91957929172389
 20
228.72982398197522
 11
310.75786133434929
 21
251.56810602460067
  0
LINE
  8
_0-a_極細3
  6
CONTINUOUS
 62
    7
 10
350.53321629212087
 20
156.99317255692768
 11
376.77481642646029
 21
183.23477269126712
  0
LINE
  8
_0-a_極細3
  6
CONTINUOUS
 62
    7
 10
287.91957929172389
 20
165.09021367518562
 11
318.76399310350507
 21
195.93462748696723
  0
LINE
  8
_0-a_極細3
  6
CONTINUOUS
 62
    7
 10
287.91957929172389
 20
235.80089179384029
 11
303.68679352248409
 21
251.56810602460067
  0
CIRCLE
  8
_0-a_極細3
  6
CONTINUOUS
 62
    7
 10
295.48460293736071
 20
256.81596088570495
 40
0.5530864197530718
  0
CIRCLE
  8
_0-a_極細3
  6
CONTINUOUS
 62
    7
 10
306.0920103447678
 20
257.88262755237156
 40
0.5530864197530718
  0
CIRCLE
  8
_0-a_極細3
  6
CONTINUOUS
 62
    7
 10
318.71423256699018
 20
259.83818310792731
 40
0.5530864197530718
  0
CIRCLE
  8
_0-a_極細3
  6
CONTINUOUS
 62
    7
 10
377.73645478921162
 20
265.34929421903826
 40
0.5530864197530718
  0
CIRCLE
  8
_0-a_極細3
  6
CONTINUOUS
 62
    7
 10
352.84756590032288
 20
264.81596088570495
 40
0.5530864197530718
  0
CIRCLE
  8
_0-a_極細3
  6
CONTINUOUS
 62
    7
 10
325.65867701143446
 20
252.58262755237183
 40
0.5530864197530718
  0
CIRCLE
  8
_0-a_極細3
  6
CONTINUOUS
 62
    7
 10
346.10312145587835
 20
251.33818310792734
 40
0.5530864197530718
  0
CIRCLE
  8
_0-a_極細3
  6
CONTINUOUS
 62
    7
 10
371.16978812254496
 20
247.60484977459419
 40
0.5530864197530718
  0
CIRCLE
  8
_0-a_極細3
  6
CONTINUOUS
 62
    7
 10
358.54756590032275
 20
241.91596088570535
 40
0.5530864197530718
  0
CIRCLE
  8
_0-a_極細3
  6
CONTINUOUS
 62
    7
 10
343.79201034476773
 20
228.40484977459394
 40
0.5530864197530718
  0
CIRCLE
  8
_0-a_極細3
  6
CONTINUOUS
 62
    7
 10
371.16978812254496
 20
235.69373866348315
 40
0.5530864197530718
  0
CIRCLE
  8
_0-a_極細3
  6
CONTINUOUS
 62
    7
 10
330.0586770114341
 20
208.58262755237232
 40
0.5530864197530718
  0
CIRCLE
  8
_0-a_極細3
  6
CONTINUOUS
 62
    7
 10
324.36978812254523
 20
190.62707199681654
 40
0.5530864197530718
  0
CIRCLE
  8
_0-a_極細3
  6
CONTINUOUS
 62
    7
 10
333.08089923365651
 20
197.38262755237201
 40
0.5530864197530718
  0
CIRCLE
  8
_0-a_極細3
  6
CONTINUOUS
 62
    7
 10
339.30312145587862
 20
188.84929421903877
 40
0.5530864197530718
  0
CIRCLE
  8
_0-a_極細3
  6
CONTINUOUS
 62
    7
 10
378.60312145587835
 20
206.73818310792785
 40
0.5530864197530718
  0
CIRCLE
  8
_0-a_極細3
  6
CONTINUOUS
 62
    7
 10
367.40312145587859
 20
201.22707199681642
 40
0.5530864197530718
  0
CIRCLE
  8
_0-a_極細3
  6
CONTINUOUS
 62
    7
 10
373.62534367810071
 20
198.73818310792785
 40
0.5530864197530718
  0
CIRCLE
  8
_0-a_極細3
  6
CONTINUOUS
 62
    7
 10
370.06978812254511
 20
189.49373866348338
 40
0.5530864197530718
  0
CIRCLE
  8
_0-a_極細3
  6
CONTINUOUS
 62
    7
 10
389.98089923365615
 20
190.56040533014993
 40
0.5530864197530718
  0
CIRCLE
  8
_0-a_極細3
  6
CONTINUOUS
 62
    7
 10
402.95867701143379
 20
193.76040533015021
 40
0.5530864197530718
  0
CIRCLE
  8
_0-a_極細3
  6
CONTINUOUS
 62
    7
 10
416.6475659003226
 20
178.82707199681681
 40
0.5530864197530718
  0
CIRCLE
  8
_0-a_極細3
  6
CONTINUOUS
 62
    7
 10
409.71423256698927
 20
163.89373866348342
 40
0.5530864197530718
  0
CIRCLE
  8
_0-a_極細3
  6
CONTINUOUS
 62
    7
 10
393.0475659003227
 20
207.50855347829796
 40
0.5530864197530718
  0
CIRCLE
  8
_0-a_極細3
  6
CONTINUOUS
 62
    7
 10
407.80312145587823
 20
241.64188681163114
 40
0.5530864197530718
  0
CIRCLE
  8
_0-a_極細3
  6
CONTINUOUS
 62
    7
 10
422.91423256698909
 20
231.68633125607585
 40
0.5530864197530718
  0
CIRCLE
  8
_0-a_極細3
  6
CONTINUOUS
 62
    7
 10
423.44756590032233
 20
213.7307757005201
 40
0.5530864197530718
  0
CIRCLE
  8
_0-a_極細3
  6
CONTINUOUS
 62
    7
 10
388.20312145587826
 20
243.46410903385322
 40
0.5530864197530718
  0
CIRCLE
  8
_0-a_極細3
  6
CONTINUOUS
 62
    7
 10
367.91423256698948
 20
265.4480596511371
 40
1.825531472681392
  0
CIRCLE
  8
_0-a_極細3
  6
CONTINUOUS
 62
    7
 10
342.69201034476731
 20
242.64805965113737
 40
1.825531472681392
  0
CIRCLE
  8
_0-a_極細3
  6
CONTINUOUS
 62
    7
 10
323.09201034476746
 20
204.64805965113783
 40
1.825531472681392
  0
CIRCLE
  8
_0-a_極細3
  6
CONTINUOUS
 62
    7
 10
376.29201034476682
 20
191.8480596511381
 40
1.825531472681392
  0
CIRCLE
  8
_0-a_極細3
  6
CONTINUOUS
 62
    7
 10
412.26978812254447
 20
188.24805965113825
 40
1.825531472681392
  0
CIRCLE
  8
_0-a_極細3
  6
CONTINUOUS
 62
    7
 10
417.0697881225442
 20
169.58139298447165
 40
1.825531472681392
  0
LINE
  8
_0-a_極細3
  6
CONTINUOUS
 62
    7
 10
434.5973264368385
 20
258.23477269126715
 11
435.43065977017199
 21
258.23477269126715
  0
LINE
  8
_0-a_極細3
  6
CONTINUOUS
 62
    7
 10
435.43065977017199
 20
258.23477269126715
 11
435.43065977017199
 21
156.99317239648826
  0
CIRCLE
  8
_0-a_極細3
  6
CONTINUOUS
 62
    7
 10
428.5432256225431
 20
242.24805965113799
 40
1.825531472681392
  0
CIRCLE
  8
_0-a_極細3
  6
CONTINUOUS
 62
    7
 10
427.55126960402595
 20
187.53818310792809
 40
0.5530864197530718
  0
CIRCLE
  8
_0-a_極細3
  6
CONTINUOUS
 62
    7
 10
428.88460293735989
 20
164.882112074758
 40
0.5530864197530718
  0
CIRCLE
  8
_0-a_極細3
  6
CONTINUOUS
 62
    7
 10
416.51423256698484
 20
223.13694854002691
 40
1.825531472681392
  0
LINE
  8
_0-a_極細3
  6
CONTINUOUS
 62
    7
 10
341.79059154968672
 20
208.11647385377091
 11
336.66028939980146
 21
222.21186316555944
  0
LINE
  8
_0-a_極細3
  6
CONTINUOUS
 62
    7
 10
391.78463422348295
 20
242.27548386480547
 11
396.91493637336771
 21
228.1800945530172
  0
LINE
  8
_0-a_極細3
  6
CONTINUOUS
 62
    7
 10
336.66028939980146
 20
222.21186316555944
 11
391.78463422348295
 21
242.27548386480547
  0
LINE
  8
_0-a_極細3
  6
CONTINUOUS
 62
    7
 10
341.79059154968672
 20
208.11647385377091
 11
396.91493637336771
 21
228.1800945530172
  0
LINE
  8
_0-a_極細3
  6
CENTER1
 62
    7
 10
334.27000708275131
 20
213.36053846963523
 11
398.30102756531687
 21
236.66592395467069
  0
LINE
  8
_0-a_極細3
  6
CONTINUOUS
 62
    7
 10
360.43065977017199
 20
183.23477269126712
 11
360.43065977017199
 21
227.32033403958351
  0
LINE
  8
_0-a_極細3
  6
CONTINUOUS
 62
    7
 10
360.43065977017199
 20
227.32033403958351
 11
345.43065977017199
 21
227.32033403958351
  0
LINE
  8
_0-a_極細3
  6
CONTINUOUS
 62
    7
 10
345.43065977017199
 20
227.32033403958351
 11
345.43065977017199
 21
183.23477269126712
  0
CIRCLE
  8
_0-a_極細3
  6
CONTINUOUS
 62
    7
 10
374.81052886328592
 20
213.15670162644622
 40
1.825531472681392
  0
CIRCLE
  8
_0-a_極細3
  6
CONTINUOUS
 62
    7
 10
396.51917083859462
 20
219.37892384866839
 40
1.825531472681392
  0
LINE
  8
_0-a_極細3
  6
CENTER1
 62
    7
 10
352.93065977017199
 20
174.95803240681425
 11
352.93065977017199
 21
231.59605420419302
  0
LINE
  8
_0-d_寸法3
  6
CONTINUOUS
 62
    7
 10
375.43065977017199
 20
296.5681060246007
 11
329.4806286915823
 21
296.56810602460064
  0
LINE
  8
_0-d_寸法3
  6
CONTINUOUS
 62
    7
 10
334.4806286915823
 20
296.56810602460064
 11
337.06881914260742
 21
286.90884776170992
  0
LINE
  8
_0-d_寸法3
  6
CONTINUOUS
 62
    7
 10
334.4806286915823
 20
296.56810602460064
 11
331.892438240557
 21
286.90884776170998
  0
LINE
  8
_0-d_寸法3
  6
CONTINUOUS
 62
    7
 10
373.43065977017199
 20
258.23477269126721
 11
329.48062869158269
 21
258.23477269126715
  0
LINE
  8
_0-d_寸法3
  6
CONTINUOUS
 62
    7
 10
334.48062869158269
 20
258.23477269126715
 11
331.89243824055745
 21
267.89403095415781
  0
LINE
  8
_0-d_寸法3
  6
CONTINUOUS
 62
    7
 10
334.48062869158269
 20
258.23477269126715
 11
337.06881914260794
 21
267.89403095415787
  0
LINE
  8
_0-d_寸法3
  6
CONTINUOUS
 62
    7
 10
334.4806286915823
 20
296.56810602460064
 11
334.48062869158269
 21
258.23477269126715
  0
TEXT
  8
_0-d_寸法3
 62
    7
 10
334.48062869158269
 20
269.9014393579339
 40
15
 41
1
 50
90
  1
23
  0
LINE
  8
_0-d_寸法3
  6
CONTINUOUS
 62
    7
 10
375.43065977017199
 20
258.23477269126721
 11
329.48062869158269
 21
258.23477269126715
  0
LINE
  8
_0-d_寸法3
  6
CONTINUOUS
 62
    7
 10
334.48062869158269
 20
258.23477269126715
 11
337.06881914260794
 21
248.57551442837647
  0
LINE
  8
_0-d_寸法3
  6
CONTINUOUS
 62
    7
 10
334.48062869158269
 20
258.23477269126715
 11
331.89243824055745
 21
248.57551442837649
  0
LINE
  8
_0-d_寸法3
  6
CONTINUOUS
 62
    7
 10
373.43065977017199
 20
219.9014393579337
 11
329.48062869158269
 21
219.9014393579337
  0
LINE
  8
_0-d_寸法3
  6
CONTINUOUS
 62
    7
 10
334.48062869158269
 20
219.9014393579337
 11
331.89243824055745
 21
229.56069762082436
  0
LINE
  8
_0-d_寸法3
  6
CONTINUOUS
 62
    7
 10
334.48062869158269
 20
219.9014393579337
 11
337.06881914260794
 21
229.56069762082436
  0
LINE
  8
_0-d_寸法3
  6
CONTINUOUS
 62
    7
 10
334.48062869158269
 20
258.23477269126715
 11
334.48062869158269
 21
219.9014393579337
  0
TEXT
  8
_0-d_寸法3
 62
    7
 10
334.48062869158269
 20
231.56810602460067
 40
15
 41
1
 50
90
  1
23
  0
LINE
  8
_0-d_寸法3
  6
CONTINUOUS
 62
    7
 10
385.43065977017181
 20
209.90143935793412
 11
385.43065977017142
 21
192.75674745702872
  0
LINE
  8
_0-d_寸法3
  6
CONTINUOUS
 62
    7
 10
385.43065977017159
 20
197.75674745702872
 11
395.08991803306225
 21
200.34493790805399
  0
LINE
  8
_0-d_寸法3
  6
CONTINUOUS
 62
    7
 10
385.43065977017159
 20
197.75674745702872
 11
395.08991803306225
 21
195.16855700600354
  0
LINE
  8
_0-d_寸法3
  6
CONTINUOUS
 62
    7
 10
435.43065977017187
 20
248.23477269126715
 11
435.43065977017108
 21
192.75674745702872
  0
LINE
  8
_0-d_寸法3
  6
CONTINUOUS
 62
    7
 10
435.43065977017108
 20
197.75674745702872
 11
425.77140150728042
 21
195.1685570060036
  0
LINE
  8
_0-d_寸法3
  6
CONTINUOUS
 62
    7
 10
435.43065977017108
 20
197.75674745702872
 11
425.77140150728042
 21
200.34493790805399
  0
LINE
  8
_0-d_寸法3
  6
CONTINUOUS
 62
    7
 10
385.43065977017159
 20
197.75674745702872
 11
435.43065977017108
 21
197.75674745702872
  0
TEXT
  8
_0-d_寸法3
 62
    7
 10
402.93065977017159
 20
197.75674745702872
 40
15
 41
1
 50
0
  1
30
  0
ARC
  8
_0-b_細線3
  6
CONTINUOUS
 62
    7
 10
390.43065977017199
 20
263.23477269126715
 40
5
 50
179.99999999999983
 51
269.99999999999977
  0
LINE
  8
_0-b_細線3
  6
CONTINUOUS
 62
    7
 10
385.43065977017199
 20
263.23477269126715
 11
385.43065977017199
 21
295.73477269126715
  0
LINE
  8
_0-b_細線3
  6
CONTINUOUS
 62
    7
 10
390.43065977017199
 20
258.23477269126715
 11
434.5973264368385
 21
258.23477269126715
  0
LINE
  8
_0-b_細線3
  6
CONTINUOUS
 62
    7
 10
435.43065977017199
 20
259.06810602460064
 11
434.5973264368385
 21
258.23477269126715
  0
LINE
  8
_0-b_細線3
  6
CONTINUOUS
 62
    7
 10
435.43065977017199
 20
262.40143935793412
 11
435.43065977017199
 21
259.06810602460064
  0
LINE
  8
_0-b_細線3
  6
CONTINUOUS
 62
    7
 10
434.5973264368385
 20
263.23477269126715
 11
435.43065977017199
 21
262.40143935793412
  0
LINE
  8
_0-b_細線3
  6
CONTINUOUS
 62
    7
 10
390.43065977017199
 20
263.23477269126715
 11
434.5973264368385
 21
263.23477269126715
  0
LINE
  8
_0-b_細線3
  6
CONTINUOUS
 62
    7
 10
386.26399310350507
 20
296.56810602460064
 11
385.43065977017199
 21
295.73477269126715
  0
LINE
  8
_0-b_細線3
  6
CONTINUOUS
 62
    7
 10
389.5973264368385
 20
296.56810602460064
 11
386.26399310350507
 21
296.56810602460064
  0
LINE
  8
_0-b_細線3
  6
CONTINUOUS
 62
    7
 10
390.43065977017199
 20
295.73477269126715
 11
389.5973264368385
 21
296.56810602460064
  0
LINE
  8
_0-b_細線3
  6
CONTINUOUS
 62
    7
 10
390.43065977017199
 20
263.23477269126715
 11
390.43065977017199
 21
295.73477269126715
  0
LINE
  8
_0-a_極細3
  6
CONTINUOUS
 62
    7
 10
622.09732643683765
 20
251.56810602460067
 11
622.09732643683765
 21
183.23477269126712
  0
LINE
  8
_0-a_極細3
  6
CONTINUOUS
 62
    7
 10
538.76399310350462
 20
183.23477269126712
 11
622.09732643683765
 21
183.23477269126712
  0
LINE
  8
_0-a_極細3
  6
CONTINUOUS
 62
    7
 10
622.09732643683765
 20
251.56810602460067
 11
652.94174024861968
 21
251.56810602460067
  0
LINE
  8
_0-a_極細3
  6
CONTINUOUS
 62
    7
 10
538.76399310350462
 20
183.23477269126712
 11
538.76399310350462
 21
156.99317239648826
  0
LINE
  8
_0-a_極細3
  6
CONTINUOUS
 62
    7
 10
630.38732885143145
 20
156.99317239648826
 11
652.94174029015994
 21
179.54758383521721
  0
LINE
  8
_0-a_極細3
  6
CONTINUOUS
 62
    7
 10
559.67665073277658
 20
156.99317239648826
 11
585.91825102755502
 21
183.23477269126712
  0
LINE
  8
_0-a_極細3
  6
CONTINUOUS
 62
    7
 10
622.09732643683765
 20
219.41384810054981
 11
652.94174024937456
 21
250.2582619130867
  0
LINE
  8
_0-a_極細3
  6
CONTINUOUS
 62
    7
 10
623.31626103956569
 20
156.99317239648826
 11
652.94174028608177
 21
186.61865164300437
  0
LINE
  8
_0-a_極細3
  6
CONTINUOUS
 62
    7
 10
552.60558292091082
 20
156.99317239648826
 11
578.84718321569017
 21
183.23477269126712
  0
LINE
  8
_0-a_極細3
  6
CONTINUOUS
 62
    7
 10
622.09732643683765
 20
226.48491591241535
 11
647.18051636947268
 21
251.56810584505001
  0
LINE
  8
_0-a_極細3
  6
CONTINUOUS
 62
    7
 10
616.24519322769993
 20
156.99317239648826
 11
652.94174028200268
 21
193.68971945079102
  0
LINE
  8
_0-a_極細3
  6
CONTINUOUS
 62
    7
 10
545.53451510904506
 20
156.99317239648826
 11
571.77611540382441
 21
183.23477269126712
  0
LINE
  8
_0-a_極細3
  6
CONTINUOUS
 62
    7
 10
622.09732643683765
 20
233.55598372428088
 11
640.10944860822394
 21
251.56810589566615
  0
CIRCLE
  8
_0-a_極細3
  6
CONTINUOUS
 62
    7
 10
525.16978812254183
 20
242.08910903385322
 40
0.5530864197530718
  0
CIRCLE
  8
_0-a_極細3
  6
CONTINUOUS
 62
    7
 10
535.12534367809712
 20
246.8891090338534
 40
0.5530864197530718
  0
CIRCLE
  8
_0-a_極細3
  6
CONTINUOUS
 62
    7
 10
531.03645478920862
 20
221.91133125607578
 40
0.5530864197530718
  0
CIRCLE
  8
_0-a_極細3
  6
CONTINUOUS
 62
    7
 10
548.56978812254238
 20
204.88910903385388
 40
0.5530864197530718
  0
CIRCLE
  8
_0-a_極細3
  6
CONTINUOUS
 62
    7
 10
530.73645478920844
 20
181.58910903385419
 40
0.5530864197530718
  0
CIRCLE
  8
_0-a_極細3
  6
CONTINUOUS
 62
    7
 10
521.40312145587541
 20
163.72244236718734
 40
0.5530864197530718
  0
CIRCLE
  8
_0-a_極細3
  6
CONTINUOUS
 62
    7
 10
532.86978812254165
 20
193.58910903385365
 40
0.5530864197530718
  0
CIRCLE
  8
_0-a_極細3
  6
CONTINUOUS
 62
    7
 10
546.73645478920844
 20
188.78910903385395
 40
0.5530864197530718
  0
CIRCLE
  8
_0-a_極細3
  6
CONTINUOUS
 62
    7
 10
573.66978812254183
 20
189.05577570052037
 40
0.5530864197530718
  0
CIRCLE
  8
_0-a_極細3
  6
CONTINUOUS
 62
    7
 10
561.66978812254183
 20
198.12244236718698
 40
0.5530864197530718
  0
CIRCLE
  8
_0-a_極細3
  6
CONTINUOUS
 62
    7
 10
572.86978812254165
 20
203.72244236718686
 40
0.5530864197530718
  0
CIRCLE
  8
_0-a_極細3
  6
CONTINUOUS
 62
    7
 10
560.89201034476355
 20
258.01133125607521
 40
0.5530864197530718
  0
CIRCLE
  8
_0-a_極細3
  6
CONTINUOUS
 62
    7
 10
581.42534367809731
 20
257.30022014496444
 40
0.5530864197530718
  0
CIRCLE
  8
_0-a_極細3
  6
CONTINUOUS
 62
    7
 10
569.82534367809694
 20
243.30022014496447
 40
0.5530864197530718
  0
CIRCLE
  8
_0-a_極細3
  6
CONTINUOUS
 62
    7
 10
609.02534367809676
 20
190.10022014496514
 40
0.5530864197530718
  0
CIRCLE
  8
_0-a_極細3
  6
CONTINUOUS
 62
    7
 10
616.22534367809658
 20
204.10022014496505
 40
0.5530864197530718
  0
CIRCLE
  8
_0-a_極細3
  6
CONTINUOUS
 62
    7
 10
614.62534367809621
 20
224.90022014496481
 40
0.5530864197530718
  0
CIRCLE
  8
_0-a_極細3
  6
CONTINUOUS
 62
    7
 10
596.62534367809712
 20
246.10022014496465
 40
0.5530864197530718
  0
CIRCLE
  8
_0-a_極細3
  6
CONTINUOUS
 62
    7
 10
613.4253436780964
 20
265.70022014496408
 40
0.5530864197530718
  0
CIRCLE
  8
_0-a_極細3
  6
CONTINUOUS
 62
    7
 10
610.62534367809621
 20
238.90022014496438
 40
0.5530864197530718
  0
CIRCLE
  8
_0-a_極細3
  6
CONTINUOUS
 62
    7
 10
640.22534367809658
 20
260.10022014496417
 40
0.5530864197530718
  0
CIRCLE
  8
_0-a_極細3
  6
CONTINUOUS
 62
    7
 10
619.78089923365224
 20
258.40361520669285
 40
1.825531472681392
  0
CIRCLE
  8
_0-a_極細3
  6
CONTINUOUS
 62
    7
 10
564.3586770114307
 20
264.9813929844704
 40
1.825531472681392
  0
CIRCLE
  8
_0-a_極細3
  6
CONTINUOUS
 62
    7
 10
596.35867701142979
 20
232.98139298447066
 40
1.825531472681392
  0
CIRCLE
  8
_0-a_極細3
  6
CONTINUOUS
 62
    7
 10
525.96423256698654
 20
188.43139298447113
 40
1.825531472681392
  0
CIRCLE
  8
_0-a_極細3
  6
CONTINUOUS
 62
    7
 10
536.18645478920826
 20
218.29805965113792
 40
1.825531472681392
  0
CIRCLE
  8
_0-a_極細3
  6
CONTINUOUS
 62
    7
 10
571.38645478920807
 20
195.89805965113783
 40
1.825531472681392
  0
CIRCLE
  8
_0-a_極細3
  6
CONTINUOUS
 62
    7
 10
617.65164742449178
 20
185.71100725916864
 40
1.825531472681392
  0
CIRCLE
  8
_0-a_極細3
  6
CONTINUOUS
 62
    7
 10
566.98645478920844
 20
239.09805965113745
 40
1.825531472681392
  0
CIRCLE
  8
_0-a_極細3
  6
CONTINUOUS
 62
    7
 10
519.5204054064925
 20
233.67485424410097
 40
0.5530864197530718
  0
CIRCLE
  8
_0-a_極細3
  6
CONTINUOUS
 62
    7
 10
519.72040540649323
 20
209.71929868854571
 40
0.5530864197530718
  0
LINE
  8
_0-a_極細3
  6
CONTINUOUS
 62
    7
 10
506.26399310350365
 20
258.23477269126715
 11
505.43065977017068
 21
258.23477269126715
  0
LINE
  8
_0-a_極細3
  6
CONTINUOUS
 62
    7
 10
505.43065977017068
 20
258.23477269126715
 11
505.43065977017068
 21
156.99317239648826
  0
CIRCLE
  8
_0-a_極細3
  6
CONTINUOUS
 62
    7
 10
511.41505561225404
 20
218.17799792274263
 40
0.5530864197530718
  0
CIRCLE
  8
_0-a_極細3
  6
CONTINUOUS
 62
    7
 10
512.72163997439384
 20
178.92244236718716
 40
0.5530864197530718
  0
CIRCLE
  8
_0-a_極細3
  6
CONTINUOUS
 62
    7
 10
512.08275108550424
 20
244.87583742891593
 40
1.825531472681392
  0
CIRCLE
  8
_0-a_極細3
  6
CONTINUOUS
 62
    7
 10
515.03089923365224
 20
172.25361520669324
 40
1.825531472681392
  0
LINE
  8
_0-a_極細3
  6
CONTINUOUS
 62
    7
 10
599.07072799065645
 20
208.11647385377091
 11
604.20103014054166
 21
222.21186316555944
  0
LINE
  8
_0-a_極細3
  6
CONTINUOUS
 62
    7
 10
549.07668531686068
 20
242.27548386480547
 11
543.94638316697547
 21
228.1800945530172
  0
LINE
  8
_0-a_極細3
  6
CONTINUOUS
 62
    7
 10
604.20103014054166
 20
222.21186316555944
 11
549.07668531686068
 21
242.27548386480547
  0
LINE
  8
_0-a_極細3
  6
CONTINUOUS
 62
    7
 10
599.07072799065645
 20
208.11647385377091
 11
543.94638316697547
 21
228.1800945530172
  0
LINE
  8
_0-a_極細3
  6
CENTER1
 62
    7
 10
606.59131245759181
 20
213.36053846963523
 11
542.5602919750263
 21
236.66592395467069
  0
LINE
  8
_0-a_極細3
  6
CONTINUOUS
 62
    7
 10
580.43065977017159
 20
183.23477269126712
 11
580.43065977017159
 21
227.32033403958351
  0
LINE
  8
_0-a_極細3
  6
CONTINUOUS
 62
    7
 10
580.43065977017159
 20
227.32033403958351
 11
595.43065977017159
 21
227.32033403958351
  0
LINE
  8
_0-a_極細3
  6
CONTINUOUS
 62
    7
 10
595.43065977017159
 20
227.32033403958351
 11
595.43065977017159
 21
183.23477269126712
  0
LINE
  8
_0-a_極細3
  6
CENTER1
 62
    7
 10
587.93065977017159
 20
174.95803240681425
 11
587.93065977017159
 21
231.59605420419302
  0
CIRCLE
  8
_0-a_極細3
  6
CONTINUOUS
 62
    7
 10
582.04756590031957
 20
240.3965164412607
 40
0.5530864197530718
  0
CIRCLE
  8
_0-a_極細3
  6
CONTINUOUS
 62
    7
 10
604.26375245724648
 20
227.05330656471779
 40
0.5530864197530718
  0
LINE
  8
_0-d_寸法3
  6
CONTINUOUS
 62
    7
 10
555.43065977017159
 20
209.90143935793412
 11
555.43065977017159
 21
192.75674745702872
  0
LINE
  8
_0-d_寸法3
  6
CONTINUOUS
 62
    7
 10
555.43065977017159
 20
197.75674745702872
 11
545.77140150728087
 21
195.16855700600354
  0
LINE
  8
_0-d_寸法3
  6
CONTINUOUS
 62
    7
 10
555.43065977017159
 20
197.75674745702872
 11
545.77140150728087
 21
200.34493790805399
  0
LINE
  8
_0-d_寸法3
  6
CONTINUOUS
 62
    7
 10
505.43065977017159
 20
248.23477269126715
 11
505.43065977017159
 21
192.75674745702872
  0
LINE
  8
_0-d_寸法3
  6
CONTINUOUS
 62
    7
 10
505.43065977017159
 20
197.75674745702872
 11
515.08991803306219
 21
200.34493790805399
  0
LINE
  8
_0-d_寸法3
  6
CONTINUOUS
 62
    7
 10
505.43065977017159
 20
197.75674745702872
 11
515.08991803306219
 21
195.1685570060036
  0
LINE
  8
_0-d_寸法3
  6
CONTINUOUS
 62
    7
 10
555.43065977017159
 20
197.75674745702872
 11
505.43065977017159
 21
197.75674745702872
  0
TEXT
  8
_0-d_寸法3
 62
    7
 10
522.93065977017159
 20
197.75674745702872
 40
15
 41
1
 50
0
  1
30
  0
ARC
  8
_0-b_細線3
  6
CONTINUOUS
 62
    7
 10
550.43065977017159
 20
263.23477269126715
 40
5
 50
269.99999999999977
 51
359.99999999999966
  0
LINE
  8
_0-b_細線3
  6
CONTINUOUS
 62
    7
 10
555.43065977017159
 20
263.23477269126715
 11
555.43065977017159
 21
295.73477269126715
  0
LINE
  8
_0-b_細線3
  6
CONTINUOUS
 62
    7
 10
550.43065977017159
 20
258.23477269126715
 11
506.26399310350365
 21
258.23477269126715
  0
LINE
  8
_0-b_細線3
  6
CONTINUOUS
 62
    7
 10
505.43065977017068
 20
259.06810602460064
 11
506.26399310350365
 21
258.23477269126715
  0
LINE
  8
_0-b_細線3
  6
CONTINUOUS
 62
    7
 10
505.43065977017068
 20
262.40143935793412
 11
505.43065977017068
 21
259.06810602460064
  0
LINE
  8
_0-b_細線3
  6
CONTINUOUS
 62
    7
 10
506.26399310350365
 20
263.23477269126715
 11
505.43065977017068
 21
262.40143935793412
  0
LINE
  8
_0-b_細線3
  6
CONTINUOUS
 62
    7
 10
550.43065977017159
 20
263.23477269126715
 11
506.26399310350365
 21
263.23477269126715
  0
LINE
  8
_0-b_細線3
  6
CONTINUOUS
 62
    7
 10
554.59732643683856
 20
296.56810602460064
 11
555.43065977017159
 21
295.73477269126715
  0
LINE
  8
_0-b_細線3
  6
CONTINUOUS
 62
    7
 10
551.26399310350462
 20
296.56810602460064
 11
554.59732643683856
 21
296.56810602460064
  0
LINE
  8
_0-b_細線3
  6
CONTINUOUS
 62
    7
 10
550.43065977017159
 20
295.73477269126715
 11
551.26399310350462
 21
296.56810602460064
  0
LINE
  8
_0-b_細線3
  6
CONTINUOUS
 62
    7
 10
550.43065977017159
 20
263.23477269126715
 11
550.43065977017159
 21
295.73477269126715
  0
LINE
  8
_0-d_寸法3
  6
CONTINUOUS
 62
    7
 10
435.43065977017199
 20
253.23477269126715
 11
435.43065977017199
 21
192.75674745702872
  0
LINE
  8
_0-d_寸法3
  6
CONTINUOUS
 62
    7
 10
435.43065977017199
 20
197.75674745702872
 11
445.08991803306265
 21
200.34493790805399
  0
LINE
  8
_0-d_寸法3
  6
CONTINUOUS
 62
    7
 10
435.43065977017199
 20
197.75674745702872
 11
445.08991803306265
 21
195.16855700600354
  0
LINE
  8
_0-d_寸法3
  6
CONTINUOUS
 62
    7
 10
505.43065977017068
 20
253.23477269126715
 11
505.43065977017068
 21
192.75674745702872
  0
LINE
  8
_0-d_寸法3
  6
CONTINUOUS
 62
    7
 10
505.43065977017068
 20
197.75674745702872
 11
495.7714015072799
 21
195.1685570060036
  0
LINE
  8
_0-d_寸法3
  6
CONTINUOUS
 62
    7
 10
505.43065977017068
 20
197.75674745702872
 11
495.77140150727996
 21
200.34493790805399
  0
LINE
  8
_0-d_寸法3
  6
CONTINUOUS
 62
    7
 10
435.43065977017199
 20
197.75674745702872
 11
505.43065977017068
 21
197.75674745702872
  0
TEXT
  8
_0-d_寸法3
 62
    7
 10
462.93065977017159
 20
197.75674745702872
 40
15
 41
1
 50
0
  1
42
  0
LINE
  8
_0-a_極細3
  6
CENTER1
 62
    7
 10
558.09741483799371
 20
279.9014393579339
 11
383.77666732563142
 21
279.9014393579339
  0
LINE
  8
_0-a_極細3
  6
CENTER1
 62
    7
 10
470.43065977017199
 20
243.71560987248404
 11
470.43065977017199
 21
307.16560987249022
  0
ARC
  8
_0-b_細線3
  6
CONTINUOUS
 62
    7
 10
458.76399310350507
 20
317.70421713571159
 40
46.136111111111113
 50
256.63227178393214
 51
283.36772821606758
  0
ARC
  8
_0-b_細線3
  6
CONTINUOUS
 62
    7
 10
458.76399310350507
 20
242.09866158015643
 40
46.136111111111113
 50
76.632271783931969
 51
103.36772821606749
  0
LINE
  8
_0-b_細線3
  6
CONTINUOUS
 62
    7
 10
453.76399310350507
 20
294.56810602460064
 11
453.76399310350507
 21
296.56810602460064
  0
LINE
  8
_0-b_細線3
  6
CONTINUOUS
 62
    7
 10
448.0973264368385
 20
294.56810602460064
 11
453.76399310350507
 21
294.56810602460064
  0
LINE
  8
_0-b_細線3
  6
CONTINUOUS
 62
    7
 10
448.0973264368385
 20
263.23477269126738
 11
448.0973264368385
 21
294.56810602460064
  0
LINE
  8
_0-b_細線3
  6
CONTINUOUS
 62
    7
 10
446.09732643683856
 20
263.23477269126738
 11
448.0973264368385
 21
263.23477269126738
  0
LINE
  8
_0-b_細線3
  6
CONTINUOUS
 62
    7
 10
446.09732643683856
 20
294.56810602460064
 11
446.09732643683856
 21
263.23477269126738
  0
LINE
  8
_0-b_細線3
  6
CONTINUOUS
 62
    7
 10
440.43065977017199
 20
294.56810602460064
 11
446.09732643683856
 21
294.56810602460064
  0
LINE
  8
_0-b_細線3
  6
CONTINUOUS
 62
    7
 10
440.43065977017199
 20
296.56810602460064
 11
440.43065977017199
 21
294.56810602460064
  0
LINE
  8
_0-b_細線3
  6
CONTINUOUS
 62
    7
 10
453.76399310350507
 20
296.56810602460064
 11
440.43065977017199
 21
296.56810602460064
  0
ARC
  8
_0-b_細線3
  6
CONTINUOUS
 62
    7
 10
482.0973264368385
 20
317.70421713571159
 40
46.136111111111113
 50
256.63227178393214
 51
283.36772821606706
  0
ARC
  8
_0-b_細線3
  6
CONTINUOUS
 62
    7
 10
482.0973264368385
 20
242.09866158015643
 40
46.136111111111113
 50
76.632271783932524
 51
103.36772821606749
  0
LINE
  8
_0-b_細線3
  6
CONTINUOUS
 62
    7
 10
477.0973264368385
 20
294.56810602460064
 11
477.0973264368385
 21
296.56810602460064
  0
LINE
  8
_0-b_細線3
  6
CONTINUOUS
 62
    7
 10
471.43065977017204
 20
294.56810602460064
 11
477.0973264368385
 21
294.56810602460064
  0
LINE
  8
_0-b_細線3
  6
CONTINUOUS
 62
    7
 10
471.43065977017204
 20
263.23477269126738
 11
471.43065977017204
 21
294.56810602460064
  0
LINE
  8
_0-b_細線3
  6
CONTINUOUS
 62
    7
 10
469.43065977017199
 20
263.23477269126738
 11
471.43065977017204
 21
263.23477269126738
  0
LINE
  8
_0-b_細線3
  6
CONTINUOUS
 62
    7
 10
469.43065977017199
 20
294.56810602460064
 11
469.43065977017199
 21
263.23477269126738
  0
LINE
  8
_0-b_細線3
  6
CONTINUOUS
 62
    7
 10
463.76399310350507
 20
294.56810602460064
 11
469.43065977017199
 21
294.56810602460064
  0
LINE
  8
_0-b_細線3
  6
CONTINUOUS
 62
    7
 10
463.76399310350507
 20
296.56810602460064
 11
463.76399310350507
 21
294.56810602460064
  0
LINE
  8
_0-b_細線3
  6
CONTINUOUS
 62
    7
 10
477.0973264368385
 20
296.56810602460064
 11
463.76399310350507
 21
296.56810602460064
  0
LINE
  8
_0-b_細線3
  6
CONTINUOUS
 62
    7
 10
500.43065977017199
 20
294.56810602460064
 11
500.43065977017199
 21
296.56810602460064
  0
LINE
  8
_0-b_細線3
  6
CONTINUOUS
 62
    7
 10
494.76399310350502
 20
294.56810602460064
 11
500.43065977017199
 21
294.56810602460064
  0
LINE
  8
_0-b_細線3
  6
CONTINUOUS
 62
    7
 10
494.76399310350502
 20
263.23477269126738
 11
494.76399310350502
 21
294.56810602460064
  0
LINE
  8
_0-b_細線3
  6
CONTINUOUS
 62
    7
 10
492.76399310350507
 20
263.23477269126738
 11
494.76399310350502
 21
263.23477269126738
  0
LINE
  8
_0-b_細線3
  6
CONTINUOUS
 62
    7
 10
492.76399310350507
 20
294.56810602460064
 11
492.76399310350507
 21
263.23477269126738
  0
LINE
  8
_0-b_細線3
  6
CONTINUOUS
 62
    7
 10
487.0973264368385
 20
294.56810602460064
 11
492.76399310350507
 21
294.56810602460064
  0
LINE
  8
_0-b_細線3
  6
CONTINUOUS
 62
    7
 10
487.0973264368385
 20
296.56810602460064
 11
487.0973264368385
 21
294.56810602460064
  0
LINE
  8
_0-b_細線3
  6
CONTINUOUS
 62
    7
 10
500.43065977017199
 20
296.56810602460064
 11
487.0973264368385
 21
296.56810602460064
  0
ARC
  8
_0-b_細線3
  6
CONTINUOUS
 62
    7
 10
505.43065977017159
 20
317.70421713571159
 40
46.136111111111113
 50
256.63227178393214
 51
283.36772821606712
  0
ARC
  8
_0-b_細線3
  6
CONTINUOUS
 62
    7
 10
505.43065977017159
 20
242.09866158015643
 40
46.136111111111113
 50
76.632271783932453
 51
103.36772821606749
  0
LINE
  8
_0-b_細線3
  6
CONTINUOUS
 62
    7
 10
523.76399310350507
 20
294.56810602460064
 11
523.76399310350507
 21
296.56810602460064
  0
LINE
  8
_0-b_細線3
  6
CONTINUOUS
 62
    7
 10
518.0973264368381
 20
294.56810602460064
 11
523.76399310350507
 21
294.56810602460064
  0
LINE
  8
_0-b_細線3
  6
CONTINUOUS
 62
    7
 10
518.0973264368381
 20
263.23477269126738
 11
518.0973264368381
 21
294.56810602460064
  0
LINE
  8
_0-b_細線3
  6
CONTINUOUS
 62
    7
 10
516.0973264368381
 20
263.23477269126738
 11
518.0973264368381
 21
263.23477269126738
  0
LINE
  8
_0-b_細線3
  6
CONTINUOUS
 62
    7
 10
516.0973264368381
 20
294.56810602460064
 11
516.0973264368381
 21
263.23477269126738
  0
LINE
  8
_0-b_細線3
  6
CONTINUOUS
 62
    7
 10
510.43065977017159
 20
294.56810602460064
 11
516.0973264368381
 21
294.56810602460064
  0
LINE
  8
_0-b_細線3
  6
CONTINUOUS
 62
    7
 10
510.43065977017159
 20
296.56810602460064
 11
510.43065977017159
 21
294.56810602460064
  0
LINE
  8
_0-b_細線3
  6
CONTINUOUS
 62
    7
 10
523.76399310350507
 20
296.56810602460064
 11
510.43065977017159
 21
296.56810602460064
  0
ARC
  8
_0-b_細線3
  6
CONTINUOUS
 62
    7
 10
528.76399310350462
 20
317.70421713571159
 40
46.136111111111113
 50
256.63227178393214
 51
283.36772821606706
  0
ARC
  8
_0-b_細線3
  6
CONTINUOUS
 62
    7
 10
528.76399310350462
 20
242.09866158015643
 40
46.136111111111113
 50
76.632271783932524
 51
103.36772821606749
  0
LINE
  8
_0-b_細線3
  6
CONTINUOUS
 62
    7
 10
547.0973264368381
 20
294.56810602460064
 11
547.0973264368381
 21
296.56810602460064
  0
LINE
  8
_0-b_細線3
  6
CONTINUOUS
 62
    7
 10
541.43065977017113
 20
294.56810602460064
 11
547.0973264368381
 21
294.56810602460064
  0
LINE
  8
_0-b_細線3
  6
CONTINUOUS
 62
    7
 10
541.43065977017113
 20
263.23477269126738
 11
541.43065977017113
 21
294.56810602460064
  0
LINE
  8
_0-b_細線3
  6
CONTINUOUS
 62
    7
 10
539.43065977017113
 20
263.23477269126738
 11
541.43065977017113
 21
263.23477269126738
  0
LINE
  8
_0-b_細線3
  6
CONTINUOUS
 62
    7
 10
539.43065977017113
 20
294.56810602460064
 11
539.43065977017113
 21
263.23477269126738
  0
LINE
  8
_0-b_細線3
  6
CONTINUOUS
 62
    7
 10
533.76399310350462
 20
294.56810602460064
 11
539.43065977017113
 21
294.56810602460064
  0
LINE
  8
_0-b_細線3
  6
CONTINUOUS
 62
    7
 10
533.76399310350462
 20
296.56810602460064
 11
533.76399310350462
 21
294.56810602460064
  0
LINE
  8
_0-b_細線3
  6
CONTINUOUS
 62
    7
 10
547.0973264368381
 20
296.56810602460064
 11
533.76399310350462
 21
296.56810602460064
  0
ARC
  8
_0-b_細線3
  6
CONTINUOUS
 62
    7
 10
435.43065977017159
 20
317.70421713571159
 40
46.136111111111113
 50
256.63227178393214
 51
283.36772821606758
  0
ARC
  8
_0-b_細線3
  6
CONTINUOUS
 62
    7
 10
435.43065977017159
 20
242.09866158015643
 40
46.136111111111113
 50
76.632271783931969
 51
103.36772821606749
  0
LINE
  8
_0-b_細線3
  6
CONTINUOUS
 62
    7
 10
430.43065977017159
 20
294.56810602460064
 11
430.43065977017159
 21
296.56810602460064
  0
LINE
  8
_0-b_細線3
  6
CONTINUOUS
 62
    7
 10
424.76399310350502
 20
294.56810602460064
 11
430.43065977017159
 21
294.56810602460064
  0
LINE
  8
_0-b_細線3
  6
CONTINUOUS
 62
    7
 10
424.76399310350502
 20
263.23477269126738
 11
424.76399310350502
 21
294.56810602460064
  0
LINE
  8
_0-b_細線3
  6
CONTINUOUS
 62
    7
 10
422.76399310350507
 20
263.23477269126738
 11
424.76399310350502
 21
263.23477269126738
  0
LINE
  8
_0-b_細線3
  6
CONTINUOUS
 62
    7
 10
422.76399310350507
 20
294.56810602460064
 11
422.76399310350507
 21
263.23477269126738
  0
LINE
  8
_0-b_細線3
  6
CONTINUOUS
 62
    7
 10
417.0973264368385
 20
294.56810602460064
 11
422.76399310350507
 21
294.56810602460064
  0
LINE
  8
_0-b_細線3
  6
CONTINUOUS
 62
    7
 10
417.0973264368385
 20
296.56810602460064
 11
417.0973264368385
 21
294.56810602460064
  0
LINE
  8
_0-b_細線3
  6
CONTINUOUS
 62
    7
 10
430.43065977017159
 20
296.56810602460064
 11
417.0973264368385
 21
296.56810602460064
  0
ARC
  8
_0-b_細線3
  6
CONTINUOUS
 62
    7
 10
412.0973264368385
 20
317.70421713571159
 40
46.136111111111113
 50
256.63227178393214
 51
283.36772821606706
  0
ARC
  8
_0-b_細線3
  6
CONTINUOUS
 62
    7
 10
412.0973264368385
 20
242.09866158015643
 40
46.136111111111113
 50
76.632271783932524
 51
103.36772821606749
  0
LINE
  8
_0-b_細線3
  6
CONTINUOUS
 62
    7
 10
407.0973264368381
 20
294.56810602460064
 11
407.0973264368381
 21
296.56810602460064
  0
LINE
  8
_0-b_細線3
  6
CONTINUOUS
 62
    7
 10
401.43065977017159
 20
294.56810602460064
 11
407.0973264368381
 21
294.56810602460064
  0
LINE
  8
_0-b_細線3
  6
CONTINUOUS
 62
    7
 10
401.43065977017159
 20
263.23477269126738
 11
401.43065977017159
 21
294.56810602460064
  0
LINE
  8
_0-b_細線3
  6
CONTINUOUS
 62
    7
 10
399.43065977017159
 20
263.23477269126738
 11
401.43065977017159
 21
263.23477269126738
  0
LINE
  8
_0-b_細線3
  6
CONTINUOUS
 62
    7
 10
399.43065977017159
 20
294.56810602460064
 11
399.43065977017159
 21
263.23477269126738
  0
LINE
  8
_0-b_細線3
  6
CONTINUOUS
 62
    7
 10
393.76399310350507
 20
294.56810602460064
 11
399.43065977017159
 21
294.56810602460064
  0
LINE
  8
_0-b_細線3
  6
CONTINUOUS
 62
    7
 10
393.76399310350507
 20
296.56810602460064
 11
393.76399310350507
 21
294.56810602460064
  0
LINE
  8
_0-b_細線3
  6
CONTINUOUS
 62
    7
 10
407.0973264368381
 20
296.56810602460064
 11
393.76399310350507
 21
296.56810602460064
  0
LINE
  8
_0-d_寸法3
  6
CONTINUOUS
 62
    7
 10
464.59732643686669
 20
268.56169339576826
 11
449.16649615199589
 21
295.28867545213689
  0
LINE
  8
_0-d_寸法3
  6
CONTINUOUS
 62
    7
 10
451.66649615199589
 20
290.95854843321467
 11
449.07830570097076
 21
300.61780669610533
  0
LINE
  8
_0-d_寸法3
  6
CONTINUOUS
 62
    7
 10
451.66649615199589
 20
290.95854843321467
 11
454.25468660302113
 21
300.61780669610533
  0
LINE
  8
_0-d_寸法3
  6
CONTINUOUS
 62
    7
 10
464.59732643686669
 20
301.89502672911175
 11
449.16649615199589
 21
328.62200878548038
  0
LINE
  8
_0-d_寸法3
  6
CONTINUOUS
 62
    7
 10
451.66649615199589
 20
324.29188176655822
 11
454.25468660302113
 21
314.6326235036675
  0
LINE
  8
_0-d_寸法3
  6
CONTINUOUS
 62
    7
 10
451.66649615199589
 20
324.29188176655822
 11
449.07830570097076
 21
314.6326235036675
  0
LINE
  8
_0-d_寸法3
  6
CONTINUOUS
 62
    7
 10
451.66649615199589
 20
290.95854843321467
 11
451.66649615199589
 21
324.29188176655822
  0
TEXT
  8
_0-d_寸法3
 62
    7
 10
451.66649615199589
 20
300.76456652741354
 40
15
 41
1
 50
90
  1
20
  0
LINE
  8
_0-7_枠細線
  6
CONTINUOUS
 62
    5
 10
1139.4018171150183
 20
373.42884000293418
 11
1139.4018171150183
 21
453.42884000293418
  0
LINE
  8
_0-7_枠細線
  6
CONTINUOUS
 62
    5
 10
1229.4018171150183
 20
373.42884000293418
 11
1229.4018171150183
 21
453.42884000293418
  0
TEXT
  8
_0-7_枠細線
 62
    5
 10
1251.9018171150183
 20
430.92884000293418
 40
15
 41
1
 50
0
  1
蓋重量
  0
LINE
  8
_0-7_枠細線
  6
CONTINUOUS
 62
    5
 10
1319.4018171150183
 20
373.42884000293418
 11
1319.4018171150183
 21
453.42884000293418
  0
TEXT
  8
_0-7_枠細線
 62
    5
 10
1341.9018171150183
 20
430.92884000293418
 40
15
 41
1
 50
0
  1
枠重量
  0
LINE
  8
_0-7_枠細線
  6
CONTINUOUS
 62
    5
 10
1139.4018171150183
 20
423.42884000293418
 11
1409.4018171150183
 21
423.42884000293418
  0
LINE
  8
_0-7_枠細線
  6
CONTINUOUS
 62
    5
 10
1139.4018171150183
 20
453.42884000293418
 11
1409.4018171150183
 21
453.42884000293418
  0
LINE
  8
_0-7_枠細線
  6
CONTINUOUS
 62
    5
 10
1139.4018171150183
 20
373.42884000293418
 11
1409.4018171150183
 21
373.42884000293418
  0
LINE
  8
_0-7_枠細線
  6
CONTINUOUS
 62
    5
 10
1409.4018171150183
 20
373.42884000293418
 11
1409.4018171150183
 21
453.42884000293418
  0
TEXT
  8
_0-7_枠細線
 62
    5
 10
1154.4018171150183
 20
430.92884000293418
 40
15
 41
1
 50
0
  1
適用荷重
  0
TEXT
  8
_0-7_枠細線
 62
    5
 10
1161.9018171150183
 20
400.92884000293418
 40
15
 41
1
 50
0
  1
歩道用
  0
TEXT
  8
_0-7_枠細線
 62
    5
 10
1139.4018171150183
 20
380.92884000293418
 40
15
 41
1
 50
0
  1
（5.0kN/㎡）
  0
TEXT
  8
_0-7_枠細線
 62
    5
 10
1250.4018171150187
 20
392.17884000293418
 40
15
 41
0.8000000000000001
 50
0
  1
1.0kg/枚
  0
TEXT
  8
_0-7_枠細線
 62
    5
 10
1334.4018171150183
 20
392.17884000293418
 40
15
 41
0.8000000000000001
 50
0
  1
2.4kg/ｍ組
  0
LINE
  8
_0-1_計細線
  6
CONTINUOUS
 62
    3
 10
978.43374972399431
 20
665.68176632391726
 11
978.43374972399431
 21
659.68176632391737
  0
LINE
  8
_0-1_計細線
  6
CONTINUOUS
 62
    3
 10
978.43374972399431
 20
652.68176632391726
 11
978.43374972399431
 21
646.68176632391737
  0
LINE
  8
_0-0_計極細
  6
CENTER2
 62
    2
 10
283.4660844798758
 20
656.18176632391726
 11
1168.2868252206167
 21
656.18176632391726
  0
LINE
  8
_0-1_計細線
  6
CONTINUOUS
 62
    3
 10
978.43374972399431
 20
689.18176632391737
 11
978.43374972399431
 21
683.18176632391726
  0
LINE
  8
_0-1_計細線
  6
CONTINUOUS
 62
    3
 10
978.43374972399431
 20
676.18176632391726
 11
978.43374972399431
 21
670.18176632391726
  0
LINE
  8
_0-1_計細線
  6
CONTINUOUS
 62
    3
 10
1164.933749723994
 20
707.18176632391737
 11
284.93374972399477
 21
707.18176632391737
  0
ARC
  8
_0-1_計細線
  6
CONTINUOUS
 62
    3
 10
1151.8712497240126
 20
699.68176632391919
 40
15.062499999984542
 50
330.13716564368326
 51
29.862834356304496
  0
ARC
  8
_0-1_計細線
  6
CONTINUOUS
 62
    3
 10
1177.9962497240126
 20
684.68176632391919
 40
15.062500000017272
 50
150.1371656437658
 51
209.86283435624543
  0
LINE
  8
_0-5_寸法線
  6
CONTINUOUS
 62
    7
 10
475.43374972399477
 20
717.18176632391589
 11
475.43374972399477
 21
797.18176632391737
  0
LINE
  8
_0-5_寸法線
  6
CONTINUOUS
 62
    7
 10
475.43374972399477
 20
792.18176632391737
 11
485.09300798688542
 21
794.76995677494244
  0
LINE
  8
_0-5_寸法線
  6
CONTINUOUS
 62
    7
 10
475.43374972399477
 20
792.18176632391737
 11
485.09300798688542
 21
789.59357587289219
  0
LINE
  8
_0-5_寸法線
  6
CONTINUOUS
 62
    7
 10
974.43374972399442
 20
717.18176632391589
 11
974.43374972399488
 21
797.18176632391737
  0
LINE
  8
_0-5_寸法線
  6
CONTINUOUS
 62
    7
 10
974.43374972399488
 20
792.18176632391737
 11
964.77449146110416
 21
789.59357587289219
  0
LINE
  8
_0-5_寸法線
  6
CONTINUOUS
 62
    7
 10
974.43374972399488
 20
792.18176632391737
 11
964.77449146110416
 21
794.76995677494244
  0
LINE
  8
_0-5_寸法線
  6
CONTINUOUS
 62
    7
 10
475.43374972399477
 20
792.18176632391737
 11
974.43374972399488
 21
792.18176632391737
  0
TEXT
  8
_0-5_寸法線
 62
    7
 10
713.68374972399477
 20
792.18176632391737
 40
15
 41
1
 50
0
  1
499
  0
LINE
  8
_0-5_寸法線
  6
CONTINUOUS
 62
    7
 10
475.43374972399431
 20
717.18176632391737
 11
475.43374972399431
 21
762.18176632391737
  0
LINE
  8
_0-5_寸法線
  6
CONTINUOUS
 62
    7
 10
475.43374972399431
 20
757.18176632391737
 11
485.09300798688503
 21
759.76995677494244
  0
LINE
  8
_0-5_寸法線
  6
CONTINUOUS
 62
    7
 10
475.43374972399431
 20
757.18176632391737
 11
485.09300798688503
 21
754.59357587289207
  0
LINE
  8
_0-5_寸法線
  6
CONTINUOUS
 62
    7
 10
574.93374972399442
 20
717.18176632391737
 11
574.93374972399477
 21
762.18176632391737
  0
LINE
  8
_0-5_寸法線
  6
CONTINUOUS
 62
    7
 10
574.93374972399477
 20
757.18176632391737
 11
565.27449146110405
 21
754.59357587289207
  0
LINE
  8
_0-5_寸法線
  6
CONTINUOUS
 62
    7
 10
574.93374972399477
 20
757.18176632391737
 11
565.27449146110405
 21
759.76995677494244
  0
LINE
  8
_0-5_寸法線
  6
CONTINUOUS
 62
    7
 10
475.43374972399431
 20
757.18176632391737
 11
574.93374972399477
 21
757.18176632391737
  0
TEXT
  8
_0-5_寸法線
 62
    7
 10
510.18374972399437
 20
757.18176632391737
 40
15
 41
1
 50
0
  1
99.5
  0
LINE
  8
_0-5_寸法線
  6
CONTINUOUS
 62
    7
 10
574.93374972399477
 20
757.18176632391737
 11
584.59300798688548
 21
759.76995677494244
  0
LINE
  8
_0-5_寸法線
  6
CONTINUOUS
 62
    7
 10
574.93374972399477
 20
757.18176632391737
 11
584.59300798688548
 21
754.59357587289207
  0
LINE
  8
_0-5_寸法線
  6
CONTINUOUS
 62
    7
 10
674.93374972399454
 20
717.18176632391737
 11
674.93374972399477
 21
762.18176632391737
  0
LINE
  8
_0-5_寸法線
  6
CONTINUOUS
 62
    7
 10
674.93374972399477
 20
757.18176632391737
 11
665.27449146110416
 21
754.59357587289207
  0
LINE
  8
_0-5_寸法線
  6
CONTINUOUS
 62
    7
 10
674.93374972399477
 20
757.18176632391737
 11
665.27449146110416
 21
759.76995677494244
  0
LINE
  8
_0-5_寸法線
  6
CONTINUOUS
 62
    7
 10
574.93374972399477
 20
757.18176632391737
 11
674.93374972399477
 21
757.18176632391737
  0
TEXT
  8
_0-5_寸法線
 62
    7
 10
613.68374972399477
 20
757.18176632391737
 40
15
 41
1
 50
0
  1
100
  0
LINE
  8
_0-5_寸法線
  6
CONTINUOUS
 62
    7
 10
674.93374972399477
 20
757.18176632391737
 11
684.59300798688548
 21
759.76995677494244
  0
LINE
  8
_0-5_寸法線
  6
CONTINUOUS
 62
    7
 10
674.93374972399477
 20
757.18176632391737
 11
684.59300798688548
 21
754.59357587289207
  0
LINE
  8
_0-5_寸法線
  6
CONTINUOUS
 62
    7
 10
774.93374972399442
 20
717.18176632391737
 11
774.93374972399442
 21
762.18176632391737
  0
LINE
  8
_0-5_寸法線
  6
CONTINUOUS
 62
    7
 10
774.93374972399442
 20
757.18176632391737
 11
765.27449146110359
 21
754.59357587289207
  0
LINE
  8
_0-5_寸法線
  6
CONTINUOUS
 62
    7
 10
774.93374972399442
 20
757.18176632391737
 11
765.27449146110359
 21
759.76995677494244
  0
LINE
  8
_0-5_寸法線
  6
CONTINUOUS
 62
    7
 10
674.93374972399477
 20
757.18176632391737
 11
774.93374972399442
 21
757.18176632391737
  0
TEXT
  8
_0-5_寸法線
 62
    7
 10
713.68374972399442
 20
757.18176632391737
 40
15
 41
1
 50
0
  1
100
  0
LINE
  8
_0-5_寸法線
  6
CONTINUOUS
 62
    7
 10
774.93374972399442
 20
757.18176632391737
 11
784.59300798688503
 21
759.76995677494244
  0
LINE
  8
_0-5_寸法線
  6
CONTINUOUS
 62
    7
 10
774.93374972399442
 20
757.18176632391737
 11
784.59300798688503
 21
754.59357587289207
  0
LINE
  8
_0-5_寸法線
  6
CONTINUOUS
 62
    7
 10
874.93374972399442
 20
717.18176632391737
 11
874.93374972399442
 21
762.18176632391737
  0
LINE
  8
_0-5_寸法線
  6
CONTINUOUS
 62
    7
 10
874.93374972399442
 20
757.18176632391737
 11
865.27449146110371
 21
754.59357587289207
  0
LINE
  8
_0-5_寸法線
  6
CONTINUOUS
 62
    7
 10
874.93374972399442
 20
757.18176632391737
 11
865.27449146110371
 21
759.76995677494244
  0
LINE
  8
_0-5_寸法線
  6
CONTINUOUS
 62
    7
 10
774.93374972399442
 20
757.18176632391737
 11
874.93374972399442
 21
757.18176632391737
  0
TEXT
  8
_0-5_寸法線
 62
    7
 10
813.68374972399442
 20
757.18176632391737
 40
15
 41
1
 50
0
  1
100
  0
LINE
  8
_0-5_寸法線
  6
CONTINUOUS
 62
    7
 10
874.93374972399442
 20
757.18176632391737
 11
884.59300798688503
 21
759.76995677494244
  0
LINE
  8
_0-5_寸法線
  6
CONTINUOUS
 62
    7
 10
874.93374972399442
 20
757.18176632391737
 11
884.59300798688503
 21
754.59357587289207
  0
LINE
  8
_0-5_寸法線
  6
CONTINUOUS
 62
    7
 10
974.43374972399488
 20
717.18176632391737
 11
974.43374972399488
 21
762.18176632391737
  0
LINE
  8
_0-5_寸法線
  6
CONTINUOUS
 62
    7
 10
974.43374972399488
 20
757.18176632391737
 11
964.77449146110416
 21
754.59357587289207
  0
LINE
  8
_0-5_寸法線
  6
CONTINUOUS
 62
    7
 10
974.43374972399488
 20
757.18176632391737
 11
964.77449146110416
 21
759.76995677494244
  0
LINE
  8
_0-5_寸法線
  6
CONTINUOUS
 62
    7
 10
874.93374972399442
 20
757.18176632391737
 11
974.43374972399488
 21
757.18176632391737
  0
TEXT
  8
_0-5_寸法線
 62
    7
 10
909.68374972399488
 20
757.18176632391737
 40
15
 41
1
 50
0
  1
99.5
  0
LINE
  8
_0-1_計細線
  6
CONTINUOUS
 62
    3
 10
978.43374972399431
 20
702.18176632391737
 11
978.43374972399431
 21
696.18176632391726
  0
LINE
  8
_0-0_計極細
  6
CONTINUOUS
 62
    2
 10
1123.9604321582351
 20
702.18176632391737
 11
1124.0555605923762
 21
702.01213523319097
  0
LINE
  8
_0-0_計極細
  6
CONTINUOUS
 62
    2
 10
1124.0555605923762
 20
702.01213523319097
 11
1124.3382644389897
 21
701.50788069477107
  0
LINE
  8
_0-0_計極細
  6
CONTINUOUS
 62
    2
 10
1124.3382644389897
 20
701.50788069477107
 11
1124.8000850714286
 21
700.68285788843798
  0
LINE
  8
_0-0_計極細
  6
CONTINUOUS
 62
    2
 10
1124.8000850714286
 20
700.68285788843798
 11
1125.4257277837744
 21
699.5599338452098
  0
LINE
  8
_0-0_計極細
  6
CONTINUOUS
 62
    2
 10
1125.4257277837744
 20
699.5599338452098
 11
1126.1918572583609
 21
698.17058166910192
  0
LINE
  8
_0-0_計極細
  6
CONTINUOUS
 62
    2
 10
1126.1918572583609
 20
698.17058166910192
 11
1127.0664173902073
 21
696.55419900899562
  0
LINE
  8
_0-0_計極細
  6
CONTINUOUS
 62
    2
 10
1127.0664173902073
 20
696.55419900899562
 11
1128.0091178695307
 21
694.75708552042443
  0
LINE
  8
_0-0_計極細
  6
CONTINUOUS
 62
    2
 10
1128.0091178695307
 20
694.75708552042443
 11
1128.9735012316369
 21
692.83104981939664
  0
LINE
  8
_0-0_計極細
  6
CONTINUOUS
 62
    2
 10
1128.9735012316369
 20
692.83104981939664
 11
1129.9106250422039
 21
690.8316716887889
  0
LINE
  8
_0-0_計極細
  6
CONTINUOUS
 62
    2
 10
1129.9106250422039
 20
690.8316716887889
 11
1130.773956797075
 21
688.81630752856086
  0
LINE
  8
_0-0_計極細
  6
CONTINUOUS
 62
    2
 10
1130.773956797075
 20
688.81630752856086
 11
1131.5246954385002
 21
686.84198116799894
  0
LINE
  8
_0-0_計極細
  6
CONTINUOUS
 62
    2
 10
1131.5246954385002
 20
686.84198116799894
 11
1132.1365061874621
 21
684.9633342590605
  0
LINE
  8
_0-0_計極細
  6
CONTINUOUS
 62
    2
 10
1132.1365061874621
 20
684.9633342590605
 11
1132.5986533230016
 21
683.23081127368596
  0
LINE
  8
_0-0_計極細
  6
CONTINUOUS
 62
    2
 10
1132.5986533230016
 20
683.23081127368596
 11
1132.9167547917773
 21
681.68922144463761
  0
LINE
  8
_0-0_計極細
  6
CONTINUOUS
 62
    2
 10
1132.9167547917773
 20
681.68922144463761
 11
1133.1108212144943
 21
680.37675946367347
  0
LINE
  8
_0-0_計極細
  6
CONTINUOUS
 62
    2
 10
1133.1108212144943
 20
680.37675946367347
 11
1133.2107883943158
 21
679.32449073395662
  0
LINE
  8
_0-0_計極細
  6
CONTINUOUS
 62
    2
 10
1133.2107883943158
 20
679.32449073395662
 11
1133.2502861142207
 21
678.55623175995333
  0
LINE
  8
_0-0_計極細
  6
CONTINUOUS
 62
    2
 10
1133.2502861142207
 20
678.55623175995333
 11
1133.2597849088788
 21
678.08869833066728
  0
LINE
  8
_0-0_計極細
  6
CONTINUOUS
 62
    2
 10
1133.2597849088788
 20
678.08869833066728
 11
1133.2604321582353
 21
677.93176632391737
  0
LINE
  8
_0-0_計極細
  6
CONTINUOUS
 62
    2
 10
1133.2604321582353
 20
677.93176632391737
 11
1133.2597849088788
 21
677.77500830892996
  0
LINE
  8
_0-0_計極細
  6
CONTINUOUS
 62
    2
 10
1133.2597849088788
 20
677.77500830892996
 11
1133.2502861142207
 21
677.3100283190679
  0
LINE
  8
_0-0_計極細
  6
CONTINUOUS
 62
    2
 10
1133.2502861142207
 20
677.3100283190679
 11
1133.2107883943158
 21
676.55238701170583
  0
LINE
  8
_0-0_計極細
  6
CONTINUOUS
 62
    2
 10
1133.2107883943158
 20
676.55238701170583
 11
1133.1108212144943
 21
675.52699117979046
  0
LINE
  8
_0-0_計極細
  6
CONTINUOUS
 62
    2
 10
1133.1108212144943
 20
675.52699117979046
 11
1132.9167547917771
 21
674.26669759202969
  0
LINE
  8
_0-0_計極細
  6
CONTINUOUS
 62
    2
 10
1132.9167547917771
 20
674.26669759202969
 11
1132.5986533230021
 21
672.81061891050172
  0
LINE
  8
_0-0_計極細
  6
CONTINUOUS
 62
    2
 10
1132.5986533230021
 20
672.81061891050172
 11
1132.1365061874621
 21
671.2023290260787
  0
LINE
  8
_0-0_計極細
  6
CONTINUOUS
 62
    2
 10
1132.1365061874621
 20
671.2023290260787
 11
1131.5246954385
 21
669.48814737223745
  0
LINE
  8
_0-0_計極細
  6
CONTINUOUS
 62
    2
 10
1131.5246954385
 20
669.48814737223745
 11
1130.773956797075
 21
667.71563247442441
  0
LINE
  8
_0-0_計極細
  6
CONTINUOUS
 62
    2
 10
1130.773956797075
 20
667.71563247442441
 11
1129.9106250422039
 21
665.93234674292512
  0
LINE
  8
_0-0_計極細
  6
CONTINUOUS
 62
    2
 10
1129.9106250422039
 20
665.93234674292512
 11
1128.9735012316369
 21
664.18488361515813
  0
LINE
  8
_0-0_計極細
  6
CONTINUOUS
 62
    2
 10
1128.9735012316369
 20
664.18488361515813
 11
1128.0091178695307
 21
662.518090753406
  0
LINE
  8
_0-0_計極細
  6
CONTINUOUS
 62
    2
 10
1128.0091178695307
 20
662.518090753406
 11
1127.0664173902073
 21
660.97439137217975
  0
LINE
  8
_0-0_計極細
  6
CONTINUOUS
 62
    2
 10
1127.0664173902073
 20
660.97439137217975
 11
1126.1918572583609
 21
659.59310552170996
  0
LINE
  8
_0-0_計極細
  6
CONTINUOUS
 62
    2
 10
1126.1918572583609
 20
659.59310552170996
 11
1125.4257277837744
 21
658.40970212909269
  0
LINE
  8
_0-0_計極細
  6
CONTINUOUS
 62
    2
 10
1125.4257277837744
 20
658.40970212909269
 11
1124.8000850714286
 21
657.45496161068877
  0
LINE
  8
_0-0_計極細
  6
CONTINUOUS
 62
    2
 10
1124.8000850714286
 20
657.45496161068877
 11
1124.3382644389899
 21
656.75408413565651
  0
LINE
  8
_0-0_計極細
  6
CONTINUOUS
 62
    2
 10
1124.3382644389899
 20
656.75408413565651
 11
1124.0555605923762
 21
656.3258252549283
  0
LINE
  8
_0-0_計極細
  6
CONTINUOUS
 62
    2
 10
1124.0555605923762
 20
656.3258252549283
 11
1123.9604321582351
 21
656.18176632391726
  0
LINE
  8
_0-1_計細線
  6
CONTINUOUS
 62
    3
 10
1164.933749723994
 20
677.18176632391737
 11
1133.2604321582353
 21
677.18176632391737
  0
ARC
  8
_0-1_計細線
  6
CONTINUOUS
 62
    3
 10
297.99624972397612
 20
699.68176632391919
 40
15.062499999984542
 50
150.13716564369517
 51
209.86283435631691
  0
ARC
  8
_0-1_計細線
  6
CONTINUOUS
 62
    3
 10
271.87124972397612
 20
684.68176632391919
 40
15.062500000017272
 50
330.13716564375471
 51
29.862834356232135
  0
LINE
  8
_0-0_計極細
  6
CONTINUOUS
 62
    2
 10
325.90706728975414
 20
702.18176632391737
 11
325.81193885561299
 21
702.01213523319097
  0
LINE
  8
_0-0_計極細
  6
CONTINUOUS
 62
    2
 10
325.81193885561299
 20
702.01213523319097
 11
325.52923500899954
 21
701.50788069477107
  0
LINE
  8
_0-0_計極細
  6
CONTINUOUS
 62
    2
 10
325.52923500899954
 20
701.50788069477107
 11
325.06741437656052
 21
700.68285788843798
  0
LINE
  8
_0-0_計極細
  6
CONTINUOUS
 62
    2
 10
325.06741437656052
 20
700.68285788843798
 11
324.4417716642148
 21
699.5599338452098
  0
LINE
  8
_0-0_計極細
  6
CONTINUOUS
 62
    2
 10
324.4417716642148
 20
699.5599338452098
 11
323.67564218962877
 21
698.17058166910192
  0
LINE
  8
_0-0_計極細
  6
CONTINUOUS
 62
    2
 10
323.67564218962877
 20
698.17058166910192
 11
322.80108205778208
 21
696.55419900899562
  0
LINE
  8
_0-0_計極細
  6
CONTINUOUS
 62
    2
 10
322.80108205778208
 20
696.55419900899562
 11
321.85838157845888
 21
694.75708552042443
  0
LINE
  8
_0-0_計極細
  6
CONTINUOUS
 62
    2
 10
321.85838157845888
 20
694.75708552042443
 11
320.89399821635283
 21
692.83104981939664
  0
LINE
  8
_0-0_計極細
  6
CONTINUOUS
 62
    2
 10
320.89399821635283
 20
692.83104981939664
 11
319.95687440578547
 21
690.8316716887889
  0
LINE
  8
_0-0_計極細
  6
CONTINUOUS
 62
    2
 10
319.95687440578547
 20
690.8316716887889
 11
319.09354265091457
 21
688.81630752856086
  0
LINE
  8
_0-0_計極細
  6
CONTINUOUS
 62
    2
 10
319.09354265091457
 20
688.81630752856086
 11
318.34280400948944
 21
686.84198116799894
  0
LINE
  8
_0-0_計極細
  6
CONTINUOUS
 62
    2
 10
318.34280400948944
 20
686.84198116799894
 11
317.73099326052727
 21
684.9633342590605
  0
LINE
  8
_0-0_計極細
  6
CONTINUOUS
 62
    2
 10
317.73099326052727
 20
684.9633342590605
 11
317.26884612498793
 21
683.23081127368596
  0
LINE
  8
_0-0_計極細
  6
CONTINUOUS
 62
    2
 10
317.26884612498793
 20
683.23081127368596
 11
316.95074465621246
 21
681.68922144463761
  0
LINE
  8
_0-0_計極細
  6
CONTINUOUS
 62
    2
 10
316.95074465621246
 20
681.68922144463761
 11
316.75667823349545
 21
680.37675946367347
  0
LINE
  8
_0-0_計極細
  6
CONTINUOUS
 62
    2
 10
316.75667823349545
 20
680.37675946367347
 11
316.65671105367392
 21
679.32449073395662
  0
LINE
  8
_0-0_計極細
  6
CONTINUOUS
 62
    2
 10
316.65671105367392
 20
679.32449073395662
 11
316.61721333376886
 21
678.55623175995333
  0
LINE
  8
_0-0_計極細
  6
CONTINUOUS
 62
    2
 10
316.61721333376886
 20
678.55623175995333
 11
316.60771453911093
 21
678.08869833066728
  0
LINE
  8
_0-0_計極細
  6
CONTINUOUS
 62
    2
 10
316.60771453911093
 20
678.08869833066728
 11
316.60706728975441
 21
677.93176632391737
  0
LINE
  8
_0-0_計極細
  6
CONTINUOUS
 62
    2
 10
316.60706728975441
 20
677.93176632391737
 11
316.60771453911093
 21
677.77500830892996
  0
LINE
  8
_0-0_計極細
  6
CONTINUOUS
 62
    2
 10
316.60771453911093
 20
677.77500830892996
 11
316.61721333376886
 21
677.3100283190679
  0
LINE
  8
_0-0_計極細
  6
CONTINUOUS
 62
    2
 10
316.61721333376886
 20
677.3100283190679
 11
316.65671105367392
 21
676.55238701170583
  0
LINE
  8
_0-0_計極細
  6
CONTINUOUS
 62
    2
 10
316.65671105367392
 20
676.55238701170583
 11
316.75667823349545
 21
675.52699117979046
  0
LINE
  8
_0-0_計極細
  6
CONTINUOUS
 62
    2
 10
316.75667823349545
 20
675.52699117979046
 11
316.95074465621246
 21
674.26669759202969
  0
LINE
  8
_0-0_計極細
  6
CONTINUOUS
 62
    2
 10
316.95074465621246
 20
674.26669759202969
 11
317.26884612498793
 21
672.81061891050172
  0
LINE
  8
_0-0_計極細
  6
CONTINUOUS
 62
    2
 10
317.26884612498793
 20
672.81061891050172
 11
317.73099326052727
 21
671.2023290260787
  0
LINE
  8
_0-0_計極細
  6
CONTINUOUS
 62
    2
 10
317.73099326052727
 20
671.2023290260787
 11
318.34280400948944
 21
669.48814737223745
  0
LINE
  8
_0-0_計極細
  6
CONTINUOUS
 62
    2
 10
318.34280400948944
 20
669.48814737223745
 11
319.09354265091457
 21
667.71563247442441
  0
LINE
  8
_0-0_計極細
  6
CONTINUOUS
 62
    2
 10
319.09354265091457
 20
667.71563247442441
 11
319.95687440578547
 21
665.93234674292512
  0
LINE
  8
_0-0_計極細
  6
CONTINUOUS
 62
    2
 10
319.95687440578547
 20
665.93234674292512
 11
320.89399821635283
 21
664.18488361515813
  0
LINE
  8
_0-0_計極細
  6
CONTINUOUS
 62
    2
 10
320.89399821635283
 20
664.18488361515813
 11
321.85838157845888
 21
662.518090753406
  0
LINE
  8
_0-0_計極細
  6
CONTINUOUS
 62
    2
 10
321.85838157845888
 20
662.518090753406
 11
322.80108205778208
 21
660.97439137217975
  0
LINE
  8
_0-0_計極細
  6
CONTINUOUS
 62
    2
 10
322.80108205778208
 20
660.97439137217975
 11
323.67564218962866
 21
659.59310552170996
  0
LINE
  8
_0-0_計極細
  6
CONTINUOUS
 62
    2
 10
323.67564218962866
 20
659.59310552170996
 11
324.4417716642148
 21
658.40970212909269
  0
LINE
  8
_0-0_計極細
  6
CONTINUOUS
 62
    2
 10
324.4417716642148
 20
658.40970212909269
 11
325.06741437656052
 21
657.45496161068877
  0
LINE
  8
_0-0_計極細
  6
CONTINUOUS
 62
    2
 10
325.06741437656052
 20
657.45496161068877
 11
325.52923500899954
 21
656.75408413565651
  0
LINE
  8
_0-0_計極細
  6
CONTINUOUS
 62
    2
 10
325.52923500899954
 20
656.75408413565651
 11
325.81193885561299
 21
656.3258252549283
  0
LINE
  8
_0-0_計極細
  6
CONTINUOUS
 62
    2
 10
325.81193885561299
 20
656.3258252549283
 11
325.90706728975414
 21
656.18176632391726
  0
LINE
  8
_0-1_計細線
  6
CONTINUOUS
 62
    3
 10
284.93374972399522
 20
677.18176632391737
 11
316.60706728975441
 21
677.18176632391737
  0
LINE
  8
_0-1_計細線
  6
CONTINUOUS
 62
    3
 10
1166.2458421095225
 20
704.18176632391737
 11
283.62165733846666
 21
704.18176632391737
  0
LINE
  8
_0-1_計細線
  6
CONTINUOUS
 62
    3
 10
978.43374972399431
 20
642.18176632391737
 11
978.43374972399431
 21
636.18176632391726
  0
LINE
  8
_0-1_計細線
  6
CONTINUOUS
 62
    3
 10
978.43374972399431
 20
629.18176632391726
 11
978.43374972399431
 21
623.18176632391726
  0
LINE
  8
_0-1_計細線
  6
CONTINUOUS
 62
    3
 10
1164.933749723994
 20
605.18176632391726
 11
284.93374972399477
 21
605.18176632391726
  0
ARC
  8
_0-1_計細線
  6
CONTINUOUS
 62
    3
 10
1177.9962497239835
 20
612.68176632391919
 40
15.06249999999028
 50
150.13716564371109
 51
209.86283435630014
  0
ARC
  8
_0-1_計細線
  6
CONTINUOUS
 62
    3
 10
1151.8712497240272
 20
627.68176632390782
 40
15.062499999975882
 50
330.13716564369304
 51
29.862834356369127
  0
LINE
  8
_0-5_寸法線
  6
CONTINUOUS
 62
    7
 10
789.91333533330635
 20
625.83756053718764
 11
795.77687743624494
 21
617.73701277749478
  0
LINE
  8
_0-5_寸法線
  6
CONTINUOUS
 62
    7
 10
789.91333533330635
 20
625.83756053718764
 11
790.94103787076449
 21
615.8905093412551
  0
LINE
  8
_0-5_寸法線
  6
CONTINUOUS
 62
    7
 10
789.91333533330635
 20
625.83756053718764
 11
813.27081845336022
 21
564.66624679621293
  0
LINE
  8
_0-5_寸法線
  6
CONTINUOUS
 62
    7
 10
813.27081845336022
 20
564.66624679621293
 11
947.70983066848021
 21
564.66624679621293
  0
TEXT
  8
_0-5_寸法線
 62
    7
 10
815.70983066848021
 20
564.66624679621293
 40
15
 41
0.8000000000000001
 50
0
  1
ステンレスグレーチング
  0
LINE
  8
_0-5_寸法線
  6
CONTINUOUS
 62
    7
 10
582.48906992156651
 20
606.39677801545054
 11
587.48906992156651
 21
597.736523977606
  0
LINE
  8
_0-5_寸法線
  6
CONTINUOUS
 62
    7
 10
582.48906992156651
 20
606.39677801545054
 11
582.48906992156651
 21
596.39677801545054
  0
LINE
  8
_0-5_寸法線
  6
CONTINUOUS
 62
    7
 10
582.48906992156651
 20
606.39677801545054
 11
593.67073206148268
 21
564.66624679621293
  0
LINE
  8
_0-5_寸法線
  6
CONTINUOUS
 62
    7
 10
593.67073206148268
 20
564.66624679621293
 11
701.72160527291669
 21
564.66624679621293
  0
TEXT
  8
_0-5_寸法線
 62
    7
 10
593.72160527291669
 20
564.66624679621293
 40
15
 41
0.8000000000000001
 50
0
  1
ＳＵＳアングル受枠
  0
LINE
  8
_0-1_計細線
  6
CONTINUOUS
 62
    3
 10
978.43374972399431
 20
616.18176632391726
 11
978.43374972399431
 21
610.18176632391726
  0
LINE
  8
_0-0_計極細
  6
CONTINUOUS
 62
    2
 10
1123.9604321582351
 20
656.18176632391726
 11
1123.865303724094
 21
656.03770739290621
  0
LINE
  8
_0-0_計極細
  6
CONTINUOUS
 62
    2
 10
1123.865303724094
 20
656.03770739290621
 11
1123.5825998774806
 21
655.60944851217823
  0
LINE
  8
_0-0_計極細
  6
CONTINUOUS
 62
    2
 10
1123.5825998774806
 20
655.60944851217823
 11
1123.1207792450416
 21
654.90857103714586
  0
LINE
  8
_0-0_計極細
  6
CONTINUOUS
 62
    2
 10
1123.1207792450416
 20
654.90857103714586
 11
1122.4951365326958
 21
653.95383051874194
  0
LINE
  8
_0-0_計極細
  6
CONTINUOUS
 62
    2
 10
1122.4951365326958
 20
653.95383051874194
 11
1121.7290070581096
 21
652.77042712612479
  0
LINE
  8
_0-0_計極細
  6
CONTINUOUS
 62
    2
 10
1121.7290070581096
 20
652.77042712612479
 11
1120.8544469262629
 21
651.38914127565488
  0
LINE
  8
_0-0_計極細
  6
CONTINUOUS
 62
    2
 10
1120.8544469262629
 20
651.38914127565488
 11
1119.9117464469396
 21
649.8454418944284
  0
LINE
  8
_0-0_計極細
  6
CONTINUOUS
 62
    2
 10
1119.9117464469396
 20
649.8454418944284
 11
1118.9473630848336
 21
648.1786490326765
  0
LINE
  8
_0-0_計極細
  6
CONTINUOUS
 62
    2
 10
1118.9473630848336
 20
648.1786490326765
 11
1118.0102392742663
 21
646.4311859049094
  0
LINE
  8
_0-0_計極細
  6
CONTINUOUS
 62
    2
 10
1118.0102392742663
 20
646.4311859049094
 11
1117.1469075193952
 21
644.64790017341011
  0
LINE
  8
_0-0_計極細
  6
CONTINUOUS
 62
    2
 10
1117.1469075193952
 20
644.64790017341011
 11
1116.39616887797
 21
642.87538527559718
  0
LINE
  8
_0-0_計極細
  6
CONTINUOUS
 62
    2
 10
1116.39616887797
 20
642.87538527559718
 11
1115.7843581290081
 21
641.16120362175582
  0
LINE
  8
_0-0_計極細
  6
CONTINUOUS
 62
    2
 10
1115.7843581290081
 20
641.16120362175582
 11
1115.3222109934686
 21
639.5529137373328
  0
LINE
  8
_0-0_計極細
  6
CONTINUOUS
 62
    2
 10
1115.3222109934686
 20
639.5529137373328
 11
1115.0041095246929
 21
638.09683505580483
  0
LINE
  8
_0-0_計極細
  6
CONTINUOUS
 62
    2
 10
1115.0041095246929
 20
638.09683505580483
 11
1114.8100431019759
 21
636.83654146804406
  0
LINE
  8
_0-0_計極細
  6
CONTINUOUS
 62
    2
 10
1114.8100431019759
 20
636.83654146804406
 11
1114.7100759221544
 21
635.81114563612869
  0
LINE
  8
_0-0_計極細
  6
CONTINUOUS
 62
    2
 10
1114.7100759221544
 20
635.81114563612869
 11
1114.6705782022495
 21
635.05350432876651
  0
LINE
  8
_0-0_計極細
  6
CONTINUOUS
 62
    2
 10
1114.6705782022495
 20
635.05350432876651
 11
1114.6610794075914
 21
634.58852433890468
  0
LINE
  8
_0-0_計極細
  6
CONTINUOUS
 62
    2
 10
1114.6610794075914
 20
634.58852433890468
 11
1114.6604321582349
 21
634.43176632391726
  0
LINE
  8
_0-0_計極細
  6
CONTINUOUS
 62
    2
 10
1114.6604321582349
 20
634.43176632391726
 11
1114.6610794075914
 21
634.27483431716735
  0
LINE
  8
_0-0_計極細
  6
CONTINUOUS
 62
    2
 10
1114.6610794075914
 20
634.27483431716735
 11
1114.6705782022495
 21
633.80730088788118
  0
LINE
  8
_0-0_計極細
  6
CONTINUOUS
 62
    2
 10
1114.6705782022495
 20
633.80730088788118
 11
1114.7100759221544
 21
633.03904191387801
  0
LINE
  8
_0-0_計極細
  6
CONTINUOUS
 62
    2
 10
1114.7100759221544
 20
633.03904191387801
 11
1114.8100431019759
 21
631.98677318416117
  0
LINE
  8
_0-0_計極細
  6
CONTINUOUS
 62
    2
 10
1114.8100431019759
 20
631.98677318416117
 11
1115.0041095246931
 21
630.67431120319702
  0
LINE
  8
_0-0_計極細
  6
CONTINUOUS
 62
    2
 10
1115.0041095246931
 20
630.67431120319702
 11
1115.3222109934684
 21
629.13272137414856
  0
LINE
  8
_0-0_計極細
  6
CONTINUOUS
 62
    2
 10
1115.3222109934684
 20
629.13272137414856
 11
1115.7843581290081
 21
627.40019838877413
  0
LINE
  8
_0-0_計極細
  6
CONTINUOUS
 62
    2
 10
1115.7843581290081
 20
627.40019838877413
 11
1116.3961688779702
 21
625.52155147983547
  0
LINE
  8
_0-0_計極細
  6
CONTINUOUS
 62
    2
 10
1116.3961688779702
 20
625.52155147983547
 11
1117.1469075193952
 21
623.54722511927366
  0
LINE
  8
_0-0_計極細
  6
CONTINUOUS
 62
    2
 10
1117.1469075193952
 20
623.54722511927366
 11
1118.0102392742663
 21
621.53186095904584
  0
LINE
  8
_0-0_計極細
  6
CONTINUOUS
 62
    2
 10
1118.0102392742663
 20
621.53186095904584
 11
1118.9473630848336
 21
619.53248282843799
  0
LINE
  8
_0-0_計極細
  6
CONTINUOUS
 62
    2
 10
1118.9473630848336
 20
619.53248282843799
 11
1119.9117464469396
 21
617.60644712741032
  0
LINE
  8
_0-0_計極細
  6
CONTINUOUS
 62
    2
 10
1119.9117464469396
 20
617.60644712741032
 11
1120.8544469262629
 21
615.80933363883901
  0
LINE
  8
_0-0_計極細
  6
CONTINUOUS
 62
    2
 10
1120.8544469262629
 20
615.80933363883901
 11
1121.7290070581096
 21
614.19295097873271
  0
LINE
  8
_0-0_計極細
  6
CONTINUOUS
 62
    2
 10
1121.7290070581096
 20
614.19295097873271
 11
1122.4951365326958
 21
612.80359880262472
  0
LINE
  8
_0-0_計極細
  6
CONTINUOUS
 62
    2
 10
1122.4951365326958
 20
612.80359880262472
 11
1123.1207792450416
 21
611.68067475939654
  0
LINE
  8
_0-0_計極細
  6
CONTINUOUS
 62
    2
 10
1123.1207792450416
 20
611.68067475939654
 11
1123.5825998774803
 21
610.85565195306356
  0
LINE
  8
_0-0_計極細
  6
CONTINUOUS
 62
    2
 10
1123.5825998774803
 20
610.85565195306356
 11
1123.865303724094
 21
610.35139741464354
  0
LINE
  8
_0-0_計極細
  6
CONTINUOUS
 62
    2
 10
1123.865303724094
 20
610.35139741464354
 11
1123.9604321582351
 21
610.18176632391726
  0
LINE
  8
_0-1_計細線
  6
CONTINUOUS
 62
    3
 10
1164.933749723994
 20
635.18176632391726
 11
1114.6751462844991
 21
635.18176632391726
  0
ARC
  8
_0-1_計細線
  6
CONTINUOUS
 62
    3
 10
271.87124972400522
 20
612.68176632391919
 40
15.06249999999028
 50
330.13716564369918
 51
29.862834356287706
  0
ARC
  8
_0-1_計細線
  6
CONTINUOUS
 62
    3
 10
297.99624972396157
 20
627.68176632390782
 40
15.062499999975882
 50
150.13716564362966
 51
209.86283435630799
  0
LINE
  8
_0-0_計極細
  6
CONTINUOUS
 62
    2
 10
325.90706728975414
 20
656.18176632391726
 11
326.00219572389517
 21
656.03770739290621
  0
LINE
  8
_0-0_計極細
  6
CONTINUOUS
 62
    2
 10
326.00219572389517
 20
656.03770739290621
 11
326.28489957050868
 21
655.60944851217823
  0
LINE
  8
_0-0_計極細
  6
CONTINUOUS
 62
    2
 10
326.28489957050868
 20
655.60944851217823
 11
326.74672020294764
 21
654.90857103714586
  0
LINE
  8
_0-0_計極細
  6
CONTINUOUS
 62
    2
 10
326.74672020294764
 20
654.90857103714586
 11
327.37236291529337
 21
653.95383051874194
  0
LINE
  8
_0-0_計極細
  6
CONTINUOUS
 62
    2
 10
327.37236291529337
 20
653.95383051874194
 11
328.1384923898795
 21
652.77042712612479
  0
LINE
  8
_0-0_計極細
  6
CONTINUOUS
 62
    2
 10
328.1384923898795
 20
652.77042712612479
 11
329.01305252172614
 21
651.38914127565488
  0
LINE
  8
_0-0_計極細
  6
CONTINUOUS
 62
    2
 10
329.01305252172614
 20
651.38914127565488
 11
329.9557530010494
 21
649.8454418944284
  0
LINE
  8
_0-0_計極細
  6
CONTINUOUS
 62
    2
 10
329.9557530010494
 20
649.8454418944284
 11
330.92013636315534
 21
648.1786490326765
  0
LINE
  8
_0-0_計極細
  6
CONTINUOUS
 62
    2
 10
330.92013636315534
 20
648.1786490326765
 11
331.85726017372269
 21
646.4311859049094
  0
LINE
  8
_0-0_計極細
  6
CONTINUOUS
 62
    2
 10
331.85726017372269
 20
646.4311859049094
 11
332.72059192859359
 21
644.64790017341011
  0
LINE
  8
_0-0_計極細
  6
CONTINUOUS
 62
    2
 10
332.72059192859359
 20
644.64790017341011
 11
333.47133057001878
 21
642.87538527559718
  0
LINE
  8
_0-0_計極細
  6
CONTINUOUS
 62
    2
 10
333.47133057001878
 20
642.87538527559718
 11
334.08314131898089
 21
641.16120362175582
  0
LINE
  8
_0-0_計極細
  6
CONTINUOUS
 62
    2
 10
334.08314131898089
 20
641.16120362175582
 11
334.54528845452035
 21
639.5529137373328
  0
LINE
  8
_0-0_計極細
  6
CONTINUOUS
 62
    2
 10
334.54528845452035
 20
639.5529137373328
 11
334.86338992329581
 21
638.09683505580483
  0
LINE
  8
_0-0_計極細
  6
CONTINUOUS
 62
    2
 10
334.86338992329581
 20
638.09683505580483
 11
335.05745634601277
 21
636.83654146804406
  0
LINE
  8
_0-0_計極細
  6
CONTINUOUS
 62
    2
 10
335.05745634601277
 20
636.83654146804406
 11
335.15742352583425
 21
635.81114563612869
  0
LINE
  8
_0-0_計極細
  6
CONTINUOUS
 62
    2
 10
335.15742352583425
 20
635.81114563612869
 11
335.1969212457393
 21
635.05350432876651
  0
LINE
  8
_0-0_計極細
  6
CONTINUOUS
 62
    2
 10
335.1969212457393
 20
635.05350432876651
 11
335.20642004039723
 21
634.58852433890468
  0
LINE
  8
_0-0_計極細
  6
CONTINUOUS
 62
    2
 10
335.20642004039723
 20
634.58852433890468
 11
335.20706728975381
 21
634.43176632391726
  0
LINE
  8
_0-0_計極細
  6
CONTINUOUS
 62
    2
 10
335.20706728975381
 20
634.43176632391726
 11
335.20642004039723
 21
634.27483431716735
  0
LINE
  8
_0-0_計極細
  6
CONTINUOUS
 62
    2
 10
335.20642004039723
 20
634.27483431716735
 11
335.1969212457393
 21
633.80730088788118
  0
LINE
  8
_0-0_計極細
  6
CONTINUOUS
 62
    2
 10
335.1969212457393
 20
633.80730088788118
 11
335.15742352583425
 21
633.03904191387801
  0
LINE
  8
_0-0_計極細
  6
CONTINUOUS
 62
    2
 10
335.15742352583425
 20
633.03904191387801
 11
335.05745634601277
 21
631.98677318416117
  0
LINE
  8
_0-0_計極細
  6
CONTINUOUS
 62
    2
 10
335.05745634601277
 20
631.98677318416117
 11
334.86338992329581
 21
630.67431120319702
  0
LINE
  8
_0-0_計極細
  6
CONTINUOUS
 62
    2
 10
334.86338992329581
 20
630.67431120319702
 11
334.54528845452035
 21
629.13272137414856
  0
LINE
  8
_0-0_計極細
  6
CONTINUOUS
 62
    2
 10
334.54528845452035
 20
629.13272137414856
 11
334.08314131898089
 21
627.40019838877413
  0
LINE
  8
_0-0_計極細
  6
CONTINUOUS
 62
    2
 10
334.08314131898089
 20
627.40019838877413
 11
333.47133057001878
 21
625.52155147983547
  0
LINE
  8
_0-0_計極細
  6
CONTINUOUS
 62
    2
 10
333.47133057001878
 20
625.52155147983547
 11
332.72059192859359
 21
623.54722511927366
  0
LINE
  8
_0-0_計極細
  6
CONTINUOUS
 62
    2
 10
332.72059192859359
 20
623.54722511927366
 11
331.85726017372269
 21
621.53186095904584
  0
LINE
  8
_0-0_計極細
  6
CONTINUOUS
 62
    2
 10
331.85726017372269
 20
621.53186095904584
 11
330.92013636315534
 21
619.53248282843799
  0
LINE
  8
_0-0_計極細
  6
CONTINUOUS
 62
    2
 10
330.92013636315534
 20
619.53248282843799
 11
329.9557530010494
 21
617.60644712741032
  0
LINE
  8
_0-0_計極細
  6
CONTINUOUS
 62
    2
 10
329.9557530010494
 20
617.60644712741032
 11
329.01305252172614
 21
615.80933363883901
  0
LINE
  8
_0-0_計極細
  6
CONTINUOUS
 62
    2
 10
329.01305252172614
 20
615.80933363883901
 11
328.1384923898795
 21
614.19295097873271
  0
LINE
  8
_0-0_計極細
  6
CONTINUOUS
 62
    2
 10
328.1384923898795
 20
614.19295097873271
 11
327.37236291529337
 21
612.80359880262472
  0
LINE
  8
_0-0_計極細
  6
CONTINUOUS
 62
    2
 10
327.37236291529337
 20
612.80359880262472
 11
326.74672020294764
 21
611.68067475939654
  0
LINE
  8
_0-0_計極細
  6
CONTINUOUS
 62
    2
 10
326.74672020294764
 20
611.68067475939654
 11
326.28489957050868
 21
610.85565195306356
  0
LINE
  8
_0-0_計極細
  6
CONTINUOUS
 62
    2
 10
326.28489957050868
 20
610.85565195306356
 11
326.00219572389517
 21
610.35139741464354
  0
LINE
  8
_0-0_計極細
  6
CONTINUOUS
 62
    2
 10
326.00219572389517
 20
610.35139741464354
 11
325.90706728975414
 21
610.18176632391726
  0
LINE
  8
_0-1_計細線
  6
CONTINUOUS
 62
    3
 10
284.93374972399522
 20
635.18176632391726
 11
335.19235316349011
 21
635.18176632391726
  0
LINE
  8
_0-1_計細線
  6
CONTINUOUS
 62
    3
 10
286.24584210952014
 20
608.18176632391726
 11
1163.6216573384695
 21
608.18176632391726
  0
LINE
  8
_0-1_計細線
  6
CONTINUOUS
 62
    3
 10
471.43374972399477
 20
702.18176632391737
 11
474.43374972399482
 21
702.18176632391737
  0
LINE
  8
_0-1_計細線
  6
CONTINUOUS
 62
    3
 10
474.43374972399482
 20
702.18176632391737
 11
474.43374972399482
 21
610.18176632391726
  0
LINE
  8
_0-1_計細線
  6
CONTINUOUS
 62
    3
 10
474.43374972399482
 20
610.18176632391726
 11
471.43374972399477
 21
610.18176632391726
  0
LINE
  8
_0-1_計細線
  6
CONTINUOUS
 62
    3
 10
471.43374972399477
 20
610.18176632391726
 11
471.43374972399477
 21
702.18176632391737
  0
LINE
  8
_0-1_計細線
  6
CONTINUOUS
 62
    3
 10
978.43374972399431
 20
702.18176632391737
 11
975.43374972399431
 21
702.18176632391737
  0
LINE
  8
_0-1_計細線
  6
CONTINUOUS
 62
    3
 10
975.43374972399431
 20
702.18176632391737
 11
975.43374972399431
 21
610.18176632391726
  0
LINE
  8
_0-1_計細線
  6
CONTINUOUS
 62
    3
 10
975.43374972399431
 20
610.18176632391726
 11
978.43374972399431
 21
610.18176632391726
  0
LINE
  8
_0-1_計細線
  6
CONTINUOUS
 62
    3
 10
978.43374972399431
 20
610.18176632391726
 11
978.43374972399431
 21
702.18176632391737
  0
LINE
  8
_0-1_計細線
  6
CONTINUOUS
 62
    3
 10
974.43374972399442
 20
702.18176632391737
 11
971.43374972399442
 21
702.18176632391737
  0
LINE
  8
_0-1_計細線
  6
CONTINUOUS
 62
    3
 10
971.43374972399442
 20
702.18176632391737
 11
971.43374972399442
 21
610.18176632391726
  0
LINE
  8
_0-1_計細線
  6
CONTINUOUS
 62
    3
 10
971.43374972399442
 20
610.18176632391726
 11
974.43374972399442
 21
610.18176632391726
  0
LINE
  8
_0-1_計細線
  6
CONTINUOUS
 62
    3
 10
974.43374972399442
 20
610.18176632391726
 11
974.43374972399442
 21
702.18176632391737
  0
LINE
  8
_0-1_計細線
  6
CONTINUOUS
 62
    3
 10
478.43374972399431
 20
702.18176632391737
 11
475.43374972399431
 21
702.18176632391737
  0
LINE
  8
_0-1_計細線
  6
CONTINUOUS
 62
    3
 10
475.43374972399431
 20
702.18176632391737
 11
475.43374972399431
 21
610.18176632391726
  0
LINE
  8
_0-1_計細線
  6
CONTINUOUS
 62
    3
 10
475.43374972399431
 20
610.18176632391726
 11
478.43374972399431
 21
610.18176632391726
  0
LINE
  8
_0-1_計細線
  6
CONTINUOUS
 62
    3
 10
478.43374972399431
 20
610.18176632391726
 11
478.43374972399431
 21
702.18176632391737
  0
LINE
  8
_0-0_計極細
  6
CENTER2
 62
    2
 10
1074.9337497239944
 20
696.18176632391726
 11
1074.9337497239944
 21
616.18176632391726
  0
LINE
  8
_0-0_計極細
  6
CENTER2
 62
    2
 10
874.93374972399442
 20
696.18176632391726
 11
874.93374972399442
 21
616.18176632391726
  0
LINE
  8
_0-0_計極細
  6
CENTER2
 62
    2
 10
774.93374972399442
 20
696.18176632391726
 11
774.93374972399442
 21
616.18176632391726
  0
LINE
  8
_0-0_計極細
  6
CENTER2
 62
    2
 10
674.93374972399442
 20
696.18176632391726
 11
674.93374972399442
 21
616.18176632391726
  0
LINE
  8
_0-0_計極細
  6
CENTER2
 62
    2
 10
574.93374972399442
 20
696.18176632391726
 11
574.93374972399442
 21
616.18176632391726
  0
LINE
  8
_0-5_寸法線
  6
CONTINUOUS
 62
    7
 10
272.93374972399249
 20
605.18176632391589
 11
227.93374972399249
 21
605.18176632391589
  0
LINE
  8
_0-5_寸法線
  6
CONTINUOUS
 62
    7
 10
232.93374972399249
 20
605.18176632391589
 11
230.34555927296736
 21
614.84102458680672
  0
LINE
  8
_0-5_寸法線
  6
CONTINUOUS
 62
    7
 10
232.93374972399249
 20
605.18176632391589
 11
235.52194017501776
 21
614.84102458680672
  0
LINE
  8
_0-5_寸法線
  6
CONTINUOUS
 62
    7
 10
272.93374972399249
 20
635.18176632391726
 11
227.93374972399249
 21
635.18176632391749
  0
LINE
  8
_0-5_寸法線
  6
CONTINUOUS
 62
    7
 10
232.93374972399249
 20
635.18176632391749
 11
235.52194017501762
 21
625.52250806102677
  0
LINE
  8
_0-5_寸法線
  6
CONTINUOUS
 62
    7
 10
232.93374972399249
 20
635.18176632391749
 11
230.34555927296722
 21
625.52250806102677
  0
LINE
  8
_0-5_寸法線
  6
CONTINUOUS
 62
    7
 10
232.93374972399249
 20
605.18176632391589
 11
232.93374972399249
 21
635.18176632391749
  0
TEXT
  8
_0-5_寸法線
 62
    7
 10
232.93374972399249
 20
612.68176632391692
 40
15
 41
1
 50
90
  1
30
  0
LINE
  8
_0-5_寸法線
  6
CONTINUOUS
 62
    7
 10
232.93374972399249
 20
635.18176632391749
 11
230.34555927296736
 21
644.8410245868082
  0
LINE
  8
_0-5_寸法線
  6
CONTINUOUS
 62
    7
 10
232.93374972399249
 20
635.18176632391749
 11
235.52194017501776
 21
644.8410245868082
  0
LINE
  8
_0-5_寸法線
  6
CONTINUOUS
 62
    7
 10
272.93374972399249
 20
677.18176632391737
 11
227.93374972399249
 21
677.18176632391737
  0
LINE
  8
_0-5_寸法線
  6
CONTINUOUS
 62
    7
 10
232.93374972399249
 20
677.18176632391737
 11
235.52194017501762
 21
667.52250806102654
  0
LINE
  8
_0-5_寸法線
  6
CONTINUOUS
 62
    7
 10
232.93374972399249
 20
677.18176632391737
 11
230.34555927296722
 21
667.52250806102654
  0
LINE
  8
_0-5_寸法線
  6
CONTINUOUS
 62
    7
 10
232.93374972399249
 20
635.18176632391749
 11
232.93374972399249
 21
677.18176632391737
  0
TEXT
  8
_0-5_寸法線
 62
    7
 10
232.93374972399249
 20
648.68176632391749
 40
15
 41
1
 50
90
  1
42
  0
LINE
  8
_0-5_寸法線
  6
CONTINUOUS
 62
    7
 10
232.93374972399249
 20
677.18176632391737
 11
230.34555927296736
 21
686.84102458680798
  0
LINE
  8
_0-5_寸法線
  6
CONTINUOUS
 62
    7
 10
232.93374972399249
 20
677.18176632391737
 11
235.52194017501776
 21
686.84102458680798
  0
LINE
  8
_0-5_寸法線
  6
CONTINUOUS
 62
    7
 10
272.93374972399249
 20
707.18176632391589
 11
227.93374972399249
 21
707.18176632391589
  0
LINE
  8
_0-5_寸法線
  6
CONTINUOUS
 62
    7
 10
232.93374972399249
 20
707.18176632391589
 11
235.52194017501762
 21
697.52250806102529
  0
LINE
  8
_0-5_寸法線
  6
CONTINUOUS
 62
    7
 10
232.93374972399249
 20
707.18176632391589
 11
230.34555927296722
 21
697.52250806102529
  0
LINE
  8
_0-5_寸法線
  6
CONTINUOUS
 62
    7
 10
232.93374972399249
 20
677.18176632391737
 11
232.93374972399249
 21
707.18176632391589
  0
TEXT
  8
_0-5_寸法線
 62
    7
 10
232.93374972399249
 20
684.68176632391658
 40
15
 41
1
 50
90
  1
30
  0
LINE
  8
_0-5_寸法線
  6
CONTINUOUS
 62
    7
 10
1176.9337497239972
 20
605.18176632391589
 11
1256.9337497239972
 21
605.18176632391578
  0
LINE
  8
_0-5_寸法線
  6
CONTINUOUS
 62
    7
 10
1251.9337497239972
 20
605.18176632391578
 11
1249.345559272972
 21
614.84102458680638
  0
LINE
  8
_0-5_寸法線
  6
CONTINUOUS
 62
    7
 10
1251.9337497239972
 20
605.18176632391578
 11
1254.5219401750223
 21
614.84102458680638
  0
LINE
  8
_0-5_寸法線
  6
CONTINUOUS
 62
    7
 10
1176.9337497239972
 20
707.18176632391589
 11
1256.9337497239972
 21
707.18176632391578
  0
LINE
  8
_0-5_寸法線
  6
CONTINUOUS
 62
    7
 10
1251.9337497239972
 20
707.18176632391578
 11
1254.5219401750223
 21
697.52250806102495
  0
LINE
  8
_0-5_寸法線
  6
CONTINUOUS
 62
    7
 10
1251.9337497239972
 20
707.18176632391578
 11
1249.345559272972
 21
697.52250806102495
  0
LINE
  8
_0-5_寸法線
  6
CONTINUOUS
 62
    7
 10
1251.9337497239972
 20
605.18176632391578
 11
1251.9337497239972
 21
707.18176632391578
  0
TEXT
  8
_0-5_寸法線
 62
    7
 10
1251.9337497239972
 20
644.93176632391555
 40
15
 41
1
 50
90
  1
102
  0
LINE
  8
_0-0_計極細
  6
CENTER2
 62
    2
 10
374.93374972399431
 20
696.18176632391726
 11
374.93374972399431
 21
616.18176632391726
  0
LINE
  8
_0-1_計細線
  6
CONTINUOUS
 62
    3
 10
478.43374972399431
 20
702.18176632391737
 11
478.43374972399431
 21
694.18176632391783
  0
LINE
  8
_0-1_計細線
  6
CONTINUOUS
 62
    3
 10
478.43374972399431
 20
694.18176632391783
 11
971.43374972399442
 21
694.18176632391783
  0
LINE
  8
_0-1_計細線
  6
CONTINUOUS
 62
    3
 10
971.43374972399442
 20
694.18176632391783
 11
971.43374972399442
 21
702.18176632391737
  0
LINE
  8
_0-1_計細線
  6
CONTINUOUS
 62
    3
 10
971.43374972399442
 20
702.18176632391737
 11
478.43374972399431
 21
702.18176632391737
  0
LINE
  8
_0-1_計細線
  6
CONTINUOUS
 62
    3
 10
478.43374972399431
 20
688.18176632391726
 11
478.43374972399431
 21
680.18176632391771
  0
LINE
  8
_0-1_計細線
  6
CONTINUOUS
 62
    3
 10
478.43374972399431
 20
680.18176632391771
 11
971.43374972399442
 21
680.18176632391771
  0
LINE
  8
_0-1_計細線
  6
CONTINUOUS
 62
    3
 10
971.43374972399442
 20
680.18176632391771
 11
971.43374972399442
 21
688.18176632391726
  0
LINE
  8
_0-1_計細線
  6
CONTINUOUS
 62
    3
 10
971.43374972399442
 20
688.18176632391726
 11
478.43374972399431
 21
688.18176632391726
  0
LINE
  8
_0-1_計細線
  6
CONTINUOUS
 62
    3
 10
478.43374972399431
 20
674.18176632391783
 11
478.43374972399431
 21
666.18176632391794
  0
LINE
  8
_0-1_計細線
  6
CONTINUOUS
 62
    3
 10
478.43374972399431
 20
666.18176632391794
 11
971.43374972399442
 21
666.18176632391794
  0
LINE
  8
_0-1_計細線
  6
CONTINUOUS
 62
    3
 10
971.43374972399442
 20
666.18176632391794
 11
971.43374972399442
 21
674.18176632391783
  0
LINE
  8
_0-1_計細線
  6
CONTINUOUS
 62
    3
 10
971.43374972399442
 20
674.18176632391783
 11
478.43374972399431
 21
674.18176632391783
  0
LINE
  8
_0-1_計細線
  6
CONTINUOUS
 62
    3
 10
478.43374972399431
 20
660.1817663239176
 11
478.43374972399431
 21
652.18176632391771
  0
LINE
  8
_0-1_計細線
  6
CONTINUOUS
 62
    3
 10
478.43374972399431
 20
652.18176632391771
 11
971.43374972399442
 21
652.18176632391771
  0
LINE
  8
_0-1_計細線
  6
CONTINUOUS
 62
    3
 10
971.43374972399442
 20
652.18176632391771
 11
971.43374972399442
 21
660.1817663239176
  0
LINE
  8
_0-1_計細線
  6
CONTINUOUS
 62
    3
 10
971.43374972399442
 20
660.1817663239176
 11
478.43374972399431
 21
660.1817663239176
  0
LINE
  8
_0-1_計細線
  6
CONTINUOUS
 62
    3
 10
478.43374972399431
 20
646.18176632391749
 11
478.43374972399431
 21
638.18176632391771
  0
LINE
  8
_0-1_計細線
  6
CONTINUOUS
 62
    3
 10
478.43374972399431
 20
638.18176632391771
 11
971.43374972399442
 21
638.18176632391771
  0
LINE
  8
_0-1_計細線
  6
CONTINUOUS
 62
    3
 10
971.43374972399442
 20
638.18176632391771
 11
971.43374972399442
 21
646.18176632391749
  0
LINE
  8
_0-1_計細線
  6
CONTINUOUS
 62
    3
 10
971.43374972399442
 20
646.18176632391749
 11
478.43374972399431
 21
646.18176632391749
  0
LINE
  8
_0-1_計細線
  6
CONTINUOUS
 62
    3
 10
478.43374972399431
 20
632.18176632391737
 11
478.43374972399431
 21
624.18176632391783
  0
LINE
  8
_0-1_計細線
  6
CONTINUOUS
 62
    3
 10
478.43374972399431
 20
624.18176632391783
 11
971.43374972399442
 21
624.18176632391783
  0
LINE
  8
_0-1_計細線
  6
CONTINUOUS
 62
    3
 10
971.43374972399442
 20
624.18176632391783
 11
971.43374972399442
 21
632.18176632391737
  0
LINE
  8
_0-1_計細線
  6
CONTINUOUS
 62
    3
 10
971.43374972399442
 20
632.18176632391737
 11
478.43374972399431
 21
632.18176632391737
  0
LINE
  8
_0-1_計細線
  6
CONTINUOUS
 62
    3
 10
478.43374972399431
 20
618.18176632391726
 11
478.43374972399431
 21
610.18176632391771
  0
LINE
  8
_0-1_計細線
  6
CONTINUOUS
 62
    3
 10
478.43374972399431
 20
610.18176632391771
 11
971.43374972399442
 21
610.18176632391771
  0
LINE
  8
_0-1_計細線
  6
CONTINUOUS
 62
    3
 10
971.43374972399442
 20
610.18176632391771
 11
971.43374972399442
 21
618.18176632391726
  0
LINE
  8
_0-1_計細線
  6
CONTINUOUS
 62
    3
 10
971.43374972399442
 20
618.18176632391726
 11
478.43374972399431
 21
618.18176632391726
  0
LINE
  8
_0-1_計細線
  6
CONTINUOUS
 62
    3
 10
325.90706728975414
 20
702.18176632391737
 11
471.43374972399477
 21
702.18176632391737
  0
LINE
  8
_0-1_計細線
  6
CONTINUOUS
 62
    3
 10
471.43374972399477
 20
702.18176632391737
 11
471.43374972399477
 21
694.18176632391783
  0
LINE
  8
_0-1_計細線
  6
CONTINUOUS
 62
    3
 10
471.43374972399477
 20
694.18176632391783
 11
321.57031409314948
 21
694.18176632391783
  0
LINE
  8
_0-1_計細線
  6
CONTINUOUS
 62
    3
 10
471.43374972399477
 20
688.18176632391726
 11
471.43374972399477
 21
680.18176632391771
  0
LINE
  8
_0-1_計細線
  6
CONTINUOUS
 62
    3
 10
471.43374972399477
 20
674.18176632391783
 11
471.43374972399477
 21
666.18176632391794
  0
LINE
  8
_0-1_計細線
  6
CONTINUOUS
 62
    3
 10
471.43374972399477
 20
660.1817663239176
 11
471.43374972399477
 21
652.18176632391771
  0
LINE
  8
_0-1_計細線
  6
CONTINUOUS
 62
    3
 10
471.43374972399477
 20
646.18176632391749
 11
471.43374972399477
 21
638.18176632391771
  0
LINE
  8
_0-1_計細線
  6
CONTINUOUS
 62
    3
 10
471.43374972399477
 20
632.18176632391737
 11
471.43374972399477
 21
624.18176632391783
  0
LINE
  8
_0-1_計細線
  6
CONTINUOUS
 62
    3
 10
471.43374972399477
 20
618.18176632391726
 11
471.43374972399477
 21
610.18176632391771
  0
LINE
  8
_0-1_計細線
  6
CONTINUOUS
 62
    3
 10
318.85225802268991
 20
688.18176632391726
 11
471.43374972399477
 21
688.18176632391726
  0
LINE
  8
_0-1_計細線
  6
CONTINUOUS
 62
    3
 10
471.43374972399477
 20
680.18176632391771
 11
316.73815357936871
 21
680.18176632391771
  0
LINE
  8
_0-1_計細線
  6
CONTINUOUS
 62
    3
 10
316.96929912134817
 20
674.18176632391783
 11
471.43374972399477
 21
674.18176632391783
  0
LINE
  8
_0-1_計細線
  6
CONTINUOUS
 62
    3
 10
471.43374972399477
 20
666.18176632391794
 11
319.836124353927
 21
666.18176632391794
  0
LINE
  8
_0-1_計細線
  6
CONTINUOUS
 62
    3
 10
323.30293203074541
 20
660.1817663239176
 11
471.43374972399477
 21
660.1817663239176
  0
LINE
  8
_0-1_計細線
  6
CONTINUOUS
 62
    3
 10
471.43374972399477
 20
652.18176632391771
 11
328.51120254876275
 21
652.18176632391771
  0
LINE
  8
_0-1_計細線
  6
CONTINUOUS
 62
    3
 10
331.97801022558122
 20
646.18176632391749
 11
471.43374972399477
 21
646.18176632391749
  0
LINE
  8
_0-1_計細線
  6
CONTINUOUS
 62
    3
 10
471.43374972399477
 20
638.18176632391771
 11
334.84483545815999
 21
638.18176632391771
  0
LINE
  8
_0-1_計細線
  6
CONTINUOUS
 62
    3
 10
335.07598100013945
 20
632.18176632391737
 11
471.43374972399477
 21
632.18176632391737
  0
LINE
  8
_0-1_計細線
  6
CONTINUOUS
 62
    3
 10
471.43374972399477
 20
624.18176632391783
 11
332.96187655681877
 21
624.18176632391783
  0
LINE
  8
_0-1_計細線
  6
CONTINUOUS
 62
    3
 10
330.24382048635914
 20
618.18176632391726
 11
471.43374972399477
 21
618.18176632391726
  0
LINE
  8
_0-1_計細線
  6
CONTINUOUS
 62
    3
 10
471.43374972399477
 20
610.18176632391771
 11
325.90706728975454
 21
610.18176632391771
  0
LINE
  8
_0-1_計細線
  6
CONTINUOUS
 62
    3
 10
1123.9604321582351
 20
702.18176632391737
 11
978.43374972399431
 21
702.18176632391737
  0
LINE
  8
_0-1_計細線
  6
CONTINUOUS
 62
    3
 10
978.43374972399431
 20
702.18176632391737
 11
978.43374972399431
 21
694.18176632391783
  0
LINE
  8
_0-1_計細線
  6
CONTINUOUS
 62
    3
 10
978.43374972399431
 20
694.18176632391783
 11
1128.2971853548402
 21
694.18176632391783
  0
LINE
  8
_0-1_計細線
  6
CONTINUOUS
 62
    3
 10
978.43374972399431
 20
688.18176632391726
 11
978.43374972399431
 21
682.18176632391737
  0
LINE
  8
_0-1_計細線
  6
CONTINUOUS
 62
    3
 10
978.43374972399431
 20
688.18176632391726
 11
978.43374972399431
 21
680.18176632391771
  0
LINE
  8
_0-1_計細線
  6
CONTINUOUS
 62
    3
 10
978.43374972399431
 20
674.18176632391749
 11
978.43374972399431
 21
668.1817663239176
  0
LINE
  8
_0-1_計細線
  6
CONTINUOUS
 62
    3
 10
978.43374972399431
 20
674.18176632391783
 11
978.43374972399431
 21
666.18176632391794
  0
LINE
  8
_0-1_計細線
  6
CONTINUOUS
 62
    3
 10
978.43374972399431
 20
660.18176632391726
 11
978.43374972399431
 21
654.18176632391737
  0
LINE
  8
_0-1_計細線
  6
CONTINUOUS
 62
    3
 10
978.43374972399431
 20
660.1817663239176
 11
978.43374972399431
 21
652.18176632391771
  0
LINE
  8
_0-1_計細線
  6
CONTINUOUS
 62
    3
 10
978.43374972399431
 20
646.18176632391726
 11
978.43374972399431
 21
640.18176632391726
  0
LINE
  8
_0-1_計細線
  6
CONTINUOUS
 62
    3
 10
978.43374972399431
 20
646.18176632391749
 11
978.43374972399431
 21
638.18176632391771
  0
LINE
  8
_0-1_計細線
  6
CONTINUOUS
 62
    3
 10
978.43374972399431
 20
632.18176632391737
 11
978.43374972399431
 21
626.18176632391726
  0
LINE
  8
_0-1_計細線
  6
CONTINUOUS
 62
    3
 10
978.43374972399431
 20
632.18176632391737
 11
978.43374972399431
 21
624.18176632391783
  0
LINE
  8
_0-1_計細線
  6
CONTINUOUS
 62
    3
 10
978.43374972399431
 20
618.18176632391726
 11
978.43374972399431
 21
612.18176632391737
  0
LINE
  8
_0-1_計細線
  6
CONTINUOUS
 62
    3
 10
978.43374972399431
 20
618.18176632391726
 11
978.43374972399431
 21
610.18176632391771
  0
LINE
  8
_0-1_計細線
  6
CONTINUOUS
 62
    3
 10
1131.0152414252993
 20
688.18176632391726
 11
978.43374972399431
 21
688.18176632391726
  0
LINE
  8
_0-1_計細線
  6
CONTINUOUS
 62
    3
 10
978.43374972399431
 20
680.18176632391771
 11
1133.12934586862
 21
680.18176632391771
  0
LINE
  8
_0-1_計細線
  6
CONTINUOUS
 62
    3
 10
1132.898200326641
 20
674.18176632391783
 11
978.43374972399431
 21
674.18176632391783
  0
LINE
  8
_0-1_計細線
  6
CONTINUOUS
 62
    3
 10
978.43374972399431
 20
666.18176632391794
 11
1130.0313750940627
 21
666.18176632391794
  0
LINE
  8
_0-1_計細線
  6
CONTINUOUS
 62
    3
 10
1126.5645674172438
 20
660.1817663239176
 11
978.43374972399431
 21
660.1817663239176
  0
LINE
  8
_0-1_計細線
  6
CONTINUOUS
 62
    3
 10
978.43374972399431
 20
652.18176632391771
 11
1121.3562968992269
 21
652.18176632391771
  0
LINE
  8
_0-1_計細線
  6
CONTINUOUS
 62
    3
 10
1117.889489222408
 20
646.18176632391749
 11
978.43374972399431
 21
646.18176632391749
  0
LINE
  8
_0-1_計細線
  6
CONTINUOUS
 62
    3
 10
978.43374972399431
 20
638.18176632391771
 11
1115.0226639898292
 21
638.18176632391771
  0
LINE
  8
_0-1_計細線
  6
CONTINUOUS
 62
    3
 10
1114.7915184478497
 20
632.18176632391737
 11
978.43374972399431
 21
632.18176632391737
  0
LINE
  8
_0-1_計細線
  6
CONTINUOUS
 62
    3
 10
978.43374972399431
 20
624.18176632391783
 11
1116.9056228911709
 21
624.18176632391783
  0
LINE
  8
_0-1_計細線
  6
CONTINUOUS
 62
    3
 10
1119.62367896163
 20
618.18176632391726
 11
978.43374972399431
 21
618.18176632391726
  0
LINE
  8
_0-1_計細線
  6
CONTINUOUS
 62
    3
 10
978.43374972399431
 20
610.18176632391771
 11
1123.9604321582351
 21
610.18176632391771
  0
LINE
  8
_0-0_計極細
  6
CONTINUOUS
 62
    2
 10
577.43374972399442
 20
694.18176632391783
 11
577.43374972399442
 21
688.18176632391726
  0
LINE
  8
_0-0_計極細
  6
CONTINUOUS
 62
    2
 10
572.43374972399442
 20
688.18176632391726
 11
572.43374972399442
 21
694.18176632391783
  0
LINE
  8
_0-0_計極細
  6
CONTINUOUS
 62
    2
 10
577.43374972399442
 20
680.1817663239176
 11
577.43374972399442
 21
674.18176632391737
  0
LINE
  8
_0-0_計極細
  6
CONTINUOUS
 62
    2
 10
572.43374972399442
 20
674.18176632391703
 11
572.43374972399442
 21
680.1817663239176
  0
LINE
  8
_0-0_計極細
  6
CONTINUOUS
 62
    2
 10
577.43374972399442
 20
666.18176632391749
 11
577.43374972399442
 21
660.18176632391703
  0
LINE
  8
_0-0_計極細
  6
CONTINUOUS
 62
    2
 10
572.43374972399442
 20
660.18176632391703
 11
572.43374972399442
 21
666.18176632391749
  0
LINE
  8
_0-0_計極細
  6
CONTINUOUS
 62
    2
 10
577.43374972399442
 20
652.18176632391737
 11
577.43374972399442
 21
646.1817663239168
  0
LINE
  8
_0-0_計極細
  6
CONTINUOUS
 62
    2
 10
572.43374972399442
 20
646.1817663239168
 11
572.43374972399442
 21
652.18176632391737
  0
LINE
  8
_0-0_計極細
  6
CONTINUOUS
 62
    2
 10
577.43374972399442
 20
638.18176632391726
 11
577.43374972399442
 21
632.1817663239168
  0
LINE
  8
_0-0_計極細
  6
CONTINUOUS
 62
    2
 10
572.43374972399442
 20
632.1817663239168
 11
572.43374972399442
 21
638.18176632391726
  0
LINE
  8
_0-0_計極細
  6
CONTINUOUS
 62
    2
 10
577.43374972399442
 20
624.18176632391726
 11
577.43374972399442
 21
618.1817663239168
  0
LINE
  8
_0-0_計極細
  6
CONTINUOUS
 62
    2
 10
572.43374972399442
 20
618.1817663239168
 11
572.43374972399442
 21
624.18176632391726
  0
LINE
  8
_0-0_計極細
  6
CONTINUOUS
 62
    2
 10
677.43374972399442
 20
694.18176632391783
 11
677.43374972399442
 21
688.18176632391726
  0
LINE
  8
_0-0_計極細
  6
CONTINUOUS
 62
    2
 10
672.43374972399442
 20
688.18176632391726
 11
672.43374972399442
 21
694.18176632391783
  0
LINE
  8
_0-0_計極細
  6
CONTINUOUS
 62
    2
 10
677.43374972399442
 20
680.1817663239176
 11
677.43374972399442
 21
674.18176632391737
  0
LINE
  8
_0-0_計極細
  6
CONTINUOUS
 62
    2
 10
672.43374972399442
 20
674.18176632391703
 11
672.43374972399442
 21
680.1817663239176
  0
LINE
  8
_0-0_計極細
  6
CONTINUOUS
 62
    2
 10
677.43374972399442
 20
666.18176632391749
 11
677.43374972399442
 21
660.18176632391703
  0
LINE
  8
_0-0_計極細
  6
CONTINUOUS
 62
    2
 10
672.43374972399442
 20
660.18176632391703
 11
672.43374972399442
 21
666.18176632391749
  0
LINE
  8
_0-0_計極細
  6
CONTINUOUS
 62
    2
 10
677.43374972399442
 20
652.18176632391737
 11
677.43374972399442
 21
646.1817663239168
  0
LINE
  8
_0-0_計極細
  6
CONTINUOUS
 62
    2
 10
672.43374972399442
 20
646.1817663239168
 11
672.43374972399442
 21
652.18176632391737
  0
LINE
  8
_0-0_計極細
  6
CONTINUOUS
 62
    2
 10
677.43374972399442
 20
638.18176632391726
 11
677.43374972399442
 21
632.1817663239168
  0
LINE
  8
_0-0_計極細
  6
CONTINUOUS
 62
    2
 10
672.43374972399442
 20
632.1817663239168
 11
672.43374972399442
 21
638.18176632391726
  0
LINE
  8
_0-0_計極細
  6
CONTINUOUS
 62
    2
 10
677.43374972399442
 20
624.18176632391726
 11
677.43374972399442
 21
618.1817663239168
  0
LINE
  8
_0-0_計極細
  6
CONTINUOUS
 62
    2
 10
672.43374972399442
 20
618.1817663239168
 11
672.43374972399442
 21
624.18176632391726
  0
LINE
  8
_0-0_計極細
  6
CONTINUOUS
 62
    2
 10
777.43374972399442
 20
694.18176632391783
 11
777.43374972399442
 21
688.18176632391726
  0
LINE
  8
_0-0_計極細
  6
CONTINUOUS
 62
    2
 10
772.43374972399442
 20
688.18176632391726
 11
772.43374972399442
 21
694.18176632391783
  0
LINE
  8
_0-0_計極細
  6
CONTINUOUS
 62
    2
 10
777.43374972399442
 20
680.1817663239176
 11
777.43374972399442
 21
674.18176632391737
  0
LINE
  8
_0-0_計極細
  6
CONTINUOUS
 62
    2
 10
772.43374972399442
 20
674.18176632391703
 11
772.43374972399442
 21
680.1817663239176
  0
LINE
  8
_0-0_計極細
  6
CONTINUOUS
 62
    2
 10
777.43374972399442
 20
666.18176632391749
 11
777.43374972399442
 21
660.18176632391703
  0
LINE
  8
_0-0_計極細
  6
CONTINUOUS
 62
    2
 10
772.43374972399442
 20
660.18176632391703
 11
772.43374972399442
 21
666.18176632391749
  0
LINE
  8
_0-0_計極細
  6
CONTINUOUS
 62
    2
 10
777.43374972399442
 20
652.18176632391737
 11
777.43374972399442
 21
646.1817663239168
  0
LINE
  8
_0-0_計極細
  6
CONTINUOUS
 62
    2
 10
772.43374972399442
 20
646.1817663239168
 11
772.43374972399442
 21
652.18176632391737
  0
LINE
  8
_0-0_計極細
  6
CONTINUOUS
 62
    2
 10
777.43374972399442
 20
638.18176632391726
 11
777.43374972399442
 21
632.1817663239168
  0
LINE
  8
_0-0_計極細
  6
CONTINUOUS
 62
    2
 10
772.43374972399442
 20
632.1817663239168
 11
772.43374972399442
 21
638.18176632391726
  0
LINE
  8
_0-0_計極細
  6
CONTINUOUS
 62
    2
 10
777.43374972399442
 20
624.18176632391726
 11
777.43374972399442
 21
618.1817663239168
  0
LINE
  8
_0-0_計極細
  6
CONTINUOUS
 62
    2
 10
772.43374972399442
 20
618.1817663239168
 11
772.43374972399442
 21
624.18176632391726
  0
LINE
  8
_0-0_計極細
  6
CONTINUOUS
 62
    2
 10
877.43374972399442
 20
694.18176632391783
 11
877.43374972399442
 21
688.18176632391726
  0
LINE
  8
_0-0_計極細
  6
CONTINUOUS
 62
    2
 10
872.43374972399442
 20
688.18176632391726
 11
872.43374972399442
 21
694.18176632391783
  0
LINE
  8
_0-0_計極細
  6
CONTINUOUS
 62
    2
 10
877.43374972399442
 20
680.1817663239176
 11
877.43374972399442
 21
674.18176632391737
  0
LINE
  8
_0-0_計極細
  6
CONTINUOUS
 62
    2
 10
872.43374972399442
 20
674.18176632391703
 11
872.43374972399442
 21
680.1817663239176
  0
LINE
  8
_0-0_計極細
  6
CONTINUOUS
 62
    2
 10
877.43374972399442
 20
666.18176632391749
 11
877.43374972399442
 21
660.18176632391703
  0
LINE
  8
_0-0_計極細
  6
CONTINUOUS
 62
    2
 10
872.43374972399442
 20
660.18176632391703
 11
872.43374972399442
 21
666.18176632391749
  0
LINE
  8
_0-0_計極細
  6
CONTINUOUS
 62
    2
 10
877.43374972399442
 20
652.18176632391737
 11
877.43374972399442
 21
646.1817663239168
  0
LINE
  8
_0-0_計極細
  6
CONTINUOUS
 62
    2
 10
872.43374972399442
 20
646.1817663239168
 11
872.43374972399442
 21
652.18176632391737
  0
LINE
  8
_0-0_計極細
  6
CONTINUOUS
 62
    2
 10
877.43374972399442
 20
638.18176632391726
 11
877.43374972399442
 21
632.1817663239168
  0
LINE
  8
_0-0_計極細
  6
CONTINUOUS
 62
    2
 10
872.43374972399442
 20
632.1817663239168
 11
872.43374972399442
 21
638.18176632391726
  0
LINE
  8
_0-0_計極細
  6
CONTINUOUS
 62
    2
 10
877.43374972399442
 20
624.18176632391726
 11
877.43374972399442
 21
618.1817663239168
  0
LINE
  8
_0-0_計極細
  6
CONTINUOUS
 62
    2
 10
872.43374972399442
 20
618.1817663239168
 11
872.43374972399442
 21
624.18176632391726
  0
LINE
  8
_0-0_計極細
  6
CONTINUOUS
 62
    2
 10
1077.4337497239944
 20
694.18176632391783
 11
1077.4337497239944
 21
688.18176632391726
  0
LINE
  8
_0-0_計極細
  6
CONTINUOUS
 62
    2
 10
1072.4337497239944
 20
688.18176632391726
 11
1072.4337497239944
 21
694.18176632391783
  0
LINE
  8
_0-0_計極細
  6
CONTINUOUS
 62
    2
 10
1077.4337497239944
 20
680.1817663239176
 11
1077.4337497239944
 21
674.18176632391737
  0
LINE
  8
_0-0_計極細
  6
CONTINUOUS
 62
    2
 10
1072.4337497239944
 20
674.18176632391703
 11
1072.4337497239944
 21
680.1817663239176
  0
LINE
  8
_0-0_計極細
  6
CONTINUOUS
 62
    2
 10
1077.4337497239944
 20
666.18176632391749
 11
1077.4337497239944
 21
660.18176632391703
  0
LINE
  8
_0-0_計極細
  6
CONTINUOUS
 62
    2
 10
1072.4337497239944
 20
660.18176632391703
 11
1072.4337497239944
 21
666.18176632391749
  0
LINE
  8
_0-0_計極細
  6
CONTINUOUS
 62
    2
 10
1077.4337497239944
 20
652.18176632391737
 11
1077.4337497239944
 21
646.1817663239168
  0
LINE
  8
_0-0_計極細
  6
CONTINUOUS
 62
    2
 10
1072.4337497239944
 20
646.1817663239168
 11
1072.4337497239944
 21
652.18176632391737
  0
LINE
  8
_0-0_計極細
  6
CONTINUOUS
 62
    2
 10
1077.4337497239944
 20
638.18176632391726
 11
1077.4337497239944
 21
632.1817663239168
  0
LINE
  8
_0-0_計極細
  6
CONTINUOUS
 62
    2
 10
1072.4337497239944
 20
632.1817663239168
 11
1072.4337497239944
 21
638.18176632391726
  0
LINE
  8
_0-0_計極細
  6
CONTINUOUS
 62
    2
 10
1077.4337497239944
 20
624.18176632391726
 11
1077.4337497239944
 21
618.1817663239168
  0
LINE
  8
_0-0_計極細
  6
CONTINUOUS
 62
    2
 10
1072.4337497239944
 20
618.1817663239168
 11
1072.4337497239944
 21
624.18176632391726
  0
LINE
  8
_0-0_計極細
  6
CONTINUOUS
 62
    2
 10
377.43374972399431
 20
694.18176632391783
 11
377.43374972399431
 21
688.18176632391726
  0
LINE
  8
_0-0_計極細
  6
CONTINUOUS
 62
    2
 10
372.43374972399431
 20
688.18176632391726
 11
372.43374972399431
 21
694.18176632391783
  0
LINE
  8
_0-0_計極細
  6
CONTINUOUS
 62
    2
 10
377.43374972399431
 20
680.1817663239176
 11
377.43374972399431
 21
674.18176632391737
  0
LINE
  8
_0-0_計極細
  6
CONTINUOUS
 62
    2
 10
372.43374972399431
 20
674.18176632391703
 11
372.43374972399431
 21
680.1817663239176
  0
LINE
  8
_0-0_計極細
  6
CONTINUOUS
 62
    2
 10
377.43374972399431
 20
666.18176632391749
 11
377.43374972399431
 21
660.18176632391703
  0
LINE
  8
_0-0_計極細
  6
CONTINUOUS
 62
    2
 10
372.43374972399431
 20
660.18176632391703
 11
372.43374972399431
 21
666.18176632391749
  0
LINE
  8
_0-0_計極細
  6
CONTINUOUS
 62
    2
 10
377.43374972399431
 20
652.18176632391737
 11
377.43374972399431
 21
646.1817663239168
  0
LINE
  8
_0-0_計極細
  6
CONTINUOUS
 62
    2
 10
372.43374972399431
 20
646.1817663239168
 11
372.43374972399431
 21
652.18176632391737
  0
LINE
  8
_0-0_計極細
  6
CONTINUOUS
 62
    2
 10
377.43374972399431
 20
638.18176632391726
 11
377.43374972399431
 21
632.1817663239168
  0
LINE
  8
_0-0_計極細
  6
CONTINUOUS
 62
    2
 10
372.43374972399431
 20
632.1817663239168
 11
372.43374972399431
 21
638.18176632391726
  0
LINE
  8
_0-0_計極細
  6
CONTINUOUS
 62
    2
 10
377.43374972399431
 20
624.18176632391726
 11
377.43374972399431
 21
618.1817663239168
  0
LINE
  8
_0-0_計極細
  6
CONTINUOUS
 62
    2
 10
372.43374972399431
 20
618.1817663239168
 11
372.43374972399431
 21
624.18176632391726
  0
TEXT
  8
_0-5_寸法線
 62
    7
 10
593.67073211893603
 20
549.66624679621293
 40
15
 41
0.8000000000000001
 50
0
  1
ＧＳＬ－２０
  0
TEXT
  8
_0-5_寸法線
 62
    7
 10
813.27081845336022
 20
549.66624679621293
 40
15
 41
0.8000000000000001
 50
0
  1
ＧＳＴ－２０Ｗ９２
  0
TEXT
  8
_0-7_枠細線
 62
    5
 10
965.50000000000011
 20
110
 40
20
 41
0.6
 50
0
  1
ＧＳＴ－２０Ｗ９２
  0
TEXT
  8
_0-7_枠細線
 62
    5
 10
965.49999999999966
 20
70
 40
20.000000000000004
 41
0.5999999999999997
 50
0
  1
表面形状については記号表参照のこと
  0
LINE
  8
_0-7_枠細線
  6
CONTINUOUS
 62
    5
 10
1409.4018171150183
 20
328.47321710336234
 11
1409.4018171150183
 21
223.47321710336274
  0
TEXT
  8
_0-7_枠細線
 62
    5
 10
1318.4018171150192
 20
308.47321710336234
 40
15.000000000000002
 41
0.8
 50
0
  1
ノンスリップ
  0
TEXT
  8
_0-7_枠細線
 62
    5
 10
1330.4018171150185
 20
283.47321710336234
 40
15.000000000000002
 41
0.8
 50
0
  1
品番－Ｄ
  0
LINE
  8
_0-7_枠細線
  6
CONTINUOUS
 62
    5
 10
1299.4018171150178
 20
328.47321710336234
 11
1299.4018171150178
 21
223.47321710336274
  0
TEXT
  8
_0-7_枠細線
 62
    5
 10
1220.4018171150178
 20
308.4732171033624
 40
15.000000000000002
 41
0.8
 50
0
  1
プレーン
  0
TEXT
  8
_0-7_枠細線
 62
    5
 10
1220.4018171150185
 20
283.47321710336234
 40
15.000000000000002
 41
0.8
 50
0
  1
品番－Ｆ
  0
TEXT
  8
_0-7_枠細線
 62
    5
 10
1140.4018171150183
 20
308.47321710336234
 40
15.000000000000002
 41
0.8
 50
0
  1
タ イ プ
  0
LINE
  8
_0-7_枠細線
  6
CONTINUOUS
 62
    5
 10
1139.4018171150174
 20
278.47321710336234
 11
1409.4018171150183
 21
278.47321710336234
  0
LINE
  8
_0-7_枠細線
  6
CONTINUOUS
 62
    5
 10
1139.4018171150174
 20
303.47321710336234
 11
1409.4018171150183
 21
303.47321710336234
  0
LINE
  8
_0-7_枠細線
  6
CONTINUOUS
 62
    5
 10
1139.4018171150174
 20
328.47321710336234
 11
1409.4018171150183
 21
328.47321710336234
  0
LINE
  8
_0-7_枠細線
  6
CONTINUOUS
 62
    5
 10
1139.4018171150174
 20
223.47321710336274
 11
1409.4018171150183
 21
223.47321710336274
  0
LINE
  8
_0-7_枠細線
  6
CONTINUOUS
 62
    5
 10
1189.4018171150183
 20
328.47321710336234
 11
1189.4018171150183
 21
223.47321710336274
  0
LINE
  8
_0-7_枠細線
  6
CONTINUOUS
 62
    5
 10
1139.4018171150174
 20
328.47321710336234
 11
1139.4018171150174
 21
223.47321710336274
  0
TEXT
  8
_0-7_枠細線
 62
    5
 10
1140.4018171150183
 20
243.47321710336257
 40
15.000000000000002
 41
0.8
 50
0
  1
表面形状
  0
TEXT
  8
_0-7_枠細線
 62
    5
 10
1147.1760284558286
 20
330.9732171033624
 40
17.500000000000004
 41
0.7999999999999996
 50
0
  1
記号表
  0
TEXT
  8
_0-7_枠細線
 62
    5
 10
1140.4018171150183
 20
283.47321710336246
 40
15.000000000000002
 41
0.8
 50
0
  1
記　　号
  0
ARC
  8
_0-7_枠細線
  6
CONTINUOUS
 62
    5
 10
1282.9664605906703
 20
242.85777402966897
 40
12.026499332130607
 50
317.5616290000047
 51
42.438370999994966
  0
ARC
  8
_0-7_枠細線
  6
CONTINUOUS
 62
    5
 10
1300.7176602555628
 20
259.08866002804609
 40
12.026499332130607
 50
137.56162900000001
 51
222.43837100000297
  0
ARC
  8
_0-7_枠細線
  6
CONTINUOUS
 62
    5
 10
1188.0859738141417
 20
242.85777402966897
 40
12.026499332130607
 50
317.5616290000047
 51
42.438370999994966
  0
ARC
  8
_0-7_枠細線
  6
CONTINUOUS
 62
    5
 10
1205.8371734790342
 20
259.08866002804609
 40
12.026499332130607
 50
137.56162900000001
 51
222.43837100000297
  0
LINE
  8
_0-7_枠細線
  6
CONTINUOUS
 62
    5
 10
1194.4553061852557
 20
262.97321702885733
 11
1289.3357929617841
 21
262.97321702885733
  0
LINE
  8
_0-7_枠細線
  6
CONTINUOUS
 62
    5
 10
1294.3483278844485
 20
238.97321702885733
 11
1199.4678411079201
 21
238.97321702885733
  0
ARC
  8
_0-7_枠細線
  6
CONTINUOUS
 62
    5
 10
1392.966460590671
 20
242.85777402966897
 40
12.026499332130607
 50
317.5616290000047
 51
42.438370999994966
  0
ARC
  8
_0-7_枠細線
  6
CONTINUOUS
 62
    5
 10
1410.7176602555635
 20
259.08866002804609
 40
12.026499332130607
 50
137.56162900000001
 51
222.43837100000297
  0
ARC
  8
_0-7_枠細線
  6
CONTINUOUS
 62
    5
 10
1298.0859738141421
 20
242.85777402966897
 40
12.026499332130607
 50
317.5616290000047
 51
42.438370999994966
  0
ARC
  8
_0-7_枠細線
  6
CONTINUOUS
 62
    5
 10
1315.8371734790348
 20
259.08866002804609
 40
12.026499332130607
 50
137.56162900000001
 51
222.43837100000297
  0
LINE
  8
_0-7_枠細線
  6
CONTINUOUS
 62
    5
 10
1304.4553061852562
 20
262.97321702885733
 11
1399.3357929617846
 21
262.97321702885733
  0
LINE
  8
_0-7_枠細線
  6
CONTINUOUS
 62
    5
 10
1404.3483278844492
 20
238.97321702885733
 11
1309.4678411079208
 21
238.97321702885733
  0
LINE
  8
_0-7_枠細線
  6
CONTINUOUS
 62
    5
 10
1310.0055655050667
 20
244.4577803132122
 11
1315.4901287894213
 21
238.9732170288575
  0
LINE
  8
_0-7_枠細線
  6
CONTINUOUS
 62
    5
 10
1304.3960893257238
 20
262.79517855391305
 11
1328.218050850779
 21
238.97321702885748
  0
LINE
  8
_0-7_枠細線
  6
CONTINUOUS
 62
    5
 10
1316.9459729121372
 20
262.97321702885756
 11
1340.9459729121368
 21
238.97321702885748
  0
LINE
  8
_0-7_枠細線
  6
CONTINUOUS
 62
    5
 10
1329.6738949734947
 20
262.97321702885745
 11
1353.6738949734945
 21
238.97321702885748
  0
LINE
  8
_0-7_枠細線
  6
CONTINUOUS
 62
    5
 10
1342.4018170348527
 20
262.97321702885745
 11
1366.4018170348525
 21
238.97321702885745
  0
LINE
  8
_0-7_枠細線
  6
CONTINUOUS
 62
    5
 10
1355.1297390962102
 20
262.97321702885739
 11
1379.12973909621
 21
238.97321702885739
  0
LINE
  8
_0-7_枠細線
  6
CONTINUOUS
 62
    5
 10
1367.8576611575681
 20
262.97321702885739
 11
1391.8576611575677
 21
238.97321702885739
  0
LINE
  8
_0-7_枠細線
  6
CONTINUOUS
 62
    5
 10
1380.5855832189261
 20
262.97321702885739
 11
1404.4075447439814
 21
239.15125550380145
  0
LINE
  8
_0-7_枠細線
  6
CONTINUOUS
 62
    5
 10
1393.3135052802836
 20
262.97321702885733
 11
1398.7980685646389
 21
257.48865374450207
  0
LINE
  8
_0-7_枠細線
  6
CONTINUOUS
 62
    5
 10
1393.3135052802843
 20
238.97321702885739
 11
1403.3188705607763
 21
248.97858230934932
  0
LINE
  8
_0-7_枠細線
  6
CONTINUOUS
 62
    5
 10
1380.5855832189263
 20
238.97321702885739
 11
1398.8365633238182
 21
257.22419713374904
  0
LINE
  8
_0-7_枠細線
  6
CONTINUOUS
 62
    5
 10
1367.8576611575684
 20
238.97321702885745
 11
1391.8576611575686
 21
262.97321702885733
  0
LINE
  8
_0-7_枠細線
  6
CONTINUOUS
 62
    5
 10
1355.1297390962109
 20
238.97321702885748
 11
1379.1297390962106
 21
262.97321702885739
  0
LINE
  8
_0-7_枠細線
  6
CONTINUOUS
 62
    5
 10
1342.4018170348527
 20
238.97321702885748
 11
1366.4018170348527
 21
262.97321702885739
  0
LINE
  8
_0-7_枠細線
  6
CONTINUOUS
 62
    5
 10
1329.673894973495
 20
238.97321702885748
 11
1353.673894973495
 21
262.97321702885739
  0
LINE
  8
_0-7_枠細線
  6
CONTINUOUS
 62
    5
 10
1316.9459729121374
 20
238.9732170288575
 11
1340.9459729121372
 21
262.97321702885745
  0
LINE
  8
_0-7_枠細線
  6
CONTINUOUS
 62
    5
 10
1309.9670707458877
 20
244.72223692396568
 11
1328.2180508507793
 21
262.97321702885745
  0
LINE
  8
_0-7_枠細線
  6
CONTINUOUS
 62
    5
 10
1305.4847635089297
 20
252.96785174836555
 11
1315.4901287894218
 21
262.97321702885756
  0
LINE
  8
_0-a_極細3
  6
CONTINUOUS
 62
    7
 10
559.26399310350553
 20
251.56810602460041
 11
555.43065977017204
 21
251.56810602460041
  0
LINE
  8
_0-a_極細3
  6
CONTINUOUS
 62
    7
 10
559.26399310350553
 20
254.9014393579339
 11
555.43065977017204
 21
254.9014393579339
  0
LINE
  8
_0-a_極細3
  6
CONTINUOUS
 62
    7
 10
559.26399310350553
 20
248.23477269126715
 11
555.43065977017204
 21
248.23477269126715
  0
LINE
  8
_0-a_極細3
  6
CONTINUOUS
 62
    7
 10
559.26399310350553
 20
258.23477269126715
 11
555.43065977017204
 21
258.23477269126715
  0
LINE
  8
_0-a_極細3
  6
CONTINUOUS
 62
    7
 10
555.43065977017204
 20
224.9014393579339
 11
559.26399310350553
 21
224.9014393579339
  0
LINE
  8
_0-a_極細3
  6
CONTINUOUS
 62
    7
 10
559.26399310350553
 20
274.9014393579339
 11
555.43065977017204
 21
274.9014393579339
  0
LINE
  8
_0-b_細線3
  6
CONTINUOUS
 62
    7
 10
555.43065977017204
 20
278.23477269126715
 11
555.43065977017204
 21
219.9014393579339
  0
LINE
  8
_0-b_細線3
  6
CONTINUOUS
 62
    7
 10
555.43065977017204
 20
219.9014393579339
 11
559.26399310350553
 21
219.9014393579339
  0
LINE
  8
_0-b_細線3
  6
CONTINUOUS
 62
    7
 10
559.26399310350553
 20
219.9014393579339
 11
559.26399310350553
 21
278.23477269126715
  0
LINE
  8
_0-b_細線3
  6
CONTINUOUS
 62
    7
 10
559.26399310350553
 20
278.23477269126715
 11
555.43065977017204
 21
278.23477269126715
  0
LINE
  8
_0-7_枠細線
  6
CONTINUOUS
 62
    5
 10
578.34986119674488
 20
255.9635226874212
 11
570.84986119674488
 21
270.96352268742118
  0
LINE
  8
_0-7_枠細線
  6
CONTINUOUS
 62
    5
 10
563.34986119674488
 20
255.9635226874212
 11
578.34986119674488
 21
255.9635226874212
  0
LINE
  8
_0-7_枠細線
  6
CONTINUOUS
 62
    5
 10
570.84986119674488
 20
270.96352268742118
 11
563.34986119674488
 21
255.9635226874212
  0
TEXT
  8
_0-7_枠細線
 62
    5
 10
565.71501246489311
 20
255.65652044204063
 40
12.5
 41
0.8
 50
0
  1
１
  0
LINE
  8
_0-a_極細3
  6
CONTINUOUS
 62
    7
 10
381.59732643683867
 20
251.56810602460041
 11
385.43065977017199
 21
251.56810602460041
  0
LINE
  8
_0-a_極細3
  6
CONTINUOUS
 62
    7
 10
381.59732643683867
 20
254.9014393579339
 11
385.43065977017199
 21
254.9014393579339
  0
LINE
  8
_0-a_極細3
  6
CONTINUOUS
 62
    7
 10
381.59732643683867
 20
248.23477269126715
 11
385.43065977017199
 21
248.23477269126715
  0
LINE
  8
_0-a_極細3
  6
CONTINUOUS
 62
    7
 10
381.59732643683867
 20
258.23477269126715
 11
385.43065977017199
 21
258.23477269126715
  0
LINE
  8
_0-a_極細3
  6
CONTINUOUS
 62
    7
 10
385.43065977017199
 20
224.9014393579339
 11
381.59732643683867
 21
224.9014393579339
  0
LINE
  8
_0-a_極細3
  6
CONTINUOUS
 62
    7
 10
381.59732643683867
 20
274.9014393579339
 11
385.43065977017199
 21
274.9014393579339
  0
LINE
  8
_0-b_細線3
  6
CONTINUOUS
 62
    7
 10
385.43065977017199
 20
278.23477269126715
 11
385.43065977017199
 21
219.9014393579339
  0
LINE
  8
_0-b_細線3
  6
CONTINUOUS
 62
    7
 10
385.43065977017199
 20
219.9014393579339
 11
381.59732643683867
 21
219.9014393579339
  0
LINE
  8
_0-b_細線3
  6
CONTINUOUS
 62
    7
 10
381.59732643683867
 20
219.9014393579339
 11
381.59732643683867
 21
278.23477269126715
  0
LINE
  8
_0-b_細線3
  6
CONTINUOUS
 62
    7
 10
381.59732643683867
 20
278.23477269126715
 11
385.43065977017199
 21
278.23477269126715
  0
LINE
  8
_0-9_枠極太
  6
CONTINUOUS
 62
    5
 10
60
 20
60
 11
60
 21
960
  0
LINE
  8
_0-9_枠極太
  6
CONTINUOUS
 62
    5
 10
60
 20
960
 11
1425
 21
960
  0
LINE
  8
_0-9_枠極太
  6
CONTINUOUS
 62
    5
 10
1425
 20
960
 11
1425
 21
60
  0
LINE
  8
_0-9_枠極太
  6
CONTINUOUS
 62
    5
 10
1425
 20
60
 11
60
 21
60
  0
LINE
  8
_0-7_枠細線
  6
CONTINUOUS
 62
    5
 10
1425
 20
907.5
 11
890
 21
907.5
  0
LINE
  8
_0-7_枠細線
  6
CONTINUOUS
 62
    5
 10
915
 20
908.94233397174708
 11
907.5
 21
923.94233397174708
  0
LINE
  8
_0-7_枠細線
  6
CONTINUOUS
 62
    5
 10
900
 20
908.94233397174708
 11
915
 21
908.94233397174708
  0
LINE
  8
_0-7_枠細線
  6
CONTINUOUS
 62
    5
 10
907.5
 20
923.94233397174708
 11
900
 21
908.94233397174708
  0
TEXT
  8
_0-7_枠細線
 62
    5
 10
902.36515126814822
 20
908.63533172636653
 40
12.5
 41
0.8
 50
0
  1
１
  0
TEXT
  8
_0-7_枠細線
 62
    5
 10
1180
 20
910
 40
12.5
 41
0.7199999999999999
 50
0
  1
２０１９．０９．０１
  0
TEXT
  8
_0-7_枠細線
 62
    5
 10
938.85037037037023
 20
910
 40
12.500000000000002
 41
1
 50
0
  1
アンカー材質･厚み変更
  0
LINE
  8
_0-7_枠細線
  6
CONTINUOUS
 62
    5
 10
890
 20
907.5
 11
890
 21
959.99999999999909
  0
LINE
  8
_0-7_枠細線
  6
CONTINUOUS
 62
    5
 10
925
 20
907.5
 11
925
 21
959.99999999999943
  0
LINE
  8
_0-7_枠細線
  6
CONTINUOUS
 62
    5
 10
1175
 20
907.5
 11
1175
 21
959.99999999999943
  0
LINE
  8
_0-7_枠細線
  6
CONTINUOUS
 62
    5
 10
1275
 20
907.5
 11
1275
 21
959.99999999999943
  0
TEXT
  8
_0-7_枠細線
 62
    5
 10
424.67527879760468
 20
116.01879135982301
 40
25
 41
0.8
 50
0
  1
断面詳細図
  0
TEXT
  8
_0-7_枠細線
 62
    5
 10
536.55367070244654
 20
117.11488018216365
 40
20
 41
0.6
 50
0
  1
Ｓ＝１：３
  0
LINE
  8
_0-5_寸法線
  6
CONTINUOUS
 62
    7
 10
1176.9337497239972
 20
605.18176632391589
 11
1221.9337497239972
 21
605.18176632391578
  0
LINE
  8
_0-5_寸法線
  6
CONTINUOUS
 62
    7
 10
1216.9337497239972
 20
605.18176632391578
 11
1219.5219401750223
 21
595.52250806102495
  0
LINE
  8
_0-5_寸法線
  6
CONTINUOUS
 62
    7
 10
1216.9337497239972
 20
605.18176632391578
 11
1214.345559272972
 21
595.52250806102495
  0
LINE
  8
_0-5_寸法線
  6
CONTINUOUS
 62
    7
 10
1176.9337497239972
 20
608.18176632391726
 11
1221.9337497239972
 21
608.18176632391726
  0
CIRCLE
  8
_0-5_寸法線
  6
CONTINUOUS
 62
    1
 10
1216.9337497239972
 20
608.18176632391726
 40
1.5000000000000002
  0
LINE
  8
_0-5_寸法線
  6
CONTINUOUS
 62
    7
 10
1216.9337497239972
 20
580.18176632391578
 11
1216.9337497239972
 21
608.18176632391726
  0
TEXT
  8
_0-5_寸法線
 62
    7
 10
1216.9337497239972
 20
583.9812352818916
 40
15
 41
1
 50
90
  1
3
  0
LINE
  8
_0-5_寸法線
  6
CONTINUOUS
 62
    7
 10
1176.9337497239972
 20
610.18176632391703
 11
1221.9337497239972
 21
610.18176632391703
  0
LINE
  8
_0-5_寸法線
  6
CONTINUOUS
 62
    7
 10
1216.9337497239972
 20
608.18176632391726
 11
1216.9337497239972
 21
610.18176632391703
  0
TEXT
  8
_0-5_寸法線
 62
    7
 10
1235.8391440720679
 20
608.18176632391726
 40
15
 41
1
 50
90
  1
2
  0
LINE
  8
_0-5_寸法線
  6
CONTINUOUS
 62
    7
 10
1216.9337497239972
 20
610.18176632391703
 11
1214.345559272972
 21
619.84102458680786
  0
LINE
  8
_0-5_寸法線
  6
CONTINUOUS
 62
    7
 10
1216.9337497239972
 20
610.18176632391703
 11
1219.5219401750223
 21
619.84102458680786
  0
LINE
  8
_0-5_寸法線
  6
CONTINUOUS
 62
    7
 10
1176.9337497239972
 20
702.18176632391703
 11
1221.9337497239972
 21
702.18176632391703
  0
LINE
  8
_0-5_寸法線
  6
CONTINUOUS
 62
    7
 10
1216.9337497239972
 20
702.18176632391703
 11
1219.5219401750223
 21
692.52250806102643
  0
LINE
  8
_0-5_寸法線
  6
CONTINUOUS
 62
    7
 10
1216.9337497239972
 20
702.18176632391703
 11
1214.345559272972
 21
692.52250806102643
  0
LINE
  8
_0-5_寸法線
  6
CONTINUOUS
 62
    7
 10
1216.9337497239972
 20
610.18176632391703
 11
1216.9337497239972
 21
702.18176632391703
  0
TEXT
  8
_0-5_寸法線
 62
    7
 10
1216.9337497239972
 20
648.6817663239168
 40
15
 41
1
 50
90
  1
92
  0
LINE
  8
_0-5_寸法線
  6
CONTINUOUS
 62
    7
 10
1176.9337497239972
 20
704.18176632391737
 11
1221.9337497239972
 21
704.18176632391703
  0
CIRCLE
  8
_0-5_寸法線
  6
CONTINUOUS
 62
    1
 10
1216.9337497239972
 20
704.18176632391703
 40
1.5000000000000002
  0
LINE
  8
_0-5_寸法線
  6
CONTINUOUS
 62
    7
 10
1216.9337497239972
 20
702.18176632391703
 11
1216.9337497239972
 21
704.18176632391703
  0
TEXT
  8
_0-5_寸法線
 62
    7
 10
1235.3459041020142
 20
696.68176632391737
 40
15
 41
1
 50
90
  1
2
  0
LINE
  8
_0-5_寸法線
  6
CONTINUOUS
 62
    7
 10
1176.9337497239972
 20
707.18176632391589
 11
1221.9337497239972
 21
707.18176632391578
  0
LINE
  8
_0-5_寸法線
  6
CONTINUOUS
 62
    7
 10
1216.9337497239972
 20
707.18176632391578
 11
1214.345559272972
 21
716.84102458680638
  0
LINE
  8
_0-5_寸法線
  6
CONTINUOUS
 62
    7
 10
1216.9337497239972
 20
707.18176632391578
 11
1219.5219401750223
 21
716.84102458680638
  0
LINE
  8
_0-5_寸法線
  6
CONTINUOUS
 62
    7
 10
1216.9337497239972
 20
704.18176632391703
 11
1216.9337497239972
 21
732.18176632391578
  0
TEXT
  8
_0-5_寸法線
 62
    7
 10
1216.9337497239972
 20
720.56910908161262
 40
15
 41
1
 50
90
  1
3
  0
LINE
  8
_0-d_寸法3
  6
CONTINUOUS
 62
    7
 10
385.43065977017199
 20
371.56810435625584
 11
375.77140150728127
 21
368.97991390523066
  0
LINE
  8
_0-d_寸法3
  6
CONTINUOUS
 62
    7
 10
385.43065977017199
 20
371.56810435625584
 11
375.77140150728133
 21
374.15629480728109
  0
LINE
  8
_0-d_寸法3
  6
CONTINUOUS
 62
    7
 10
390.43065977017199
 20
300.73477269126715
 11
390.43065977017199
 21
376.56810435625584
  0
CIRCLE
  8
_0-d_寸法3
  6
CONTINUOUS
 62
    1
 10
390.43065977017199
 20
371.56810435625584
 40
1.5000000000000002
  0
LINE
  8
_0-d_寸法3
  6
CONTINUOUS
 62
    7
 10
360.43065977017199
 20
371.56810435625584
 11
390.43065977017199
 21
371.56810435625584
  0
TEXT
  8
_0-d_寸法3
 62
    7
 10
364.28599182624879
 20
371.56810435625584
 40
15
 41
1
 50
0
  1
3
  0
LINE
  8
_0-d_寸法3
  6
CONTINUOUS
 62
    7
 10
393.76399310350507
 20
298.23477102292281
 11
393.76399310350558
 21
376.56810435625584
  0
LINE
  8
_0-d_寸法3
  6
CONTINUOUS
 62
    7
 10
390.43065977017199
 20
371.56810435625584
 11
393.76399310350553
 21
371.56810435625584
  0
TEXT
  8
_0-d_寸法3
 62
    7
 10
388.3473264368385
 20
371.56810435625584
 40
15
 41
1
 50
0
  1
2
  0
LINE
  8
_0-d_寸法3
  6
CONTINUOUS
 62
    7
 10
393.76399310350553
 20
371.56810435625584
 11
403.42325136639613
 21
374.15629480728109
  0
LINE
  8
_0-d_寸法3
  6
CONTINUOUS
 62
    7
 10
393.76399310350553
 20
371.56810435625584
 11
403.42325136639613
 21
368.97991390523066
  0
LINE
  8
_0-d_寸法3
  6
CONTINUOUS
 62
    7
 10
547.09732643683856
 20
298.23477102292281
 11
547.09732643683856
 21
376.56810435625584
  0
LINE
  8
_0-d_寸法3
  6
CONTINUOUS
 62
    7
 10
547.09732643683856
 20
371.56810435625584
 11
537.43806817394784
 21
368.97991390523066
  0
LINE
  8
_0-d_寸法3
  6
CONTINUOUS
 62
    7
 10
547.09732643683856
 20
371.56810435625584
 11
537.43806817394784
 21
374.15629480728109
  0
LINE
  8
_0-d_寸法3
  6
CONTINUOUS
 62
    7
 10
393.76399310350553
 20
371.56810435625584
 11
547.09732643683856
 21
371.56810435625584
  0
TEXT
  8
_0-d_寸法3
 62
    7
 10
462.93065977017159
 20
371.56810435625584
 40
15
 41
1
 50
0
  1
92
  0
LINE
  8
_0-d_寸法3
  6
CONTINUOUS
 62
    7
 10
550.43065977017159
 20
300.73477269126715
 11
550.43065977017159
 21
376.56810435625584
  0
CIRCLE
  8
_0-d_寸法3
  6
CONTINUOUS
 62
    1
 10
550.43065977017159
 20
371.56810435625584
 40
1.5000000000000002
  0
LINE
  8
_0-d_寸法3
  6
CONTINUOUS
 62
    7
 10
547.09732643683856
 20
371.56810435625584
 11
550.43065977017159
 21
371.56810435625584
  0
TEXT
  8
_0-d_寸法3
 62
    7
 10
545.01399310350462
 20
371.56810435625584
 40
15
 41
1
 50
0
  1
2
  0
LINE
  8
_0-d_寸法3
  6
CONTINUOUS
 62
    7
 10
555.43065977017159
 20
371.56810435625584
 11
565.0899180330623
 21
374.15629480728103
  0
LINE
  8
_0-d_寸法3
  6
CONTINUOUS
 62
    7
 10
555.43065977017159
 20
371.56810435625584
 11
565.0899180330623
 21
368.9799139052306
  0
LINE
  8
_0-d_寸法3
  6
CONTINUOUS
 62
    7
 10
550.43065977017159
 20
371.56810435625584
 11
580.43065977017159
 21
371.56810435625584
  0
TEXT
  8
_0-d_寸法3
 62
    7
 10
569.91537933317818
 20
371.56810435625584
 40
15
 41
1
 50
0
  1
3
  0
ENDSEC
  0
EOF
