  0
SECTION
  2
HEADER
  9
$ACADVER
  1
AC1009
  9
$INSBASE
 10
0
 20
0
 30
0
  9
$EXTMIN
 10
0
 20
0
  9
$EXTMAX
 10
1485
 20
1050
  9
$LIMMIN
 10
0
 20
0
  9
$LIMMAX
 10
1485
 20
1050
  9
$LTSCALE
 40
5
  0
ENDSEC
  0
SECTION
  2
TABLES
  0
TABLE
  2
LTYPE
 70
     9
  0
LTYPE
  2
CONTINUOUS
 70
    64
  3
実線
 72
    65
 73
     0
 40
0.0
  0
LTYPE
  2
DASHED1
 70
    64
  3
--  --  --  --  --  --  --  --  
 72
    65
 73
     2
 40
2.5
 49
1.25
 49
-1.25
  0
LTYPE
  2
DASHED2
 70
    64
  3
----    ----    ----    ----    
 72
    65
 73
     2
 40
5.0
 49
2.5
 49
-2.5
  0
LTYPE
  2
DASHED3
 70
    64
  3
------  ------  ------  ------  
 72
    65
 73
     2
 40
5.0
 49
3.75
 49
-1.25
  0
LTYPE
  2
CENTER1
 70
    64
  3
----- - ----- - ----- - ----- - 
 72
    65
 73
     4
 40
10.0
 49
6.25
 49
-1.25
 49
1.25
 49
-1.25
  0
LTYPE
  2
CENTER2
 70
    64
  3
----------  --  ----------  --  
 72
    65
 73
     4
 40
20.0
 49
12.5
 49
-2.5
 49
2.5
 49
-2.5
  0
LTYPE
  2
PHANTOM1
 70
    64
  3
--- - - --- - - --- - - --- - - 
 72
    65
 73
     6
 40
10.0
 49
3.25
 49
-1.25
 49
1.25
 49
-1.25
 49
1.25
 49
-1.25
  0
LTYPE
  2
PHANTOM2
 70
    64
  3
--------  -  -  --------  -  -  
 72
    65
 73
     6
 40
20.0
 49
10.0
 49
-2.5
 49
1.25
 49
-2.5
 49
1.25
 49
-2.5
  0
LTYPE
  2
DOT
 70
    64
  3
-   -   -   -   -   -   -   -   
 72
    65
 73
     2
 40
2.5
 49
0.625
 49
-1.875
  0
LTYPE
  2
DUMMY
 70
    64
  3
ダミー
 72
    65
 73
     0
 40
0.0
  0
LTYPE
  2
RAND1
 70
    64
  3
ランダム線1
 72
    65
 73
     4
 40
10.0
 49
1.0
 49
-2.0
 49
3.0
 49
-4.0
  0
LTYPE
  2
RAND2
 70
    64
  3
ランダム線2
 72
    65
 73
     4
 40
14.0
 49
2.0
 49
-3.0
 49
4.0
 49
-5.0
  0
LTYPE
  2
RAND3
 70
    64
  3
ランダム線3
 72
    65
 73
     4
 40
18.0
 49
3.0
 49
-4.0
 49
5.0
 49
-6.0
  0
LTYPE
  2
RAND4
 70
    64
  3
ランダム線4
 72
    65
 73
     4
 40
22.0
 49
4.0
 49
-5.0
 49
6.0
 49
-7.0
  0
LTYPE
  2
RAND5
 70
    64
  3
ランダム線5
 72
    65
 73
     4
 40
26.0
 49
5.0
 49
-6.0
 49
7.0
 49
-8.0
  0
LTYPE
  2
LONG1
 70
    64
  3
----------  --  ----------  --  
 72
    65
 73
     4
 40
40.0
 49
32.5
 49
-2.5
 49
2.5
 49
-2.5
  0
LTYPE
  2
LONG2
 70
    64
  3
--------  -  -  --------  -  -  
 72
    65
 73
     6
 40
40.0
 49
30.0
 49
-2.5
 49
1.25
 49
-2.5
 49
1.25
 49
-2.5
  0
LTYPE
  2
LONG3
 70
    64
  3
+++++++++++++++..+++++++++++++++
 72
    65
 73
     2
 40
40.0
 49
37.5
 49
-2.5
  0
LTYPE
  2
LONG4
 70
    64
  3
+++++++++++++++..+++++++++++++++
 72
    65
 73
     2
 40
80.0
 49
75.0
 49
-5.0
  0
LTYPE
  2
LONG5
 70
    64
  3
----------  --  ----------  --  
 72
    65
 73
     4
 40
60.0
 49
37.5
 49
-7.5
 49
7.5
 49
-7.5
  0
LTYPE
  2
dashed
 70
   64
  3
-------   -------------   ------
 72
   65
 73
    2
 40
7.5
 49
6
 49
-1.5
  0
LTYPE
  2
dashed_spaced
 70
   64
  3
----        --------        ----
 72
   65
 73
    2
 40
12
 49
6
 49
-6
  0
LTYPE
  2
long_dashed_dotted
 70
   64
  3
------------- --- --------------
 72
   65
 73
    4
 40
15.25
 49
12
 49
-1.5
 49
0.25
 49
-1.5
  0
LTYPE
  2
long_dashed_double-dotted
 70
   64
  3
----------- --- --- ------------
 72
   65
 73
    6
 40
17
 49
12
 49
-1.5
 49
0.25
 49
-1.5
 49
0.25
 49
-1.5
  0
LTYPE
  2
long_dashed_triplicate-dotted
 70
   64
  3
--------- --- --- --- ----------
 72
   65
 73
    8
 40
18.75
 49
12
 49
-1.5
 49
0.25
 49
-1.5
 49
0.25
 49
-1.5
 49
0.25
 49
-1.5
  0
LTYPE
  2
dotted
 70
   64
  3
   -       -       -       -    
 72
   65
 73
    2
 40
1.75
 49
0.25
 49
-1.5
  0
LTYPE
  2
chain
 70
   64
  3
-------------- -- --------------
 72
   65
 73
    4
 40
18.5
 49
12
 49
-1.5
 49
3.5
 49
-1.5
  0
LTYPE
  2
chain_double_dash
 70
   64
  3
------------ -- -- -------------
 72
   65
 73
    6
 40
23.5
 49
12
 49
-1.5
 49
3.5
 49
-1.5
 49
3.5
 49
-1.5
  0
LTYPE
  2
dashed_dotted
 70
   64
  3
-----------     -     ----------
 72
   65
 73
    4
 40
9.25
 49
6
 49
-1.5
 49
0.25
 49
-1.5
  0
LTYPE
  2
double-dashed_dotted
 70
   64
  3
------   -----------   -   -----
 72
   65
 73
    6
 40
16.75
 49
6
 49
-1.5
 49
6
 49
-1.5
 49
0.25
 49
-1.5
  0
LTYPE
  2
dashed_double-dotted
 70
   64
  3
---------    -    -    ---------
 72
   65
 73
    6
 40
11
 49
6
 49
-1.5
 49
0.25
 49
-1.5
 49
0.25
 49
-1.5
  0
LTYPE
  2
double-dashed_double-dotted
 70
   64
  3
-----   ---------   -   -   ----
 72
   65
 73
    8
 40
18.5
 49
6
 49
-1.5
 49
6
 49
-1.5
 49
0.25
 49
-1.5
 49
0.25
 49
-1.5
  0
LTYPE
  2
dashed_triplicate-dotted
 70
   64
  3
-------    -    -    -    ------
 72
   65
 73
    8
 40
12.75
 49
6
 49
-1.5
 49
0.25
 49
-1.5
 49
0.25
 49
-1.5
 49
0.25
 49
-1.5
  0
LTYPE
  2
double-dashed_triplicate-dotted
 70
   64
  3
-----  ---------  -  -  -  -----
 72
   65
 73
   10
 40
20.25
 49
6
 49
-1.5
 49
6
 49
-1.5
 49
0.25
 49
-1.5
 49
0.25
 49
-1.5
 49
0.25
 49
-1.5
  0
LTYPE
  2
undefined
 70
   64
  3
--------------------------------
 72
   65
 73
    0
 40
0
  0
ENDTAB
  0
TABLE
  2
STYLE
  5
3
100
AcDbSymbolTable
 70
     1
  0
STYLE
  5
10
100
AcDbSymbolTableRecord
100
AcDbTextStyleTableRecord
  2
STANDARD
 70
     0
 40
0.0
 41
1.0
 50
0.0
 71
     0
 42
0.2
  3
txt
  4
bigfont.shx
  0
STYLE
  5
26
100
AcDbSymbolTableRecord
100
AcDbTextStyleTableRecord
  2
TATEGAKI
 70
    68
 40
0.0
 41
1.0
 50
0.0
 71
     0
 42
1.0
  3
txt
  4
bigfont.shx
  0
ENDTAB
  0
TABLE
  2
LAYER
 70
   10
  0
LAYER
  2
_0-0_計極細
 70
   64
 62
    7
  6
CONTINUOUS
  0
LAYER
  2
_0-1_計細線
 70
   64
 62
    7
  6
CONTINUOUS
  0
LAYER
  2
_0-5_寸法線
 70
   64
 62
    7
  6
CONTINUOUS
  0
LAYER
  2
_0-7_枠細線
 70
   64
 62
    7
  6
CONTINUOUS
  0
LAYER
  2
_0-8_枠中線
 70
   64
 62
    7
  6
CONTINUOUS
  0
LAYER
  2
_0-9_枠極太
 70
   64
 62
    7
  6
CONTINUOUS
  0
LAYER
  2
_0-a_極細3
 70
   64
 62
    7
  6
CONTINUOUS
  0
LAYER
  2
_0-b_細線3
 70
   64
 62
    7
  6
CONTINUOUS
  0
LAYER
  2
_0-d_寸法3
 70
   64
 62
    7
  6
CONTINUOUS
  0
LAYER
  2
ADD_LINE
 70
   64
 62
    7
  6
CONTINUOUS
  0
ENDTAB
  0
ENDSEC
  0
SECTION
  2
BLOCKS
  0
ENDSEC
  0
SECTION
  2
ENTITIES
  0
LINE
  8
_0-7_枠細線
  6
CONTINUOUS
 62
    5
 10
1425
 20
942.5
 11
890
 21
942.5
  0
TEXT
  8
_0-7_枠細線
 62
    5
 10
895
 20
945
 40
12.5
 41
1
 50
0
  1
記号
  0
TEXT
  8
_0-7_枠細線
 62
    5
 10
996.875
 20
945
 40
12.5
 41
1
 50
0
  1
訂　 正　 記　 事
  0
TEXT
  8
_0-7_枠細線
 62
    5
 10
1181.25
 20
945
 40
12.5
 41
1
 50
0
  1
訂 正 年 月 日
  0
TEXT
  8
_0-7_枠細線
 62
    5
 10
1306.25
 20
945
 40
12.5
 41
1
 50
0
  1
備　　　　　考
  0
LINE
  8
_0-7_枠細線
  6
CONTINUOUS
 62
    5
 10
1185
 20
180
 11
1185
 21
100
  0
TEXT
  8
_0-7_枠細線
 62
    5
 10
937.5
 20
97.5
 40
17.5
 41
1
 50
0
  1
備考
  7
TATEGAKI
  0
TEXT
  8
_0-7_枠細線
 62
    5
 10
937.5
 20
137.5
 40
17.5
 41
1
 50
0
  1
品番
  7
TATEGAKI
  0
TEXT
  8
_0-7_枠細線
 62
    5
 10
937.5
 20
177.5
 40
17.5
 41
1
 50
0
  1
品名
  7
TATEGAKI
  0
LINE
  8
_0-7_枠細線
  6
CONTINUOUS
 62
    5
 10
1185
 20
140
 11
925
 21
140
  0
LINE
  8
_0-7_枠細線
  6
CONTINUOUS
 62
    5
 10
950
 20
180
 11
950
 21
60
  0
LINE
  8
_0-8_枠中線
  6
CONTINUOUS
 62
    5
 10
1425
 20
180
 11
925
 21
180
  0
LINE
  8
_0-8_枠中線
  6
CONTINUOUS
 62
    5
 10
925
 20
180
 11
925
 21
60
  0
LINE
  8
_0-7_枠細線
  6
CONTINUOUS
 62
    5
 10
1245
 20
180
 11
1245
 21
60
  0
TEXT
  8
_0-7_枠細線
 62
    5
 10
1192.5
 20
160
 40
15
 41
1
 50
0
  1
縮　尺
  0
TEXT
  8
_0-7_枠細線
 62
    5
 10
1194
 20
117.5
 40
20
 41
0.7000000000000001
 50
0
  1
１：５
  0
LINE
  8
_0-7_枠細線
  6
CONTINUOUS
 62
    5
 10
1185
 20
155
 11
1245
 21
155
  0
LINE
  8
_0-7_枠細線
  6
CONTINUOUS
 62
    5
 10
1245
 20
100
 11
925
 21
100
  0
LINE
  8
_0-7_枠細線
  6
CONTINUOUS
 62
    5
 10
1425
 20
90
 11
1245
 21
90
  0
LINE
  8
_0-7_枠細線
  6
CONTINUOUS
 62
    5
 10
1245
 20
120
 11
1425
 21
120
  0
LINE
  8
_0-7_枠細線
  6
CONTINUOUS
 62
    5
 10
1425
 20
140
 11
1245
 21
140
  0
TEXT
  8
_0-7_枠細線
 62
    5
 10
1255
 20
147.5
 40
25
 41
0.8
 50
0
  1
株式会社シマブン
  0
TEXT
  8
_0-7_枠細線
 62
    5
 10
1252.5
 20
60
 40
15
 41
1
 50
0
  1
年月日
  0
TEXT
  8
_0-7_枠細線
 62
    5
 10
1252.5
 20
75
 40
15
 41
1
 50
0
  1
作　成
  0
TEXT
  8
_0-7_枠細線
 62
    5
 10
1256.25
 20
122.5
 40
15
 41
1
 50
0
  1
承 認
  0
LINE
  8
_0-7_枠細線
  6
CONTINUOUS
 62
    5
 10
1305
 20
140
 11
1305
 21
60
  0
TEXT
  8
_0-7_枠細線
 62
    5
 10
1316.25
 20
122.5
 40
15
 41
1
 50
0
  1
検 図
  0
LINE
  8
_0-7_枠細線
  6
CONTINUOUS
 62
    5
 10
1365
 20
140
 11
1365
 21
90
  0
TEXT
  8
_0-7_枠細線
 62
    5
 10
1375
 20
95
 40
20
 41
1
 50
0
  1
藤戸
  0
TEXT
  8
_0-7_枠細線
 62
    5
 10
1376.25
 20
122.5
 40
15
 41
1
 50
0
  1
設 計
  0
TEXT
  8
_0-7_枠細線
 62
    5
 10
1255
 20
95
 40
20
 41
1
 50
0
  1
隠塚
  0
TEXT
  8
_0-7_枠細線
 62
    5
 10
1315
 20
95
 40
20
 41
1
 50
0
  1
渋田
  0
TEXT
  8
_0-7_枠細線
 62
    5
 10
965.50000000000011
 20
150
 40
20
 41
0.5
 50
0
  1
Ｔバー ステンレスグレーチング Ｈ２０タイプ
  0
TEXT
  8
_0-7_枠細線
 62
    5
 10
1310
 20
67.5
 40
15
 41
0.6666666666666666
 50
0
  1
２０１２年０２月２９日
  0
LINE
  8
_0-7_枠細線
  6
CONTINUOUS
 62
    5
 10
1425
 20
925
 11
890
 21
925
  0
TEXT
  8
_0-7_枠細線
 62
    5
 10
938.85037037037023
 20
927.5
 40
12.500000000000002
 41
1
 50
0
  1
品番変更
  0
TEXT
  8
_0-7_枠細線
 62
    5
 10
1180
 20
927.5
 40
12.5
 41
0.7199999999999999
 50
0
  1
２０１５．０４．０１
  0
LINE
  8
_0-a_極細3
  6
CENTER1
 62
    7
 10
470.43065977017199
 20
243.71560987248404
 11
470.43065977017199
 21
307.16560987249022
  0
LINE
  8
_0-b_細線3
  6
CONTINUOUS
 62
    7
 10
477.0973264368385
 20
294.56810602460064
 11
477.0973264368385
 21
296.56810602460064
  0
LINE
  8
_0-b_細線3
  6
CONTINUOUS
 62
    7
 10
471.43065977017204
 20
294.56810602460064
 11
477.0973264368385
 21
294.56810602460064
  0
LINE
  8
_0-b_細線3
  6
CONTINUOUS
 62
    7
 10
471.43065977017204
 20
263.23477269126738
 11
471.43065977017204
 21
294.56810602460064
  0
LINE
  8
_0-b_細線3
  6
CONTINUOUS
 62
    7
 10
469.43065977017199
 20
263.23477269126738
 11
471.43065977017204
 21
263.23477269126738
  0
LINE
  8
_0-b_細線3
  6
CONTINUOUS
 62
    7
 10
469.43065977017199
 20
294.56810602460064
 11
469.43065977017199
 21
263.23477269126738
  0
LINE
  8
_0-b_細線3
  6
CONTINUOUS
 62
    7
 10
463.76399310350507
 20
294.56810602460064
 11
469.43065977017199
 21
294.56810602460064
  0
LINE
  8
_0-b_細線3
  6
CONTINUOUS
 62
    7
 10
463.76399310350507
 20
296.56810602460064
 11
463.76399310350507
 21
294.56810602460064
  0
LINE
  8
_0-b_細線3
  6
CONTINUOUS
 62
    7
 10
477.0973264368385
 20
296.56810602460064
 11
463.76399310350507
 21
296.56810602460064
  0
CIRCLE
  8
_0-a_極細3
  6
CONTINUOUS
 62
    7
 10
674.09201034476337
 20
281.83355347829729
 40
0.5530864197530718
  0
CIRCLE
  8
_0-a_極細3
  6
CONTINUOUS
 62
    7
 10
622.09201034476382
 20
282.76688681163068
 40
0.5530864197530718
  0
LINE
  8
_0-a_極細3
  6
CONTINUOUS
 62
    7
 10
610.43065977017159
 20
296.56810602460064
 11
610.43065977017159
 21
284.90143935793367
  0
LINE
  8
_0-a_極細3
  6
CONTINUOUS
 62
    7
 10
602.0973264368381
 20
284.90143935793367
 11
699.6084069152862
 21
284.90143935793367
  0
LINE
  8
_0-a_極細3
  6
CONTINUOUS
 62
    7
 10
602.0973264368381
 20
295.73477269126715
 11
602.0973264368381
 21
296.56810602460064
  0
LINE
  8
_0-a_極細3
  6
CONTINUOUS
 62
    7
 10
610.43065977017159
 20
288.57052563865864
 11
606.76157348944662
 21
284.90143935793367
  0
LINE
  8
_0-a_極細3
  6
CONTINUOUS
 62
    7
 10
610.43065977017159
 20
292.81316632577773
 11
602.51893280232753
 21
284.90143935793367
  0
LINE
  8
_0-a_極細3
  6
CONTINUOUS
 62
    7
 10
602.0973264368381
 20
288.72247367956379
 11
609.94295878187495
 21
296.56810602460064
  0
LINE
  8
_0-a_極細3
  6
CONTINUOUS
 62
    7
 10
602.0973264368381
 20
292.96511436668311
 11
605.7003180947554
 21
296.56810602460041
  0
LINE
  8
_0-a_極細3
  6
CONTINUOUS
 62
    7
 10
610.43065977017159
 20
295.05878381509501
 11
608.92133756066596
 21
296.56810602460064
  0
LINE
  8
_0-a_極細3
  6
CONTINUOUS
 62
    7
 10
610.43065977017159
 20
290.81614312797569
 11
604.67869687354687
 21
296.56810602460064
  0
LINE
  8
_0-a_極細3
  6
CONTINUOUS
 62
    7
 10
610.43065977017159
 20
286.57350244085637
 11
602.0973264368381
 21
294.90683577418986
  0
LINE
  8
_0-a_極細3
  6
CONTINUOUS
 62
    7
 10
607.86008216597475
 20
284.90143935793367
 11
602.0973264368381
 21
290.66419508707054
  0
LINE
  8
_0-a_極細3
  6
CONTINUOUS
 62
    7
 10
603.61744147885565
 20
284.90143935793367
 11
602.0973264368381
 21
286.42155439995122
  0
LINE
  8
_0-a_極細3
  6
CONTINUOUS
 62
    7
 10
678.88646517047437
 20
284.90143935793367
 11
690.55313121035215
 21
296.56810539781145
  0
LINE
  8
_0-a_極細3
  6
CONTINUOUS
 62
    7
 10
657.673261734878
 20
284.9014393579339
 11
669.33992794070446
 21
296.56810556376013
  0
LINE
  8
_0-a_極細3
  6
CONTINUOUS
 62
    7
 10
636.46005829928163
 20
284.90143935793367
 11
648.12672467105631
 21
296.56810572970835
  0
LINE
  8
_0-a_極細3
  6
CONTINUOUS
 62
    7
 10
615.24685486368526
 20
284.90143935793367
 11
626.91352140140862
 21
296.56810589565703
  0
LINE
  8
_0-a_極細3
  6
DASHED2
 62
    7
 10
689.49306688827301
 20
284.9014393579339
 11
699.6084069152862
 21
295.01677938494731
  0
LINE
  8
_0-a_極細3
  6
DASHED2
 62
    7
 10
668.27986345267618
 20
284.90143935793367
 11
679.94652957552819
 21
296.56810548078556
  0
LINE
  8
_0-a_極細3
  6
DASHED2
 62
    7
 10
647.06666001707981
 20
284.90143935793367
 11
658.73332630588038
 21
296.56810564673424
  0
LINE
  8
_0-a_極細3
  6
DASHED2
 62
    7
 10
625.85345658148344
 20
284.90143935793367
 11
637.52012303623223
 21
296.56810581268269
  0
LINE
  8
_0-a_極細3
  6
DASHED2
 62
    7
 10
610.43065977017159
 20
290.69184598221818
 11
616.30691976658454
 21
296.56810597863114
  0
CIRCLE
  8
_0-a_極細3
  6
CONTINUOUS
 62
    7
 10
682.09201034476291
 20
282.20361520669258
 40
1.825531472681392
  0
CIRCLE
  8
_0-a_極細3
  6
CONTINUOUS
 62
    7
 10
643.42534367809685
 20
278.78139298447059
 40
1.825531472681392
  0
LINE
  8
_0-a_極細3
  6
CONTINUOUS
 62
    7
 10
602.0973264368381
 20
296.56810602460064
 11
699.6084069152862
 21
296.56810602460064
  0
LINE
  8
_0-a_極細3
  6
CONTINUOUS
 62
    7
 10
668.76399310350462
 20
251.56810602460041
 11
668.76399310350462
 21
183.23477269126712
  0
LINE
  8
_0-a_極細3
  6
CONTINUOUS
 62
    7
 10
585.43065977017159
 20
183.23477269126712
 11
668.76399310350462
 21
183.23477269126712
  0
LINE
  8
_0-a_極細3
  6
CONTINUOUS
 62
    7
 10
668.76399310350462
 20
251.56810602460041
 11
699.6084069152862
 21
251.56810602460041
  0
LINE
  8
_0-a_極細3
  6
CONTINUOUS
 62
    7
 10
585.43065977017159
 20
183.23477269126712
 11
585.43065977017159
 21
156.99317239648806
  0
LINE
  8
_0-a_極細3
  6
CONTINUOUS
 62
    7
 10
677.05399551809808
 20
156.99317239648806
 11
699.60840695682691
 21
179.54758383521698
  0
LINE
  8
_0-a_極細3
  6
CONTINUOUS
 62
    7
 10
606.34331739944309
 20
156.99317239648806
 11
632.58491769422199
 21
183.23477269126712
  0
LINE
  8
_0-a_極細3
  6
CONTINUOUS
 62
    7
 10
668.76399310350462
 20
219.41384810054981
 11
699.60840691604164
 21
250.2582619130867
  0
LINE
  8
_0-a_極細3
  6
CONTINUOUS
 62
    7
 10
669.9829277062322
 20
156.99317239648806
 11
699.60840695274828
 21
186.61865164300409
  0
LINE
  8
_0-a_極細3
  6
CONTINUOUS
 62
    7
 10
599.27224958757733
 20
156.99317239648806
 11
625.51384988235668
 21
183.23477269126712
  0
LINE
  8
_0-a_極細3
  6
CONTINUOUS
 62
    7
 10
668.76399310350462
 20
226.48491591241535
 11
693.84718303613954
 21
251.56810584505001
  0
LINE
  8
_0-a_極細3
  6
CONTINUOUS
 62
    7
 10
662.91185989436701
 20
156.99317239648806
 11
699.60840694866977
 21
193.68971945079102
  0
LINE
  8
_0-a_極細3
  6
CONTINUOUS
 62
    7
 10
592.20118177571203
 20
156.99317239648806
 11
618.44278207049138
 21
183.23477269126712
  0
LINE
  8
_0-a_極細3
  6
CONTINUOUS
 62
    7
 10
668.76399310350462
 20
233.55598372428088
 11
686.77611527489034
 21
251.56810589566615
  0
CIRCLE
  8
_0-a_極細3
  6
CONTINUOUS
 62
    7
 10
571.8364547892088
 20
242.08910903385322
 40
0.5530864197530718
  0
CIRCLE
  8
_0-a_極細3
  6
CONTINUOUS
 62
    7
 10
581.79201034476409
 20
246.8891090338532
 40
0.5530864197530718
  0
CIRCLE
  8
_0-a_極細3
  6
CONTINUOUS
 62
    7
 10
577.70312145587559
 20
221.91133125607578
 40
0.5530864197530718
  0
CIRCLE
  8
_0-a_極細3
  6
CONTINUOUS
 62
    7
 10
595.23645478920889
 20
204.8891090338536
 40
0.5530864197530718
  0
CIRCLE
  8
_0-a_極細3
  6
CONTINUOUS
 62
    7
 10
577.40312145587541
 20
181.5891090338539
 40
0.5530864197530718
  0
CIRCLE
  8
_0-a_極細3
  6
CONTINUOUS
 62
    7
 10
568.06978812254238
 20
163.72244236718734
 40
0.5530864197530718
  0
CIRCLE
  8
_0-a_極細3
  6
CONTINUOUS
 62
    7
 10
579.53645478920862
 20
193.58910903385365
 40
0.5530864197530718
  0
CIRCLE
  8
_0-a_極細3
  6
CONTINUOUS
 62
    7
 10
593.40312145587541
 20
188.78910903385375
 40
0.5530864197530718
  0
CIRCLE
  8
_0-a_極細3
  6
CONTINUOUS
 62
    7
 10
620.3364547892088
 20
189.05577570052037
 40
0.5530864197530718
  0
CIRCLE
  8
_0-a_極細3
  6
CONTINUOUS
 62
    7
 10
608.3364547892088
 20
198.12244236718698
 40
0.5530864197530718
  0
CIRCLE
  8
_0-a_極細3
  6
CONTINUOUS
 62
    7
 10
619.53645478920862
 20
203.72244236718686
 40
0.5530864197530718
  0
CIRCLE
  8
_0-a_極細3
  6
CONTINUOUS
 62
    7
 10
607.55867701143052
 20
258.01133125607521
 40
0.5530864197530718
  0
CIRCLE
  8
_0-a_極細3
  6
CONTINUOUS
 62
    7
 10
628.09201034476382
 20
257.30022014496421
 40
0.5530864197530718
  0
CIRCLE
  8
_0-a_極細3
  6
CONTINUOUS
 62
    7
 10
616.49201034476391
 20
243.30022014496447
 40
0.5530864197530718
  0
CIRCLE
  8
_0-a_極細3
  6
CONTINUOUS
 62
    7
 10
655.69201034476373
 20
190.10022014496485
 40
0.5530864197530718
  0
CIRCLE
  8
_0-a_極細3
  6
CONTINUOUS
 62
    7
 10
662.89201034476366
 20
204.10022014496491
 40
0.5530864197530718
  0
CIRCLE
  8
_0-a_極細3
  6
CONTINUOUS
 62
    7
 10
661.29201034476318
 20
224.90022014496461
 40
0.5530864197530718
  0
CIRCLE
  8
_0-a_極細3
  6
CONTINUOUS
 62
    7
 10
643.29201034476364
 20
246.1002201449644
 40
0.5530864197530718
  0
CIRCLE
  8
_0-a_極細3
  6
CONTINUOUS
 62
    7
 10
660.09201034476337
 20
265.70022014496408
 40
0.5530864197530718
  0
CIRCLE
  8
_0-a_極細3
  6
CONTINUOUS
 62
    7
 10
657.29201034476318
 20
238.90022014496438
 40
0.5530864197530718
  0
CIRCLE
  8
_0-a_極細3
  6
CONTINUOUS
 62
    7
 10
686.89201034476309
 20
260.10022014496417
 40
0.5530864197530718
  0
CIRCLE
  8
_0-a_極細3
  6
CONTINUOUS
 62
    7
 10
666.44756590031875
 20
258.40361520669262
 40
1.825531472681392
  0
CIRCLE
  8
_0-a_極細3
  6
CONTINUOUS
 62
    7
 10
611.02534367809722
 20
264.9813929844704
 40
1.825531472681392
  0
CIRCLE
  8
_0-a_極細3
  6
CONTINUOUS
 62
    7
 10
643.02534367809687
 20
232.98139298447066
 40
1.825531472681392
  0
CIRCLE
  8
_0-a_極細3
  6
CONTINUOUS
 62
    7
 10
572.63089923365351
 20
188.43139298447113
 40
1.825531472681392
  0
CIRCLE
  8
_0-a_極細3
  6
CONTINUOUS
 62
    7
 10
582.85312145587523
 20
218.29805965113769
 40
1.825531472681392
  0
CIRCLE
  8
_0-a_極細3
  6
CONTINUOUS
 62
    7
 10
618.05312145587504
 20
195.89805965113783
 40
1.825531472681392
  0
CIRCLE
  8
_0-a_極細3
  6
CONTINUOUS
 62
    7
 10
664.31831409115875
 20
185.71100725916835
 40
1.825531472681392
  0
CIRCLE
  8
_0-a_極細3
  6
CONTINUOUS
 62
    7
 10
613.65312145587495
 20
239.09805965113745
 40
1.825531472681392
  0
CIRCLE
  8
_0-a_極細3
  6
CONTINUOUS
 62
    7
 10
566.18707207315947
 20
233.67485424410097
 40
0.5530864197530718
  0
CIRCLE
  8
_0-a_極細3
  6
CONTINUOUS
 62
    7
 10
566.3870720731602
 20
209.71929868854571
 40
0.5530864197530718
  0
LINE
  8
_0-a_極細3
  6
CONTINUOUS
 62
    7
 10
552.93065977017068
 20
258.23477269126715
 11
552.09732643683765
 21
258.23477269126715
  0
LINE
  8
_0-a_極細3
  6
CONTINUOUS
 62
    7
 10
552.09732643683765
 20
258.23477269126715
 11
552.09732643683765
 21
156.99317239648806
  0
CIRCLE
  8
_0-a_極細3
  6
CONTINUOUS
 62
    7
 10
558.08172227892101
 20
218.17799792274243
 40
0.5530864197530718
  0
CIRCLE
  8
_0-a_極細3
  6
CONTINUOUS
 62
    7
 10
559.38830664106081
 20
178.92244236718716
 40
0.5530864197530718
  0
CIRCLE
  8
_0-a_極細3
  6
CONTINUOUS
 62
    7
 10
558.74941775217121
 20
244.87583742891573
 40
1.825531472681392
  0
CIRCLE
  8
_0-a_極細3
  6
CONTINUOUS
 62
    7
 10
561.6975659003192
 20
172.25361520669324
 40
1.825531472681392
  0
LINE
  8
_0-a_極細3
  6
CONTINUOUS
 62
    7
 10
645.73739465732342
 20
208.11647385377071
 11
650.86769680720863
 21
222.21186316555918
  0
LINE
  8
_0-a_極細3
  6
CONTINUOUS
 62
    7
 10
595.74335198352719
 20
242.27548386480547
 11
590.61304983364244
 21
228.18009455301694
  0
LINE
  8
_0-a_極細3
  6
CONTINUOUS
 62
    7
 10
650.86769680720863
 20
222.21186316555918
 11
595.74335198352719
 21
242.27548386480547
  0
LINE
  8
_0-a_極細3
  6
CONTINUOUS
 62
    7
 10
645.73739465732342
 20
208.11647385377071
 11
590.61304983364244
 21
228.18009455301694
  0
LINE
  8
_0-a_極細3
  6
CENTER1
 62
    7
 10
653.25797912425878
 20
213.360538469635
 11
589.22695864169327
 21
236.66592395467049
  0
LINE
  8
_0-a_極細3
  6
CONTINUOUS
 62
    7
 10
627.0973264368381
 20
183.23477269126712
 11
627.0973264368381
 21
227.32033403958351
  0
LINE
  8
_0-a_極細3
  6
CONTINUOUS
 62
    7
 10
627.0973264368381
 20
227.32033403958351
 11
642.0973264368381
 21
227.32033403958351
  0
LINE
  8
_0-a_極細3
  6
CONTINUOUS
 62
    7
 10
642.0973264368381
 20
227.32033403958351
 11
642.0973264368381
 21
183.23477269126712
  0
LINE
  8
_0-a_極細3
  6
CENTER1
 62
    7
 10
634.5973264368381
 20
174.95803240681425
 11
634.5973264368381
 21
231.59605420419282
  0
CIRCLE
  8
_0-a_極細3
  6
CONTINUOUS
 62
    7
 10
628.71423256698654
 20
240.3965164412607
 40
0.5530864197530718
  0
CIRCLE
  8
_0-a_極細3
  6
CONTINUOUS
 62
    7
 10
650.93041912391345
 20
227.05330656471779
 40
0.5530864197530718
  0
LINE
  8
_0-d_寸法3
  6
CONTINUOUS
 62
    7
 10
602.09732643683856
 20
209.9014393579339
 11
602.09732643683856
 21
192.7567474570285
  0
LINE
  8
_0-d_寸法3
  6
CONTINUOUS
 62
    7
 10
602.09732643683856
 20
197.7567474570285
 11
592.43806817394784
 21
195.16855700600331
  0
LINE
  8
_0-d_寸法3
  6
CONTINUOUS
 62
    7
 10
602.09732643683856
 20
197.7567474570285
 11
592.43806817394784
 21
200.34493790805371
  0
LINE
  8
_0-d_寸法3
  6
CONTINUOUS
 62
    7
 10
552.09732643683856
 20
248.23477269126715
 11
552.09732643683856
 21
192.7567474570285
  0
LINE
  8
_0-d_寸法3
  6
CONTINUOUS
 62
    7
 10
552.09732643683856
 20
197.7567474570285
 11
561.75658469972927
 21
200.34493790805371
  0
LINE
  8
_0-d_寸法3
  6
CONTINUOUS
 62
    7
 10
552.09732643683856
 20
197.7567474570285
 11
561.75658469972927
 21
195.16855700600331
  0
LINE
  8
_0-d_寸法3
  6
CONTINUOUS
 62
    7
 10
602.09732643683856
 20
197.7567474570285
 11
552.09732643683856
 21
197.7567474570285
  0
TEXT
  8
_0-d_寸法3
 62
    7
 10
569.59732643683856
 20
197.75674745702844
 40
15
 41
1
 50
0.0000000000005428
  1
30
  0
ARC
  8
_0-b_細線3
  6
CONTINUOUS
 62
    7
 10
597.0973264368381
 20
263.23477269126715
 40
5
 50
269.99999999999977
 51
359.99999999999966
  0
LINE
  8
_0-b_細線3
  6
CONTINUOUS
 62
    7
 10
602.0973264368381
 20
263.23477269126715
 11
602.0973264368381
 21
295.73477269126715
  0
LINE
  8
_0-b_細線3
  6
CONTINUOUS
 62
    7
 10
597.0973264368381
 20
258.23477269126715
 11
552.93065977017068
 21
258.23477269126715
  0
LINE
  8
_0-b_細線3
  6
CONTINUOUS
 62
    7
 10
552.09732643683765
 20
259.06810602460041
 11
552.93065977017068
 21
258.23477269126715
  0
LINE
  8
_0-b_細線3
  6
CONTINUOUS
 62
    7
 10
552.09732643683765
 20
262.4014393579339
 11
552.09732643683765
 21
259.06810602460041
  0
LINE
  8
_0-b_細線3
  6
CONTINUOUS
 62
    7
 10
552.93065977017068
 20
263.23477269126715
 11
552.09732643683765
 21
262.4014393579339
  0
LINE
  8
_0-b_細線3
  6
CONTINUOUS
 62
    7
 10
597.0973264368381
 20
263.23477269126715
 11
552.93065977017068
 21
263.23477269126715
  0
LINE
  8
_0-b_細線3
  6
CONTINUOUS
 62
    7
 10
601.26399310350507
 20
296.56810602460064
 11
602.0973264368381
 21
295.73477269126715
  0
LINE
  8
_0-b_細線3
  6
CONTINUOUS
 62
    7
 10
597.93065977017159
 20
296.56810602460064
 11
601.26399310350507
 21
296.56810602460064
  0
LINE
  8
_0-b_細線3
  6
CONTINUOUS
 62
    7
 10
597.0973264368381
 20
295.73477269126715
 11
597.93065977017159
 21
296.56810602460064
  0
LINE
  8
_0-b_細線3
  6
CONTINUOUS
 62
    7
 10
597.0973264368381
 20
263.23477269126715
 11
597.0973264368381
 21
295.73477269126715
  0
ARC
  8
_0-b_細線3
  6
CONTINUOUS
 62
    7
 10
528.76399310350553
 20
317.70421713571159
 40
46.136111111111113
 50
256.63227178393163
 51
283.36772821606706
  0
ARC
  8
_0-b_細線3
  6
CONTINUOUS
 62
    7
 10
528.76399310350553
 20
242.09866158015643
 40
46.136111111111113
 50
76.632271783932524
 51
103.36772821606803
  0
LINE
  8
_0-b_細線3
  6
CONTINUOUS
 62
    7
 10
547.09732643683856
 20
294.56810602460064
 11
547.09732643683856
 21
296.56810602460064
  0
LINE
  8
_0-b_細線3
  6
CONTINUOUS
 62
    7
 10
541.43065977017159
 20
294.56810602460064
 11
547.09732643683856
 21
294.56810602460064
  0
LINE
  8
_0-b_細線3
  6
CONTINUOUS
 62
    7
 10
541.43065977017159
 20
263.23477269126738
 11
541.43065977017159
 21
294.56810602460064
  0
LINE
  8
_0-b_細線3
  6
CONTINUOUS
 62
    7
 10
539.43065977017204
 20
263.23477269126738
 11
541.43065977017159
 21
263.23477269126738
  0
LINE
  8
_0-b_細線3
  6
CONTINUOUS
 62
    7
 10
539.43065977017204
 20
294.56810602460064
 11
539.43065977017204
 21
263.23477269126738
  0
LINE
  8
_0-b_細線3
  6
CONTINUOUS
 62
    7
 10
533.76399310350553
 20
294.56810602460064
 11
539.43065977017204
 21
294.56810602460064
  0
LINE
  8
_0-b_細線3
  6
CONTINUOUS
 62
    7
 10
533.76399310350553
 20
296.56810602460064
 11
533.76399310350553
 21
294.56810602460064
  0
LINE
  8
_0-b_細線3
  6
CONTINUOUS
 62
    7
 10
547.09732643683856
 20
296.56810602460064
 11
533.76399310350553
 21
296.56810602460064
  0
ARC
  8
_0-b_細線3
  6
CONTINUOUS
 62
    7
 10
552.09732643683856
 20
317.70421713571159
 40
46.136111111111113
 50
256.63227178393163
 51
283.36772821606706
  0
ARC
  8
_0-b_細線3
  6
CONTINUOUS
 62
    7
 10
552.09732643683856
 20
242.09866158015643
 40
46.136111111111113
 50
76.632271783932524
 51
103.36772821606803
  0
LINE
  8
_0-b_細線3
  6
CONTINUOUS
 62
    7
 10
570.43065977017159
 20
294.56810602460064
 11
570.43065977017159
 21
296.56810602460064
  0
LINE
  8
_0-b_細線3
  6
CONTINUOUS
 62
    7
 10
564.76399310350462
 20
294.56810602460064
 11
570.43065977017159
 21
294.56810602460064
  0
LINE
  8
_0-b_細線3
  6
CONTINUOUS
 62
    7
 10
564.76399310350462
 20
263.23477269126738
 11
564.76399310350462
 21
294.56810602460064
  0
LINE
  8
_0-b_細線3
  6
CONTINUOUS
 62
    7
 10
562.76399310350507
 20
263.23477269126738
 11
564.76399310350462
 21
263.23477269126738
  0
LINE
  8
_0-b_細線3
  6
CONTINUOUS
 62
    7
 10
562.76399310350507
 20
294.56810602460064
 11
562.76399310350507
 21
263.23477269126738
  0
LINE
  8
_0-b_細線3
  6
CONTINUOUS
 62
    7
 10
557.09732643683856
 20
294.56810602460064
 11
562.76399310350507
 21
294.56810602460064
  0
LINE
  8
_0-b_細線3
  6
CONTINUOUS
 62
    7
 10
557.09732643683856
 20
296.56810602460064
 11
557.09732643683856
 21
294.56810602460064
  0
LINE
  8
_0-b_細線3
  6
CONTINUOUS
 62
    7
 10
570.43065977017159
 20
296.56810602460064
 11
557.09732643683856
 21
296.56810602460064
  0
ARC
  8
_0-b_細線3
  6
CONTINUOUS
 62
    7
 10
575.43065977017159
 20
317.70421713571159
 40
46.136111111111113
 50
256.63227178393163
 51
283.36772821606706
  0
ARC
  8
_0-b_細線3
  6
CONTINUOUS
 62
    7
 10
575.43065977017159
 20
242.09866158015643
 40
46.136111111111113
 50
76.632271783932524
 51
103.36772821606803
  0
LINE
  8
_0-b_細線3
  6
CONTINUOUS
 62
    7
 10
593.76399310350462
 20
294.56810602460064
 11
593.76399310350462
 21
296.56810602460064
  0
LINE
  8
_0-b_細線3
  6
CONTINUOUS
 62
    7
 10
588.09732643683765
 20
294.56810602460064
 11
593.76399310350462
 21
294.56810602460064
  0
LINE
  8
_0-b_細線3
  6
CONTINUOUS
 62
    7
 10
588.09732643683765
 20
263.23477269126738
 11
588.09732643683765
 21
294.56810602460064
  0
LINE
  8
_0-b_細線3
  6
CONTINUOUS
 62
    7
 10
586.0973264368381
 20
263.23477269126738
 11
588.09732643683765
 21
263.23477269126738
  0
LINE
  8
_0-b_細線3
  6
CONTINUOUS
 62
    7
 10
586.0973264368381
 20
294.56810602460064
 11
586.0973264368381
 21
263.23477269126738
  0
LINE
  8
_0-b_細線3
  6
CONTINUOUS
 62
    7
 10
580.43065977017159
 20
294.56810602460064
 11
586.0973264368381
 21
294.56810602460064
  0
LINE
  8
_0-b_細線3
  6
CONTINUOUS
 62
    7
 10
580.43065977017159
 20
296.56810602460064
 11
580.43065977017159
 21
294.56810602460064
  0
LINE
  8
_0-b_細線3
  6
CONTINUOUS
 62
    7
 10
593.76399310350462
 20
296.56810602460064
 11
580.43065977017159
 21
296.56810602460064
  0
CIRCLE
  8
_0-a_極細3
  6
CONTINUOUS
 62
    7
 10
325.38089923365578
 20
281.52707199681595
 40
0.5530864197530718
  0
LINE
  8
_0-a_極細3
  6
CONTINUOUS
 62
    7
 10
330.43065977017159
 20
296.56810602460064
 11
330.43065977017159
 21
284.90143935793367
  0
LINE
  8
_0-a_極細3
  6
CONTINUOUS
 62
    7
 10
338.76399310350502
 20
284.90143935793367
 11
241.25291262505698
 21
284.90143935793367
  0
LINE
  8
_0-a_極細3
  6
CONTINUOUS
 62
    7
 10
338.76399310350502
 20
295.73477269126715
 11
338.76399310350502
 21
296.56810602460064
  0
LINE
  8
_0-a_極細3
  6
CONTINUOUS
 62
    7
 10
338.56590284714542
 20
284.90143935793367
 11
338.76399310350456
 21
285.09952961429326
  0
LINE
  8
_0-a_極細3
  6
CONTINUOUS
 62
    7
 10
334.32326216002639
 20
284.90143935793367
 11
338.76399310350502
 21
289.34217030141235
  0
LINE
  8
_0-a_極細3
  6
CONTINUOUS
 62
    7
 10
330.43065977017159
 20
285.25147765519841
 11
338.76399310350502
 21
293.58481098853167
  0
LINE
  8
_0-a_極細3
  6
CONTINUOUS
 62
    7
 10
330.43065977017159
 20
289.49411834231751
 11
337.50464745245426
 21
296.56810602460064
  0
LINE
  8
_0-a_極細3
  6
CONTINUOUS
 62
    7
 10
330.43065977017159
 20
293.73675902943705
 11
333.26200676533512
 21
296.56810602460064
  0
LINE
  8
_0-a_極細3
  6
CONTINUOUS
 62
    7
 10
338.76399310350502
 20
294.28713915234198
 11
336.48302623124658
 21
296.56810602460064
  0
LINE
  8
_0-a_極細3
  6
CONTINUOUS
 62
    7
 10
338.76399310350502
 20
290.04449846522266
 11
332.24038554412709
 21
296.56810602460064
  0
LINE
  8
_0-a_極細3
  6
CONTINUOUS
 62
    7
 10
330.43065977017159
 20
294.13519111143682
 11
338.76399310350502
 21
285.80185777810357
  0
LINE
  8
_0-a_極細3
  6
CONTINUOUS
 62
    7
 10
330.43065977017159
 20
289.89255042431751
 11
335.42177083655497
 21
284.90143935793367
  0
LINE
  8
_0-a_極細3
  6
CONTINUOUS
 62
    7
 10
330.43065977017159
 20
285.64990973719819
 11
331.17913014943582
 21
284.90143935793367
  0
LINE
  8
_0-a_極細3
  6
CONTINUOUS
 62
    7
 10
321.59534009254088
 20
284.9014393518064
 11
330.43065977017159
 21
293.73675902943705
  0
LINE
  8
_0-a_極細3
  6
CONTINUOUS
 62
    7
 10
300.38213664223349
 20
284.90143933709533
 11
312.04880332973869
 21
296.56810602460041
  0
LINE
  8
_0-a_極細3
  6
CONTINUOUS
 62
    7
 10
279.16893319192553
 20
284.90143932238379
 11
290.83559989414198
 21
296.56810602460064
  0
LINE
  8
_0-a_極細3
  6
CONTINUOUS
 62
    7
 10
257.95572974161763
 20
284.90143930767272
 11
269.6223964585455
 21
296.56810602460064
  0
LINE
  8
_0-a_極細3
  6
CONTINUOUS
 62
    7
 10
241.25291262505698
 20
289.41182562670792
 11
248.40919302294921
 21
296.56810602460041
  0
LINE
  8
_0-a_極細3
  6
DASHED2
 62
    7
 10
310.98873836738721
 20
284.90143934445086
 11
322.65540504753693
 21
296.56810602460064
  0
LINE
  8
_0-a_極細3
  6
DASHED2
 62
    7
 10
289.7755349170792
 20
284.90143932973956
 11
301.44220161194056
 21
296.56810602460064
  0
LINE
  8
_0-a_極細3
  6
DASHED2
 62
    7
 10
268.56233146677187
 20
284.90143931502826
 11
280.22899817634374
 21
296.56810602460064
  0
LINE
  8
_0-a_極細3
  6
DASHED2
 62
    7
 10
247.34912801646388
 20
284.90143930031718
 11
259.01579474074737
 21
296.56810602460064
  0
CIRCLE
  8
_0-a_極細3
  6
CONTINUOUS
 62
    7
 10
259.14880046822418
 20
275.10484977459396
 40
0.5530864197530718
  0
CIRCLE
  8
_0-a_極細3
  6
CONTINUOUS
 62
    7
 10
300.4920103447671
 20
279.90484977459391
 40
0.5530864197530718
  0
CIRCLE
  8
_0-a_極細3
  6
CONTINUOUS
 62
    7
 10
269.48544619888753
 20
280.71100725916835
 40
1.825531472681392
  0
CIRCLE
  8
_0-a_極細3
  6
CONTINUOUS
 62
    7
 10
249.28836665780813
 20
281.60361520669267
 40
1.825531472681392
  0
LINE
  8
_0-a_極細3
  6
CONTINUOUS
 62
    7
 10
338.76399310350502
 20
296.56810602460064
 11
241.25291262505698
 21
296.56810602460064
  0
LINE
  8
_0-a_極細3
  6
CONTINUOUS
 62
    7
 10
272.09732643683827
 20
251.56810602460041
 11
272.09732643683827
 21
183.23477269126712
  0
LINE
  8
_0-a_極細3
  6
CONTINUOUS
 62
    7
 10
355.43065977017159
 20
183.23477269126712
 11
272.09732643683827
 21
183.23477269126712
  0
LINE
  8
_0-a_極細3
  6
CONTINUOUS
 62
    7
 10
272.09732643683827
 20
251.56810602460041
 11
241.25291262505712
 21
251.56810602460041
  0
LINE
  8
_0-a_極細3
  6
CONTINUOUS
 62
    7
 10
355.43065977017159
 20
183.23477269126712
 11
355.43065977017159
 21
156.99317239648806
  0
LINE
  8
_0-a_極細3
  6
CONTINUOUS
 62
    7
 10
318.00868520518179
 20
156.99317251292499
 11
344.25028538352444
 21
183.23477269126712
  0
LINE
  8
_0-a_極細3
  6
CONTINUOUS
 62
    7
 10
247.29800730654068
 20
156.99317273293809
 11
273.53960726486974
 21
183.23477269126712
  0
LINE
  8
_0-a_極細3
  6
CONTINUOUS
 62
    7
 10
241.25291262505712
 20
221.65875617010943
 11
271.16226247954842
 21
251.56810602460041
  0
LINE
  8
_0-a_極細3
  6
CONTINUOUS
 62
    7
 10
310.93761741531756
 20
156.99317253492632
 11
337.17921757165863
 21
183.23477269126712
  0
LINE
  8
_0-a_極細3
  6
CONTINUOUS
 62
    7
 10
241.25291262505712
 20
158.01914586332009
 11
272.09732643683827
 21
188.86355967510141
  0
LINE
  8
_0-a_極細3
  6
CONTINUOUS
 62
    7
 10
241.25291262505712
 20
228.72982398197496
 11
264.0911946676826
 21
251.56810602460041
  0
LINE
  8
_0-a_極細3
  6
CONTINUOUS
 62
    7
 10
303.86654962545384
 20
156.99317255692768
 11
330.10814975979338
 21
183.23477269126712
  0
LINE
  8
_0-a_極細3
  6
CONTINUOUS
 62
    7
 10
241.25291262505712
 20
165.09021367518562
 11
272.09732643683827
 21
195.93462748696695
  0
LINE
  8
_0-a_極細3
  6
CONTINUOUS
 62
    7
 10
241.25291262505712
 20
235.80089179384029
 11
257.02012685581735
 21
251.56810602460041
  0
CIRCLE
  8
_0-a_極細3
  6
CONTINUOUS
 62
    7
 10
248.81793627069391
 20
256.81596088570495
 40
0.5530864197530718
  0
CIRCLE
  8
_0-a_極細3
  6
CONTINUOUS
 62
    7
 10
259.42534367810111
 20
257.88262755237156
 40
0.5530864197530718
  0
CIRCLE
  8
_0-a_極細3
  6
CONTINUOUS
 62
    7
 10
272.04756590032338
 20
259.83818310792708
 40
0.5530864197530718
  0
CIRCLE
  8
_0-a_極細3
  6
CONTINUOUS
 62
    7
 10
331.06978812254459
 20
265.34929421903826
 40
0.5530864197530718
  0
CIRCLE
  8
_0-a_極細3
  6
CONTINUOUS
 62
    7
 10
306.18089923365585
 20
264.81596088570495
 40
0.5530864197530718
  0
CIRCLE
  8
_0-a_極細3
  6
CONTINUOUS
 62
    7
 10
278.99201034476778
 20
252.5826275523716
 40
0.5530864197530718
  0
CIRCLE
  8
_0-a_極細3
  6
CONTINUOUS
 62
    7
 10
299.43645478921144
 20
251.33818310792708
 40
0.5530864197530718
  0
CIRCLE
  8
_0-a_極細3
  6
CONTINUOUS
 62
    7
 10
324.50312145587804
 20
247.60484977459399
 40
0.5530864197530718
  0
CIRCLE
  8
_0-a_極細3
  6
CONTINUOUS
 62
    7
 10
311.88089923365573
 20
241.91596088570509
 40
0.5530864197530718
  0
CIRCLE
  8
_0-a_極細3
  6
CONTINUOUS
 62
    7
 10
297.12534367810071
 20
228.40484977459394
 40
0.5530864197530718
  0
CIRCLE
  8
_0-a_極細3
  6
CONTINUOUS
 62
    7
 10
324.50312145587804
 20
235.69373866348292
 40
0.5530864197530718
  0
CIRCLE
  8
_0-a_極細3
  6
CONTINUOUS
 62
    7
 10
283.39201034476736
 20
208.58262755237206
 40
0.5530864197530718
  0
CIRCLE
  8
_0-a_極細3
  6
CONTINUOUS
 62
    7
 10
277.70312145587855
 20
190.62707199681654
 40
0.5530864197530718
  0
CIRCLE
  8
_0-a_極細3
  6
CONTINUOUS
 62
    7
 10
286.41423256698971
 20
197.38262755237201
 40
0.5530864197530718
  0
CIRCLE
  8
_0-a_極細3
  6
CONTINUOUS
 62
    7
 10
292.63645478921194
 20
188.84929421903877
 40
0.5530864197530718
  0
CIRCLE
  8
_0-a_極細3
  6
CONTINUOUS
 62
    7
 10
331.93645478921144
 20
206.73818310792765
 40
0.5530864197530718
  0
CIRCLE
  8
_0-a_極細3
  6
CONTINUOUS
 62
    7
 10
320.73645478921156
 20
201.22707199681642
 40
0.5530864197530718
  0
CIRCLE
  8
_0-a_極細3
  6
CONTINUOUS
 62
    7
 10
326.95867701143379
 20
198.73818310792763
 40
0.5530864197530718
  0
CIRCLE
  8
_0-a_極細3
  6
CONTINUOUS
 62
    7
 10
323.40312145587808
 20
189.49373866348338
 40
0.5530864197530718
  0
CIRCLE
  8
_0-a_極細3
  6
CONTINUOUS
 62
    7
 10
343.31423256698912
 20
190.56040533014993
 40
0.5530864197530718
  0
CIRCLE
  8
_0-a_極細3
  6
CONTINUOUS
 62
    7
 10
356.29201034476682
 20
193.76040533015001
 40
0.5530864197530718
  0
CIRCLE
  8
_0-a_極細3
  6
CONTINUOUS
 62
    7
 10
369.98089923365563
 20
178.82707199681681
 40
0.5530864197530718
  0
CIRCLE
  8
_0-a_極細3
  6
CONTINUOUS
 62
    7
 10
363.0475659003223
 20
163.89373866348342
 40
0.5530864197530718
  0
CIRCLE
  8
_0-a_極細3
  6
CONTINUOUS
 62
    7
 10
346.38089923365578
 20
207.50855347829796
 40
0.5530864197530718
  0
CIRCLE
  8
_0-a_極細3
  6
CONTINUOUS
 62
    7
 10
361.1364547892112
 20
241.64188681163114
 40
0.5530864197530718
  0
CIRCLE
  8
_0-a_極細3
  6
CONTINUOUS
 62
    7
 10
376.24756590032206
 20
231.68633125607562
 40
0.5530864197530718
  0
CIRCLE
  8
_0-a_極細3
  6
CONTINUOUS
 62
    7
 10
376.78089923365542
 20
213.7307757005201
 40
0.5530864197530718
  0
CIRCLE
  8
_0-a_極細3
  6
CONTINUOUS
 62
    7
 10
341.53645478921129
 20
243.46410903385322
 40
0.5530864197530718
  0
CIRCLE
  8
_0-a_極細3
  6
CONTINUOUS
 62
    7
 10
321.24756590032257
 20
265.4480596511371
 40
1.825531472681392
  0
CIRCLE
  8
_0-a_極細3
  6
CONTINUOUS
 62
    7
 10
296.0253436781004
 20
242.64805965113715
 40
1.825531472681392
  0
CIRCLE
  8
_0-a_極細3
  6
CONTINUOUS
 62
    7
 10
276.42534367810072
 20
204.6480596511376
 40
1.825531472681392
  0
CIRCLE
  8
_0-a_極細3
  6
CONTINUOUS
 62
    7
 10
329.6253436780998
 20
191.84805965113787
 40
1.825531472681392
  0
CIRCLE
  8
_0-a_極細3
  6
CONTINUOUS
 62
    7
 10
365.60312145587744
 20
188.24805965113796
 40
1.825531472681392
  0
CIRCLE
  8
_0-a_極細3
  6
CONTINUOUS
 62
    7
 10
370.40312145587723
 20
169.58139298447151
 40
1.825531472681392
  0
LINE
  8
_0-a_極細3
  6
CONTINUOUS
 62
    7
 10
387.93065977017159
 20
258.23477269126715
 11
388.76399310350507
 21
258.23477269126715
  0
LINE
  8
_0-a_極細3
  6
CONTINUOUS
 62
    7
 10
388.76399310350507
 20
258.23477269126715
 11
388.76399310350507
 21
156.99317239648806
  0
CIRCLE
  8
_0-a_極細3
  6
CONTINUOUS
 62
    7
 10
381.87655895587613
 20
242.24805965113774
 40
1.825531472681392
  0
CIRCLE
  8
_0-a_極細3
  6
CONTINUOUS
 62
    7
 10
380.88460293735892
 20
187.53818310792781
 40
0.5530864197530718
  0
CIRCLE
  8
_0-a_極細3
  6
CONTINUOUS
 62
    7
 10
382.21793627069292
 20
164.882112074758
 40
0.5530864197530718
  0
CIRCLE
  8
_0-a_極細3
  6
CONTINUOUS
 62
    7
 10
369.84756590031787
 20
223.13694854002691
 40
1.825531472681392
  0
LINE
  8
_0-a_極細3
  6
CONTINUOUS
 62
    7
 10
295.1239248830197
 20
208.11647385377071
 11
289.99362273313471
 21
222.21186316555918
  0
LINE
  8
_0-a_極細3
  6
CONTINUOUS
 62
    7
 10
345.11796755681638
 20
242.27548386480547
 11
350.24826970670114
 21
228.18009455301694
  0
LINE
  8
_0-a_極細3
  6
CONTINUOUS
 62
    7
 10
289.99362273313471
 20
222.21186316555918
 11
345.11796755681638
 21
242.27548386480547
  0
LINE
  8
_0-a_極細3
  6
CONTINUOUS
 62
    7
 10
295.1239248830197
 20
208.11647385377071
 11
350.24826970670114
 21
228.18009455301694
  0
LINE
  8
_0-a_極細3
  6
CENTER1
 62
    7
 10
287.60334041608462
 20
213.360538469635
 11
351.6343608986503
 21
236.66592395467049
  0
LINE
  8
_0-a_極細3
  6
CONTINUOUS
 62
    7
 10
313.76399310350507
 20
183.23477269126712
 11
313.76399310350507
 21
227.32033403958351
  0
LINE
  8
_0-a_極細3
  6
CONTINUOUS
 62
    7
 10
313.76399310350507
 20
227.32033403958351
 11
298.76399310350507
 21
227.32033403958351
  0
LINE
  8
_0-a_極細3
  6
CONTINUOUS
 62
    7
 10
298.76399310350507
 20
227.32033403958351
 11
298.76399310350507
 21
183.23477269126712
  0
CIRCLE
  8
_0-a_極細3
  6
CONTINUOUS
 62
    7
 10
328.14386219661901
 20
213.15670162644597
 40
1.825531472681392
  0
CIRCLE
  8
_0-a_極細3
  6
CONTINUOUS
 62
    7
 10
349.85250417192759
 20
219.37892384866839
 40
1.825531472681392
  0
LINE
  8
_0-a_極細3
  6
CENTER1
 62
    7
 10
306.26399310350507
 20
174.95803240681425
 11
306.26399310350507
 21
231.59605420419282
  0
LINE
  8
_0-d_寸法3
  6
CONTINUOUS
 62
    7
 10
328.76399310350502
 20
296.5681060246007
 11
282.81396202491578
 21
296.56810602460064
  0
LINE
  8
_0-d_寸法3
  6
CONTINUOUS
 62
    7
 10
287.81396202491578
 20
296.56810602460064
 11
290.40215247594091
 21
286.90884776170992
  0
LINE
  8
_0-d_寸法3
  6
CONTINUOUS
 62
    7
 10
287.81396202491578
 20
296.56810602460064
 11
285.22577157389048
 21
286.90884776170998
  0
LINE
  8
_0-d_寸法3
  6
CONTINUOUS
 62
    7
 10
326.76399310350507
 20
258.23477269126721
 11
282.8139620249159
 21
258.23477269126715
  0
LINE
  8
_0-d_寸法3
  6
CONTINUOUS
 62
    7
 10
287.8139620249159
 20
258.23477269126715
 11
285.22577157389071
 21
267.89403095415781
  0
LINE
  8
_0-d_寸法3
  6
CONTINUOUS
 62
    7
 10
287.8139620249159
 20
258.23477269126715
 11
290.40215247594119
 21
267.89403095415787
  0
LINE
  8
_0-d_寸法3
  6
CONTINUOUS
 62
    7
 10
287.81396202491578
 20
296.56810602460064
 11
287.8139620249159
 21
258.23477269126715
  0
TEXT
  8
_0-d_寸法3
 62
    7
 10
287.81396202491578
 20
269.9014393579339
 40
15
 41
1
 50
90
  1
23
  0
LINE
  8
_0-d_寸法3
  6
CONTINUOUS
 62
    7
 10
328.76399310350502
 20
258.23477269126698
 11
282.8139620249159
 21
258.23477269126693
  0
LINE
  8
_0-d_寸法3
  6
CONTINUOUS
 62
    7
 10
287.8139620249159
 20
258.23477269126693
 11
290.40215247594119
 21
248.57551442837627
  0
LINE
  8
_0-d_寸法3
  6
CONTINUOUS
 62
    7
 10
287.8139620249159
 20
258.23477269126693
 11
285.22577157389071
 21
248.57551442837629
  0
LINE
  8
_0-d_寸法3
  6
CONTINUOUS
 62
    7
 10
326.76399310350507
 20
219.9014393579337
 11
282.8139620249159
 21
219.9014393579337
  0
LINE
  8
_0-d_寸法3
  6
CONTINUOUS
 62
    7
 10
287.8139620249159
 20
219.9014393579337
 11
285.22577157389071
 21
229.56069762082436
  0
LINE
  8
_0-d_寸法3
  6
CONTINUOUS
 62
    7
 10
287.8139620249159
 20
219.9014393579337
 11
290.40215247594119
 21
229.56069762082436
  0
LINE
  8
_0-d_寸法3
  6
CONTINUOUS
 62
    7
 10
287.8139620249159
 20
258.23477269126693
 11
287.8139620249159
 21
219.9014393579337
  0
TEXT
  8
_0-d_寸法3
 62
    7
 10
287.8139620249159
 20
231.56810602460067
 40
15
 41
1
 50
90
  1
23
  0
LINE
  8
_0-d_寸法3
  6
CONTINUOUS
 62
    7
 10
338.76399310350502
 20
209.9014393579339
 11
338.76399310350502
 21
192.7567474570285
  0
LINE
  8
_0-d_寸法3
  6
CONTINUOUS
 62
    7
 10
338.76399310350502
 20
197.7567474570285
 11
348.42325136639568
 21
200.34493790805371
  0
LINE
  8
_0-d_寸法3
  6
CONTINUOUS
 62
    7
 10
338.76399310350502
 20
197.7567474570285
 11
348.42325136639568
 21
195.16855700600331
  0
LINE
  8
_0-d_寸法3
  6
CONTINUOUS
 62
    7
 10
388.76399310350502
 20
248.23477269126715
 11
388.7639931035045
 21
192.7567474570285
  0
LINE
  8
_0-d_寸法3
  6
CONTINUOUS
 62
    7
 10
388.76399310350456
 20
197.7567474570285
 11
379.10473484061384
 21
195.16855700600331
  0
LINE
  8
_0-d_寸法3
  6
CONTINUOUS
 62
    7
 10
388.76399310350456
 20
197.7567474570285
 11
379.1047348406139
 21
200.34493790805371
  0
LINE
  8
_0-d_寸法3
  6
CONTINUOUS
 62
    7
 10
338.76399310350502
 20
197.7567474570285
 11
388.76399310350456
 21
197.7567474570285
  0
TEXT
  8
_0-d_寸法3
 62
    7
 10
356.26399310350456
 20
197.7567474570285
 40
15
 41
1
 50
0
  1
30
  0
ARC
  8
_0-b_細線3
  6
CONTINUOUS
 62
    7
 10
343.76399310350502
 20
263.23477269126715
 40
5
 50
179.99999999999983
 51
269.99999999999977
  0
LINE
  8
_0-b_細線3
  6
CONTINUOUS
 62
    7
 10
338.76399310350502
 20
263.23477269126715
 11
338.76399310350502
 21
295.73477269126715
  0
LINE
  8
_0-b_細線3
  6
CONTINUOUS
 62
    7
 10
343.76399310350502
 20
258.23477269126715
 11
387.93065977017159
 21
258.23477269126715
  0
LINE
  8
_0-b_細線3
  6
CONTINUOUS
 62
    7
 10
388.76399310350507
 20
259.06810602460041
 11
387.93065977017159
 21
258.23477269126715
  0
LINE
  8
_0-b_細線3
  6
CONTINUOUS
 62
    7
 10
388.76399310350507
 20
262.4014393579339
 11
388.76399310350507
 21
259.06810602460041
  0
LINE
  8
_0-b_細線3
  6
CONTINUOUS
 62
    7
 10
387.93065977017159
 20
263.23477269126715
 11
388.76399310350507
 21
262.4014393579339
  0
LINE
  8
_0-b_細線3
  6
CONTINUOUS
 62
    7
 10
343.76399310350502
 20
263.23477269126715
 11
387.93065977017159
 21
263.23477269126715
  0
LINE
  8
_0-b_細線3
  6
CONTINUOUS
 62
    7
 10
339.5973264368381
 20
296.56810602460064
 11
338.76399310350502
 21
295.73477269126715
  0
LINE
  8
_0-b_細線3
  6
CONTINUOUS
 62
    7
 10
342.93065977017159
 20
296.56810602460064
 11
339.5973264368381
 21
296.56810602460064
  0
LINE
  8
_0-b_細線3
  6
CONTINUOUS
 62
    7
 10
343.76399310350502
 20
295.73477269126715
 11
342.93065977017159
 21
296.56810602460064
  0
LINE
  8
_0-b_細線3
  6
CONTINUOUS
 62
    7
 10
343.76399310350502
 20
263.23477269126715
 11
343.76399310350502
 21
295.73477269126715
  0
ARC
  8
_0-b_細線3
  6
CONTINUOUS
 62
    7
 10
412.0973264368385
 20
317.70421713571159
 40
46.136111111111113
 50
256.63227178393214
 51
283.36772821606706
  0
ARC
  8
_0-b_細線3
  6
CONTINUOUS
 62
    7
 10
412.0973264368385
 20
242.09866158015643
 40
46.136111111111113
 50
76.632271783932524
 51
103.36772821606749
  0
LINE
  8
_0-b_細線3
  6
CONTINUOUS
 62
    7
 10
407.0973264368381
 20
294.56810602460064
 11
407.0973264368381
 21
296.56810602460064
  0
LINE
  8
_0-b_細線3
  6
CONTINUOUS
 62
    7
 10
401.43065977017204
 20
294.56810602460064
 11
407.0973264368381
 21
294.56810602460064
  0
LINE
  8
_0-b_細線3
  6
CONTINUOUS
 62
    7
 10
401.43065977017204
 20
263.23477269126738
 11
401.43065977017204
 21
294.56810602460064
  0
LINE
  8
_0-b_細線3
  6
CONTINUOUS
 62
    7
 10
399.43065977017199
 20
263.23477269126738
 11
401.43065977017204
 21
263.23477269126738
  0
LINE
  8
_0-b_細線3
  6
CONTINUOUS
 62
    7
 10
399.43065977017199
 20
294.56810602460064
 11
399.43065977017199
 21
263.23477269126738
  0
LINE
  8
_0-b_細線3
  6
CONTINUOUS
 62
    7
 10
393.76399310350507
 20
294.56810602460064
 11
399.43065977017199
 21
294.56810602460064
  0
LINE
  8
_0-b_細線3
  6
CONTINUOUS
 62
    7
 10
393.76399310350507
 20
296.56810602460064
 11
393.76399310350507
 21
294.56810602460064
  0
LINE
  8
_0-b_細線3
  6
CONTINUOUS
 62
    7
 10
407.0973264368381
 20
296.56810602460064
 11
393.76399310350507
 21
296.56810602460064
  0
ARC
  8
_0-b_細線3
  6
CONTINUOUS
 62
    7
 10
388.76399310350507
 20
317.70421713571159
 40
46.136111111111113
 50
256.63227178393214
 51
283.36772821606706
  0
ARC
  8
_0-b_細線3
  6
CONTINUOUS
 62
    7
 10
388.76399310350507
 20
242.09866158015643
 40
46.136111111111113
 50
76.632271783932524
 51
103.36772821606749
  0
LINE
  8
_0-b_細線3
  6
CONTINUOUS
 62
    7
 10
383.76399310350502
 20
294.56810602460064
 11
383.76399310350502
 21
296.56810602460064
  0
LINE
  8
_0-b_細線3
  6
CONTINUOUS
 62
    7
 10
378.0973264368385
 20
294.56810602460064
 11
383.76399310350502
 21
294.56810602460064
  0
LINE
  8
_0-b_細線3
  6
CONTINUOUS
 62
    7
 10
378.0973264368385
 20
263.23477269126738
 11
378.0973264368385
 21
294.56810602460064
  0
LINE
  8
_0-b_細線3
  6
CONTINUOUS
 62
    7
 10
376.0973264368385
 20
263.23477269126738
 11
378.0973264368385
 21
263.23477269126738
  0
LINE
  8
_0-b_細線3
  6
CONTINUOUS
 62
    7
 10
376.0973264368385
 20
294.56810602460064
 11
376.0973264368385
 21
263.23477269126738
  0
LINE
  8
_0-b_細線3
  6
CONTINUOUS
 62
    7
 10
370.43065977017199
 20
294.56810602460064
 11
376.0973264368385
 21
294.56810602460064
  0
LINE
  8
_0-b_細線3
  6
CONTINUOUS
 62
    7
 10
370.43065977017199
 20
296.56810602460064
 11
370.43065977017199
 21
294.56810602460064
  0
LINE
  8
_0-b_細線3
  6
CONTINUOUS
 62
    7
 10
383.76399310350502
 20
296.56810602460064
 11
370.43065977017199
 21
296.56810602460064
  0
ARC
  8
_0-b_細線3
  6
CONTINUOUS
 62
    7
 10
365.43065977017159
 20
317.70421713571159
 40
46.136111111111113
 50
256.63227178393214
 51
283.36772821606758
  0
ARC
  8
_0-b_細線3
  6
CONTINUOUS
 62
    7
 10
365.43065977017159
 20
242.09866158015643
 40
46.136111111111113
 50
76.632271783931969
 51
103.36772821606749
  0
LINE
  8
_0-b_細線3
  6
CONTINUOUS
 62
    7
 10
360.43065977017159
 20
294.56810602460064
 11
360.43065977017159
 21
296.56810602460064
  0
LINE
  8
_0-b_細線3
  6
CONTINUOUS
 62
    7
 10
354.76399310350502
 20
294.56810602460064
 11
360.43065977017159
 21
294.56810602460064
  0
LINE
  8
_0-b_細線3
  6
CONTINUOUS
 62
    7
 10
354.76399310350502
 20
263.23477269126738
 11
354.76399310350502
 21
294.56810602460064
  0
LINE
  8
_0-b_細線3
  6
CONTINUOUS
 62
    7
 10
352.76399310350507
 20
263.23477269126738
 11
354.76399310350502
 21
263.23477269126738
  0
LINE
  8
_0-b_細線3
  6
CONTINUOUS
 62
    7
 10
352.76399310350507
 20
294.56810602460064
 11
352.76399310350507
 21
263.23477269126738
  0
LINE
  8
_0-b_細線3
  6
CONTINUOUS
 62
    7
 10
347.0973264368385
 20
294.56810602460064
 11
352.76399310350507
 21
294.56810602460064
  0
LINE
  8
_0-b_細線3
  6
CONTINUOUS
 62
    7
 10
347.0973264368385
 20
296.56810602460064
 11
347.0973264368385
 21
294.56810602460064
  0
LINE
  8
_0-b_細線3
  6
CONTINUOUS
 62
    7
 10
360.43065977017159
 20
296.56810602460064
 11
347.0973264368385
 21
296.56810602460064
  0
LINE
  8
_0-d_寸法3
  6
CONTINUOUS
 62
    7
 10
338.76399310350502
 20
301.56810602460064
 11
338.76399310350502
 21
411.56810435625584
  0
LINE
  8
_0-d_寸法3
  6
CONTINUOUS
 62
    7
 10
338.76399310350502
 20
406.56810435625584
 11
348.42325136639568
 21
409.15629480728109
  0
LINE
  8
_0-d_寸法3
  6
CONTINUOUS
 62
    7
 10
338.76399310350502
 20
406.56810435625584
 11
348.42325136639568
 21
403.97991390523066
  0
LINE
  8
_0-d_寸法3
  6
CONTINUOUS
 62
    7
 10
602.0973264368381
 20
301.56810602460064
 11
602.09732643683856
 21
411.56810435625584
  0
LINE
  8
_0-d_寸法3
  6
CONTINUOUS
 62
    7
 10
602.09732643683856
 20
406.56810435625584
 11
592.43806817394784
 21
403.97991390523066
  0
LINE
  8
_0-d_寸法3
  6
CONTINUOUS
 62
    7
 10
602.09732643683856
 20
406.56810435625584
 11
592.43806817394784
 21
409.15629480728114
  0
LINE
  8
_0-d_寸法3
  6
CONTINUOUS
 62
    7
 10
338.76399310350502
 20
406.56810435625584
 11
602.09732643683856
 21
406.56810435625584
  0
TEXT
  8
_0-d_寸法3
 62
    7
 10
459.18065977017159
 20
406.56810435625584
 40
15
 41
1
 50
0
  1
158
  0
LINE
  8
_0-d_寸法3
  6
CONTINUOUS
 62
    7
 10
388.76399310350507
 20
253.23477269126715
 11
388.76399310350507
 21
192.7567474570285
  0
LINE
  8
_0-d_寸法3
  6
CONTINUOUS
 62
    7
 10
388.76399310350507
 20
197.7567474570285
 11
398.42325136639573
 21
200.34493790805371
  0
LINE
  8
_0-d_寸法3
  6
CONTINUOUS
 62
    7
 10
388.76399310350507
 20
197.7567474570285
 11
398.42325136639573
 21
195.16855700600331
  0
LINE
  8
_0-d_寸法3
  6
CONTINUOUS
 62
    7
 10
552.09732643683765
 20
253.23477269126715
 11
552.09732643683765
 21
192.7567474570285
  0
LINE
  8
_0-d_寸法3
  6
CONTINUOUS
 62
    7
 10
552.09732643683765
 20
197.7567474570285
 11
542.43806817394693
 21
195.16855700600331
  0
LINE
  8
_0-d_寸法3
  6
CONTINUOUS
 62
    7
 10
552.09732643683765
 20
197.7567474570285
 11
542.43806817394693
 21
200.34493790805371
  0
LINE
  8
_0-d_寸法3
  6
CONTINUOUS
 62
    7
 10
388.76399310350507
 20
197.7567474570285
 11
552.09732643683765
 21
197.7567474570285
  0
TEXT
  8
_0-d_寸法3
 62
    7
 10
462.93065977017159
 20
197.7567474570285
 40
15
 41
1
 50
0
  1
98
  0
LINE
  8
_0-a_極細3
  6
CENTER1
 62
    7
 10
604.76408150466023
 20
279.9014393579339
 11
337.11000065896451
 21
279.9014393579339
  0
ARC
  8
_0-b_細線3
  6
CONTINUOUS
 62
    7
 10
435.43065977017108
 20
317.70421713571159
 40
46.136111111111113
 50
256.63227178393214
 51
283.36772821606758
  0
ARC
  8
_0-b_細線3
  6
CONTINUOUS
 62
    7
 10
435.43065977017108
 20
242.09866158015643
 40
46.136111111111113
 50
76.632271783931969
 51
103.36772821606749
  0
LINE
  8
_0-b_細線3
  6
CONTINUOUS
 62
    7
 10
430.43065977017108
 20
294.56810602460064
 11
430.43065977017108
 21
296.56810602460064
  0
LINE
  8
_0-b_細線3
  6
CONTINUOUS
 62
    7
 10
424.76399310350462
 20
294.56810602460064
 11
430.43065977017108
 21
294.56810602460064
  0
LINE
  8
_0-b_細線3
  6
CONTINUOUS
 62
    7
 10
424.76399310350462
 20
263.23477269126738
 11
424.76399310350462
 21
294.56810602460064
  0
LINE
  8
_0-b_細線3
  6
CONTINUOUS
 62
    7
 10
422.76399310350456
 20
263.23477269126738
 11
424.76399310350462
 21
263.23477269126738
  0
LINE
  8
_0-b_細線3
  6
CONTINUOUS
 62
    7
 10
422.76399310350456
 20
294.56810602460064
 11
422.76399310350456
 21
263.23477269126738
  0
LINE
  8
_0-b_細線3
  6
CONTINUOUS
 62
    7
 10
417.0973264368381
 20
294.56810602460064
 11
422.76399310350456
 21
294.56810602460064
  0
LINE
  8
_0-b_細線3
  6
CONTINUOUS
 62
    7
 10
417.0973264368381
 20
296.56810602460064
 11
417.0973264368381
 21
294.56810602460064
  0
LINE
  8
_0-b_細線3
  6
CONTINUOUS
 62
    7
 10
430.43065977017108
 20
296.56810602460064
 11
417.0973264368381
 21
296.56810602460064
  0
ARC
  8
_0-b_細線3
  6
CONTINUOUS
 62
    7
 10
458.76399310350416
 20
317.70421713571159
 40
46.136111111111113
 50
256.63227178393214
 51
283.36772821606706
  0
ARC
  8
_0-b_細線3
  6
CONTINUOUS
 62
    7
 10
458.76399310350416
 20
242.09866158015643
 40
46.136111111111113
 50
76.632271783932524
 51
103.36772821606749
  0
LINE
  8
_0-b_細線3
  6
CONTINUOUS
 62
    7
 10
453.76399310350365
 20
294.56810602460064
 11
453.76399310350365
 21
296.56810602460064
  0
LINE
  8
_0-b_細線3
  6
CONTINUOUS
 62
    7
 10
448.09732643683759
 20
294.56810602460064
 11
453.76399310350365
 21
294.56810602460064
  0
LINE
  8
_0-b_細線3
  6
CONTINUOUS
 62
    7
 10
448.09732643683759
 20
263.23477269126738
 11
448.09732643683759
 21
294.56810602460064
  0
LINE
  8
_0-b_細線3
  6
CONTINUOUS
 62
    7
 10
446.09732643683765
 20
263.23477269126738
 11
448.09732643683759
 21
263.23477269126738
  0
LINE
  8
_0-b_細線3
  6
CONTINUOUS
 62
    7
 10
446.09732643683765
 20
294.56810602460064
 11
446.09732643683765
 21
263.23477269126738
  0
LINE
  8
_0-b_細線3
  6
CONTINUOUS
 62
    7
 10
440.43065977017068
 20
294.56810602460064
 11
446.09732643683765
 21
294.56810602460064
  0
LINE
  8
_0-b_細線3
  6
CONTINUOUS
 62
    7
 10
440.43065977017068
 20
296.56810602460064
 11
440.43065977017068
 21
294.56810602460064
  0
LINE
  8
_0-b_細線3
  6
CONTINUOUS
 62
    7
 10
453.76399310350365
 20
296.56810602460064
 11
440.43065977017068
 21
296.56810602460064
  0
ARC
  8
_0-b_細線3
  6
CONTINUOUS
 62
    7
 10
505.4306597701725
 20
317.70421713571159
 40
46.136111111111113
 50
256.63227178393214
 51
283.36772821606769
  0
ARC
  8
_0-b_細線3
  6
CONTINUOUS
 62
    7
 10
505.4306597701725
 20
242.09866158015643
 40
46.136111111111113
 50
76.632271783931898
 51
103.36772821606749
  0
LINE
  8
_0-b_細線3
  6
CONTINUOUS
 62
    7
 10
523.76399310350598
 20
294.56810602460064
 11
523.76399310350598
 21
296.56810602460064
  0
LINE
  8
_0-b_細線3
  6
CONTINUOUS
 62
    7
 10
518.09732643683901
 20
294.56810602460064
 11
523.76399310350598
 21
294.56810602460064
  0
LINE
  8
_0-b_細線3
  6
CONTINUOUS
 62
    7
 10
518.09732643683901
 20
263.23477269126738
 11
518.09732643683901
 21
294.56810602460064
  0
LINE
  8
_0-b_細線3
  6
CONTINUOUS
 62
    7
 10
516.09732643683947
 20
263.23477269126738
 11
518.09732643683901
 21
263.23477269126738
  0
LINE
  8
_0-b_細線3
  6
CONTINUOUS
 62
    7
 10
516.09732643683947
 20
294.56810602460064
 11
516.09732643683947
 21
263.23477269126738
  0
LINE
  8
_0-b_細線3
  6
CONTINUOUS
 62
    7
 10
510.4306597701725
 20
294.56810602460064
 11
516.09732643683947
 21
294.56810602460064
  0
LINE
  8
_0-b_細線3
  6
CONTINUOUS
 62
    7
 10
510.4306597701725
 20
296.56810602460064
 11
510.4306597701725
 21
294.56810602460064
  0
LINE
  8
_0-b_細線3
  6
CONTINUOUS
 62
    7
 10
523.76399310350598
 20
296.56810602460064
 11
510.4306597701725
 21
296.56810602460064
  0
ARC
  8
_0-b_細線3
  6
CONTINUOUS
 62
    7
 10
482.09732643684038
 20
317.70421713571159
 40
46.136111111111113
 50
256.63227178393163
 51
283.36772821606706
  0
ARC
  8
_0-b_細線3
  6
CONTINUOUS
 62
    7
 10
482.09732643684038
 20
242.09866158015643
 40
46.136111111111113
 50
76.632271783932524
 51
103.36772821606803
  0
LINE
  8
_0-b_細線3
  6
CONTINUOUS
 62
    7
 10
500.43065977017335
 20
294.56810602460064
 11
500.43065977017335
 21
296.56810602460064
  0
LINE
  8
_0-b_細線3
  6
CONTINUOUS
 62
    7
 10
494.76399310350644
 20
294.56810602460064
 11
500.43065977017335
 21
294.56810602460064
  0
LINE
  8
_0-b_細線3
  6
CONTINUOUS
 62
    7
 10
494.76399310350644
 20
263.23477269126738
 11
494.76399310350644
 21
294.56810602460064
  0
LINE
  8
_0-b_細線3
  6
CONTINUOUS
 62
    7
 10
492.76399310350683
 20
263.23477269126738
 11
494.76399310350644
 21
263.23477269126738
  0
LINE
  8
_0-b_細線3
  6
CONTINUOUS
 62
    7
 10
492.76399310350683
 20
294.56810602460064
 11
492.76399310350683
 21
263.23477269126738
  0
LINE
  8
_0-b_細線3
  6
CONTINUOUS
 62
    7
 10
487.09732643684038
 20
294.56810602460064
 11
492.76399310350683
 21
294.56810602460064
  0
LINE
  8
_0-b_細線3
  6
CONTINUOUS
 62
    7
 10
487.09732643684038
 20
296.56810602460064
 11
487.09732643684038
 21
294.56810602460064
  0
LINE
  8
_0-b_細線3
  6
CONTINUOUS
 62
    7
 10
500.43065977017335
 20
296.56810602460064
 11
487.09732643684038
 21
296.56810602460064
  0
LINE
  8
_0-d_寸法3
  6
CONTINUOUS
 62
    7
 10
464.59732643686675
 20
268.56169339576832
 11
449.16649615199645
 21
295.28867545213689
  0
LINE
  8
_0-d_寸法3
  6
CONTINUOUS
 62
    7
 10
451.6664961519964
 20
290.95854843321467
 11
449.07830570097121
 21
300.61780669610533
  0
LINE
  8
_0-d_寸法3
  6
CONTINUOUS
 62
    7
 10
451.6664961519964
 20
290.95854843321467
 11
454.25468660302158
 21
300.61780669610533
  0
LINE
  8
_0-d_寸法3
  6
CONTINUOUS
 62
    7
 10
464.59732643686675
 20
301.89502672911181
 11
449.16649615199645
 21
328.62200878548038
  0
LINE
  8
_0-d_寸法3
  6
CONTINUOUS
 62
    7
 10
451.6664961519964
 20
324.29188176655822
 11
454.25468660302158
 21
314.6326235036675
  0
LINE
  8
_0-d_寸法3
  6
CONTINUOUS
 62
    7
 10
451.6664961519964
 20
324.29188176655822
 11
449.07830570097121
 21
314.6326235036675
  0
LINE
  8
_0-d_寸法3
  6
CONTINUOUS
 62
    7
 10
451.6664961519964
 20
290.95854843321467
 11
451.6664961519964
 21
324.29188176655822
  0
TEXT
  8
_0-d_寸法3
 62
    7
 10
451.6664961519964
 20
300.76456652741354
 40
15
 41
1
 50
90
  1
20
  0
LINE
  8
_0-d_寸法3
  6
CONTINUOUS
 62
    7
 10
393.76399310350456
 20
306.56810602460041
 11
393.76399310350456
 21
348.23477269126784
  0
LINE
  8
_0-d_寸法3
  6
CONTINUOUS
 62
    7
 10
393.76399310350456
 20
343.23477269126784
 11
384.10473484061384
 21
340.64658224024265
  0
LINE
  8
_0-d_寸法3
  6
CONTINUOUS
 62
    7
 10
393.76399310350456
 20
343.23477269126784
 11
384.1047348406139
 21
345.82296314229313
  0
LINE
  8
_0-d_寸法3
  6
CONTINUOUS
 62
    7
 10
407.0973264368381
 20
306.56810602460041
 11
407.0973264368381
 21
348.23477269126784
  0
CIRCLE
  8
_0-d_寸法3
  6
CONTINUOUS
 62
    1
 10
407.0973264368381
 20
343.23477269126784
 40
1.5000000000000002
  0
LINE
  8
_0-d_寸法3
  6
CONTINUOUS
 62
    7
 10
368.76399310350456
 20
343.23477269126784
 11
407.0973264368381
 21
343.23477269126784
  0
TEXT
  8
_0-d_寸法3
 62
    7
 10
376.33997713812818
 20
343.23477269126784
 40
15
 41
1
 50
0
  1
8
  0
LINE
  8
_0-d_寸法3
  6
CONTINUOUS
 62
    7
 10
417.0973264368377
 20
306.56810602460041
 11
417.09732643683816
 21
348.23477269126784
  0
LINE
  8
_0-d_寸法3
  6
CONTINUOUS
 62
    7
 10
417.0973264368381
 20
343.23477269126784
 11
426.75658469972882
 21
345.82296314229296
  0
LINE
  8
_0-d_寸法3
  6
CONTINUOUS
 62
    7
 10
417.0973264368381
 20
343.23477269126784
 11
426.75658469972871
 21
340.64658224024265
  0
LINE
  8
_0-d_寸法3
  6
CONTINUOUS
 62
    7
 10
407.0973264368381
 20
343.23477269126784
 11
442.0973264368381
 21
343.23477269126784
  0
TEXT
  8
_0-d_寸法3
 62
    7
 10
423.38919524512306
 20
343.23477269126784
 40
15
 41
1
 50
0
  1
6
  0
LINE
  8
_0-d_寸法3
  6
CONTINUOUS
 62
    7
 10
517.09732643683969
 20
306.56810602460041
 11
517.09732643683992
 21
348.23477269126784
  0
LINE
  8
_0-d_寸法3
  6
CONTINUOUS
 62
    7
 10
517.09732643683992
 20
343.23477269126784
 11
526.75658469973064
 21
345.82296314229302
  0
LINE
  8
_0-d_寸法3
  6
CONTINUOUS
 62
    7
 10
517.09732643683992
 20
343.23477269126784
 11
526.75658469973064
 21
340.64658224024265
  0
LINE
  8
_0-d_寸法3
  6
CONTINUOUS
 62
    7
 10
540.43065977017295
 20
306.56810602460041
 11
540.43065977017295
 21
348.23477269126784
  0
LINE
  8
_0-d_寸法3
  6
CONTINUOUS
 62
    7
 10
540.43065977017295
 20
343.23477269126784
 11
530.77140150728223
 21
340.64658224024265
  0
LINE
  8
_0-d_寸法3
  6
CONTINUOUS
 62
    7
 10
540.43065977017295
 20
343.23477269126784
 11
530.77140150728223
 21
345.82296314229313
  0
LINE
  8
_0-d_寸法3
  6
CONTINUOUS
 62
    7
 10
517.09732643683992
 20
343.23477269126784
 11
540.43065977017295
 21
343.23477269126784
  0
TEXT
  8
_0-d_寸法3
 62
    7
 10
521.26399310350644
 20
343.23477269126784
 40
15
 41
1
 50
0
  1
14
  0
LINE
  8
_0-d_寸法3
  6
CONTINUOUS
 62
    7
 10
540.43065977017295
 20
343.23477269126784
 11
550.08991803306367
 21
345.82296314229296
  0
LINE
  8
_0-d_寸法3
  6
CONTINUOUS
 62
    7
 10
540.43065977017295
 20
343.23477269126784
 11
550.08991803306367
 21
340.64658224024265
  0
LINE
  8
_0-d_寸法3
  6
CONTINUOUS
 62
    7
 10
563.76399310350644
 20
306.56810602460041
 11
563.76399310350644
 21
348.23477269126784
  0
LINE
  8
_0-d_寸法3
  6
CONTINUOUS
 62
    7
 10
563.76399310350644
 20
343.23477269126784
 11
554.10473484061572
 21
340.64658224024265
  0
LINE
  8
_0-d_寸法3
  6
CONTINUOUS
 62
    7
 10
563.76399310350644
 20
343.23477269126784
 11
554.10473484061572
 21
345.82296314229313
  0
LINE
  8
_0-d_寸法3
  6
CONTINUOUS
 62
    7
 10
540.43065977017295
 20
343.23477269126784
 11
563.76399310350644
 21
343.23477269126784
  0
TEXT
  8
_0-d_寸法3
 62
    7
 10
544.59732643683947
 20
343.23477269126784
 40
15
 41
1
 50
0
  1
14
  0
LINE
  8
_0-7_枠細線
  6
CONTINUOUS
 62
    5
 10
1139.4018171150183
 20
373.42884000293418
 11
1139.4018171150183
 21
453.42884000293418
  0
LINE
  8
_0-7_枠細線
  6
CONTINUOUS
 62
    5
 10
1229.4018171150183
 20
373.42884000293418
 11
1229.4018171150183
 21
453.42884000293418
  0
TEXT
  8
_0-7_枠細線
 62
    5
 10
1251.9018171150183
 20
430.92884000293418
 40
15
 41
1
 50
0
  1
蓋重量
  0
LINE
  8
_0-7_枠細線
  6
CONTINUOUS
 62
    5
 10
1319.4018171150183
 20
373.42884000293418
 11
1319.4018171150183
 21
453.42884000293418
  0
TEXT
  8
_0-7_枠細線
 62
    5
 10
1341.9018171150183
 20
430.92884000293418
 40
15
 41
1
 50
0
  1
枠重量
  0
LINE
  8
_0-7_枠細線
  6
CONTINUOUS
 62
    5
 10
1139.4018171150183
 20
423.42884000293418
 11
1409.4018171150183
 21
423.42884000293418
  0
LINE
  8
_0-7_枠細線
  6
CONTINUOUS
 62
    5
 10
1139.4018171150183
 20
453.42884000293418
 11
1409.4018171150183
 21
453.42884000293418
  0
LINE
  8
_0-7_枠細線
  6
CONTINUOUS
 62
    5
 10
1139.4018171150183
 20
373.42884000293418
 11
1409.4018171150183
 21
373.42884000293418
  0
LINE
  8
_0-7_枠細線
  6
CONTINUOUS
 62
    5
 10
1409.4018171150183
 20
373.42884000293418
 11
1409.4018171150183
 21
453.42884000293418
  0
TEXT
  8
_0-7_枠細線
 62
    5
 10
1161.9018171150183
 20
400.92884000293418
 40
15
 41
1
 50
0
  1
歩道用
  0
TEXT
  8
_0-7_枠細線
 62
    5
 10
1139.4018171150183
 20
380.92884000293418
 40
15
 41
1
 50
0
  1
（5.0kN/㎡）
  0
TEXT
  8
_0-7_枠細線
 62
    5
 10
1154.4018171150183
 20
430.92884000293418
 40
15
 41
1
 50
0
  1
適用荷重
  0
TEXT
  8
_0-7_枠細線
 62
    5
 10
1250.4018171150183
 20
392.17884000293418
 40
15
 41
0.8000000000000001
 50
0
  1
1.6kg/枚
  0
TEXT
  8
_0-7_枠細線
 62
    5
 10
1334.4018171150183
 20
392.17884000293418
 40
15
 41
0.8000000000000001
 50
0
  1
2.4kg/ｍ組
  0
LINE
  8
_0-1_計細線
  6
CONTINUOUS
 62
    3
 10
978.43374995921295
 20
678.68176632366715
 11
978.43374995921295
 21
672.68176632366715
  0
LINE
  8
_0-1_計細線
  6
CONTINUOUS
 62
    3
 10
978.43374995921295
 20
665.68176632366715
 11
978.43374995921295
 21
659.68176632366726
  0
LINE
  8
_0-1_計細線
  6
CONTINUOUS
 62
    3
 10
978.43374995921295
 20
652.68176632366715
 11
978.43374995921295
 21
646.68176632366726
  0
LINE
  8
_0-0_計極細
  6
CENTER2
 62
    2
 10
282.45440814130552
 20
656.18176632391726
 11
1167.2751488820463
 21
656.18176632391726
  0
LINE
  8
_0-1_計細線
  6
CONTINUOUS
 62
    3
 10
1164.9337499592125
 20
735.18176632366715
 11
284.9337499592134
 21
735.18176632366715
  0
ARC
  8
_0-1_計細線
  6
CONTINUOUS
 62
    3
 10
1151.8712499592311
 20
727.68176632366908
 40
15.062499999984542
 50
330.13716564368326
 51
29.862834356304496
  0
ARC
  8
_0-1_計細線
  6
CONTINUOUS
 62
    3
 10
1177.9962499592311
 20
712.68176632366908
 40
15.062500000017272
 50
150.13716564376668
 51
209.86283435624543
  0
LINE
  8
_0-5_寸法線
  6
CONTINUOUS
 62
    7
 10
475.43374995921306
 20
745.18176632366578
 11
475.4337499592134
 21
825.18176632366715
  0
LINE
  8
_0-5_寸法線
  6
CONTINUOUS
 62
    7
 10
475.4337499592134
 20
820.18176632366715
 11
485.09300822210406
 21
822.76995677469245
  0
LINE
  8
_0-5_寸法線
  6
CONTINUOUS
 62
    7
 10
475.4337499592134
 20
820.18176632366715
 11
485.09300822210406
 21
817.59357587264208
  0
LINE
  8
_0-5_寸法線
  6
CONTINUOUS
 62
    7
 10
974.43374995921306
 20
745.18176632366578
 11
974.4337499592134
 21
825.18176632366715
  0
LINE
  8
_0-5_寸法線
  6
CONTINUOUS
 62
    7
 10
974.4337499592134
 20
820.18176632366715
 11
964.7744916963228
 21
817.59357587264208
  0
LINE
  8
_0-5_寸法線
  6
CONTINUOUS
 62
    7
 10
974.4337499592134
 20
820.18176632366715
 11
964.7744916963228
 21
822.76995677469245
  0
LINE
  8
_0-5_寸法線
  6
CONTINUOUS
 62
    7
 10
475.4337499592134
 20
820.18176632366715
 11
974.4337499592134
 21
820.18176632366715
  0
TEXT
  8
_0-5_寸法線
 62
    7
 10
713.6837499592134
 20
820.18176632366715
 40
15
 41
1
 50
0
  1
499
  0
LINE
  8
_0-5_寸法線
  6
CONTINUOUS
 62
    7
 10
475.43374995921295
 20
745.18176632366715
 11
475.43374995921295
 21
790.18176632366715
  0
LINE
  8
_0-5_寸法線
  6
CONTINUOUS
 62
    7
 10
475.43374995921295
 20
785.18176632366715
 11
485.09300822210366
 21
787.76995677469245
  0
LINE
  8
_0-5_寸法線
  6
CONTINUOUS
 62
    7
 10
475.43374995921295
 20
785.18176632366715
 11
485.09300822210366
 21
782.59357587264208
  0
LINE
  8
_0-5_寸法線
  6
CONTINUOUS
 62
    7
 10
574.93374995921295
 20
745.18176632366715
 11
574.93374995921295
 21
790.18176632366715
  0
LINE
  8
_0-5_寸法線
  6
CONTINUOUS
 62
    7
 10
574.93374995921295
 20
785.18176632366715
 11
565.27449169632223
 21
782.59357587264208
  0
LINE
  8
_0-5_寸法線
  6
CONTINUOUS
 62
    7
 10
574.93374995921295
 20
785.18176632366715
 11
565.27449169632223
 21
787.76995677469245
  0
LINE
  8
_0-5_寸法線
  6
CONTINUOUS
 62
    7
 10
475.43374995921295
 20
785.18176632366715
 11
574.93374995921295
 21
785.18176632366715
  0
TEXT
  8
_0-5_寸法線
 62
    7
 10
510.183749959213
 20
785.18176632366715
 40
15
 41
1
 50
0
  1
99.5
  0
LINE
  8
_0-5_寸法線
  6
CONTINUOUS
 62
    7
 10
574.93374995921295
 20
785.18176632366715
 11
584.59300822210366
 21
787.76995677469245
  0
LINE
  8
_0-5_寸法線
  6
CONTINUOUS
 62
    7
 10
574.93374995921295
 20
785.18176632366715
 11
584.59300822210366
 21
782.59357587264185
  0
LINE
  8
_0-5_寸法線
  6
CONTINUOUS
 62
    7
 10
674.93374995921295
 20
745.18176632366715
 11
674.93374995921295
 21
790.18176632366715
  0
LINE
  8
_0-5_寸法線
  6
CONTINUOUS
 62
    7
 10
674.93374995921295
 20
785.18176632366715
 11
665.27449169632223
 21
782.59357587264208
  0
LINE
  8
_0-5_寸法線
  6
CONTINUOUS
 62
    7
 10
674.93374995921295
 20
785.18176632366715
 11
665.27449169632223
 21
787.76995677469245
  0
LINE
  8
_0-5_寸法線
  6
CONTINUOUS
 62
    7
 10
574.93374995921295
 20
785.18176632366715
 11
674.93374995921295
 21
785.18176632366715
  0
TEXT
  8
_0-5_寸法線
 62
    7
 10
613.6837499592134
 20
785.18176632366715
 40
15
 41
1
 50
0
  1
100
  0
LINE
  8
_0-5_寸法線
  6
CONTINUOUS
 62
    7
 10
674.93374995921295
 20
785.18176632366715
 11
684.59300822210366
 21
787.76995677469245
  0
LINE
  8
_0-5_寸法線
  6
CONTINUOUS
 62
    7
 10
674.93374995921295
 20
785.18176632366715
 11
684.59300822210366
 21
782.59357587264185
  0
LINE
  8
_0-5_寸法線
  6
CONTINUOUS
 62
    7
 10
774.93374995921295
 20
745.18176632366715
 11
774.93374995921295
 21
790.18176632366715
  0
LINE
  8
_0-5_寸法線
  6
CONTINUOUS
 62
    7
 10
774.93374995921295
 20
785.18176632366715
 11
765.27449169632223
 21
782.59357587264208
  0
LINE
  8
_0-5_寸法線
  6
CONTINUOUS
 62
    7
 10
774.93374995921295
 20
785.18176632366715
 11
765.27449169632223
 21
787.76995677469245
  0
LINE
  8
_0-5_寸法線
  6
CONTINUOUS
 62
    7
 10
674.93374995921295
 20
785.18176632366715
 11
774.93374995921295
 21
785.18176632366715
  0
TEXT
  8
_0-5_寸法線
 62
    7
 10
713.68374995921295
 20
785.18176632366715
 40
15
 41
1
 50
0
  1
100
  0
LINE
  8
_0-5_寸法線
  6
CONTINUOUS
 62
    7
 10
774.93374995921295
 20
785.18176632366715
 11
784.59300822210366
 21
787.76995677469245
  0
LINE
  8
_0-5_寸法線
  6
CONTINUOUS
 62
    7
 10
774.93374995921295
 20
785.18176632366715
 11
784.59300822210366
 21
782.59357587264185
  0
LINE
  8
_0-5_寸法線
  6
CONTINUOUS
 62
    7
 10
874.93374995921295
 20
745.18176632366715
 11
874.93374995921295
 21
790.18176632366715
  0
LINE
  8
_0-5_寸法線
  6
CONTINUOUS
 62
    7
 10
874.93374995921295
 20
785.18176632366715
 11
865.27449169632234
 21
782.59357587264208
  0
LINE
  8
_0-5_寸法線
  6
CONTINUOUS
 62
    7
 10
874.93374995921295
 20
785.18176632366715
 11
865.27449169632234
 21
787.76995677469245
  0
LINE
  8
_0-5_寸法線
  6
CONTINUOUS
 62
    7
 10
774.93374995921295
 20
785.18176632366715
 11
874.93374995921295
 21
785.18176632366715
  0
TEXT
  8
_0-5_寸法線
 62
    7
 10
813.68374995921295
 20
785.18176632366715
 40
15
 41
1
 50
0
  1
100
  0
LINE
  8
_0-5_寸法線
  6
CONTINUOUS
 62
    7
 10
874.93374995921295
 20
785.18176632366715
 11
884.59300822210366
 21
787.76995677469245
  0
LINE
  8
_0-5_寸法線
  6
CONTINUOUS
 62
    7
 10
874.93374995921295
 20
785.18176632366715
 11
884.59300822210366
 21
782.59357587264185
  0
LINE
  8
_0-5_寸法線
  6
CONTINUOUS
 62
    7
 10
974.43374995921317
 20
745.18176632366715
 11
974.4337499592134
 21
790.18176632366715
  0
LINE
  8
_0-5_寸法線
  6
CONTINUOUS
 62
    7
 10
974.4337499592134
 20
785.18176632366715
 11
964.7744916963228
 21
782.59357587264208
  0
LINE
  8
_0-5_寸法線
  6
CONTINUOUS
 62
    7
 10
974.4337499592134
 20
785.18176632366715
 11
964.7744916963228
 21
787.76995677469245
  0
LINE
  8
_0-5_寸法線
  6
CONTINUOUS
 62
    7
 10
874.93374995921295
 20
785.18176632366715
 11
974.4337499592134
 21
785.18176632366715
  0
TEXT
  8
_0-5_寸法線
 62
    7
 10
909.68374995921351
 20
785.18176632366715
 40
15
 41
1
 50
0
  1
99.5
  0
LINE
  8
_0-0_計極細
  6
CONTINUOUS
 62
    2
 10
1124.9337499592129
 20
730.18176632366715
 11
1125.0291220233089
 21
729.92689322064609
  0
LINE
  8
_0-0_計極細
  6
CONTINUOUS
 62
    2
 10
1125.0291220233089
 20
729.92689322064609
 11
1125.312550011475
 21
729.16922851338813
  0
LINE
  8
_0-0_計極細
  6
CONTINUOUS
 62
    2
 10
1125.312550011475
 20
729.16922851338813
 11
1125.7755546580627
 21
727.92945940611639
  0
LINE
  8
_0-0_計極細
  6
CONTINUOUS
 62
    2
 10
1125.7755546580627
 20
727.92945940611639
 11
1126.4028057607154
 21
726.24147608014721
  0
LINE
  8
_0-0_計極細
  6
CONTINUOUS
 62
    2
 10
1126.4028057607154
 20
726.24147608014721
 11
1127.1709166924966
 21
724.15149085304097
  0
LINE
  8
_0-0_計極細
  6
CONTINUOUS
 62
    2
 10
1127.1709166924966
 20
724.15149085304097
 11
1128.0477640640777
 21
721.71681302226602
  0
LINE
  8
_0-0_計極細
  6
CONTINUOUS
 62
    2
 10
1128.0477640640777
 20
721.71681302226602
 11
1128.992975681565
 21
719.0042960423466
  0
LINE
  8
_0-0_計極細
  6
CONTINUOUS
 62
    2
 10
1128.992975681565
 20
719.0042960423466
 11
1129.9600009782307
 21
716.08848791444393
  0
LINE
  8
_0-0_計極細
  6
CONTINUOUS
 62
    2
 10
1129.9600009782307
 20
716.08848791444393
 11
1130.8997986039067
 21
713.04953279329311
  0
LINE
  8
_0-0_計極細
  6
CONTINUOUS
 62
    2
 10
1130.8997986039067
 20
713.04953279329311
 11
1131.7657382455516
 21
709.97088916794394
  0
LINE
  8
_0-0_計極細
  6
CONTINUOUS
 62
    2
 10
1131.7657382455516
 20
709.97088916794394
 11
1132.5189296180938
 21
706.9369444008023
  0
LINE
  8
_0-0_計極細
  6
CONTINUOUS
 62
    2
 10
1132.5189296180938
 20
706.9369444008023
 11
1133.1329640915135
 21
704.03061403131744
  0
LINE
  8
_0-0_計極細
  6
CONTINUOUS
 62
    2
 10
1133.1329640915135
 20
704.03061403131744
 11
1133.5970523485585
 21
701.33101515203737
  0
LINE
  8
_0-0_計極細
  6
CONTINUOUS
 62
    2
 10
1133.5970523485585
 20
701.33101515203737
 11
1133.9167810040026
 21
698.91129588747401
  0
LINE
  8
_0-0_計極細
  6
CONTINUOUS
 62
    2
 10
1133.9167810040026
 20
698.91129588747401
 11
1134.1121503214331
 21
696.83668869939663
  0
LINE
  8
_0-0_計極細
  6
CONTINUOUS
 62
    2
 10
1134.1121503214331
 20
696.83668869939663
 11
1134.2131023524389
 21
695.16283643612962
  0
LINE
  8
_0-0_計極細
  6
CONTINUOUS
 62
    2
 10
1134.2131023524389
 20
695.16283643612962
 11
1134.2532831408666
 21
693.93442009532396
  0
LINE
  8
_0-0_計極細
  6
CONTINUOUS
 62
    2
 10
1134.2532831408666
 20
693.93442009532396
 11
1134.2631820101803
 21
693.18409960989288
  0
LINE
  8
_0-0_計極細
  6
CONTINUOUS
 62
    2
 10
1134.2631820101803
 20
693.18409960989288
 11
1134.2639608190007
 21
692.93176632366692
  0
LINE
  8
_0-0_計極細
  6
CONTINUOUS
 62
    2
 10
1134.2639608190007
 20
692.93176632366692
 11
1134.2634435936159
 21
692.6794678357935
  0
LINE
  8
_0-0_計極細
  6
CONTINUOUS
 62
    2
 10
1134.2634435936159
 20
692.6794678357935
 11
1134.2543223392943
 21
691.92965803824734
  0
LINE
  8
_0-0_計極細
  6
CONTINUOUS
 62
    2
 10
1134.2543223392943
 20
691.92965803824734
 11
1134.2154139861054
 21
690.7033652307698
  0
LINE
  8
_0-0_計極細
  6
CONTINUOUS
 62
    2
 10
1134.2154139861054
 20
690.7033652307698
 11
1134.1161945018698
 21
689.03488754706314
  0
LINE
  8
_0-0_計極細
  6
CONTINUOUS
 62
    2
 10
1134.1161945018698
 20
689.03488754706314
 11
1133.92297058338
 21
686.97071403762652
  0
LINE
  8
_0-0_計極細
  6
CONTINUOUS
 62
    2
 10
1133.92297058338
 20
686.97071403762652
 11
1133.6057416581575
 21
684.56809700256713
  0
LINE
  8
_0-0_計極細
  6
CONTINUOUS
 62
    2
 10
1133.6057416581575
 20
684.56809700256713
 11
1133.1444392764906
 21
681.89334474347731
  0
LINE
  8
_0-0_計極細
  6
CONTINUOUS
 62
    2
 10
1133.1444392764906
 20
681.89334474347731
 11
1132.533400832187
 21
679.01990742501187
  0
LINE
  8
_0-0_計極細
  6
CONTINUOUS
 62
    2
 10
1132.533400832187
 20
679.01990742501187
 11
1131.7833339186354
 21
676.02632495042019
  0
LINE
  8
_0-0_計極細
  6
CONTINUOUS
 62
    2
 10
1131.7833339186354
 20
676.02632495042019
 11
1130.9205619387583
 21
672.99409701081674
  0
LINE
  8
_0-0_計極細
  6
CONTINUOUS
 62
    2
 10
1130.9205619387583
 20
672.99409701081674
 11
1129.983888772073
 21
670.00552489023437
  0
LINE
  8
_0-0_計極細
  6
CONTINUOUS
 62
    2
 10
1129.983888772073
 20
670.00552489023437
 11
1129.0198595045235
 21
667.14156533018684
  0
LINE
  8
_0-0_計極細
  6
CONTINUOUS
 62
    2
 10
1129.0198595045235
 20
667.14156533018684
 11
1128.0774337624141
 21
664.47973117173638
  0
LINE
  8
_0-0_計極細
  6
CONTINUOUS
 62
    2
 10
1128.0774337624141
 20
664.47973117173638
 11
1127.2030861210546
 21
662.09207270288857
  0
LINE
  8
_0-0_計極細
  6
CONTINUOUS
 62
    2
 10
1127.2030861210546
 20
662.09207270288857
 11
1126.4371205882142
 21
660.0432772324807
  0
LINE
  8
_0-0_計極細
  6
CONTINUOUS
 62
    2
 10
1126.4371205882142
 20
660.0432772324807
 11
1125.8116020323312
 21
658.38893061147633
  0
LINE
  8
_0-0_計極細
  6
CONTINUOUS
 62
    2
 10
1125.8116020323312
 20
658.38893061147633
 11
1125.3498698209826
 21
657.17399057046475
  0
LINE
  8
_0-0_計極細
  6
CONTINUOUS
 62
    2
 10
1125.3498698209826
 20
657.17399057046475
 11
1125.0672194478088
 21
656.43152499474525
  0
LINE
  8
_0-0_計極細
  6
CONTINUOUS
 62
    2
 10
1125.0672194478088
 20
656.43152499474525
 11
1124.9721089671484
 21
656.18176632366715
  0
LINE
  8
_0-1_計細線
  6
CONTINUOUS
 62
    3
 10
978.43374995921295
 20
730.18176632366715
 11
978.43374995921295
 21
724.18176632366726
  0
LINE
  8
_0-1_計細線
  6
CONTINUOUS
 62
    3
 10
978.43374995921295
 20
717.18176632366726
 11
978.43374995921295
 21
711.18176632366715
  0
LINE
  8
_0-1_計細線
  6
CONTINUOUS
 62
    3
 10
978.43374995921295
 20
704.18176632366726
 11
978.43374995921295
 21
698.18176632366715
  0
LINE
  8
_0-1_計細線
  6
CONTINUOUS
 62
    3
 10
978.43374995921295
 20
691.18176632366715
 11
978.43374995921295
 21
685.68176632366715
  0
LINE
  8
_0-1_計細線
  6
CONTINUOUS
 62
    3
 10
1164.9337499592125
 20
705.18176632366715
 11
1132.8994196340959
 21
705.18176632366715
  0
ARC
  8
_0-1_計細線
  6
CONTINUOUS
 62
    3
 10
297.99624995919476
 20
727.68176632366908
 40
15.062499999984542
 50
150.13716564369517
 51
209.86283435631606
  0
ARC
  8
_0-1_計細線
  6
CONTINUOUS
 62
    3
 10
271.87124995919476
 20
712.68176632366908
 40
15.062500000017272
 50
330.13716564375386
 51
29.862834356232998
  0
LINE
  8
_0-0_計極細
  6
CONTINUOUS
 62
    2
 10
324.93374995921295
 20
730.18176632366715
 11
324.83837789511699
 21
729.92689322064609
  0
LINE
  8
_0-0_計極細
  6
CONTINUOUS
 62
    2
 10
324.83837789511699
 20
729.92689322064609
 11
324.55494990695104
 21
729.16922851338813
  0
LINE
  8
_0-0_計極細
  6
CONTINUOUS
 62
    2
 10
324.55494990695104
 20
729.16922851338813
 11
324.09194526036322
 21
727.92945940611639
  0
LINE
  8
_0-0_計極細
  6
CONTINUOUS
 62
    2
 10
324.09194526036322
 20
727.92945940611639
 11
323.46469415771048
 21
726.24147608014721
  0
LINE
  8
_0-0_計極細
  6
CONTINUOUS
 62
    2
 10
323.46469415771048
 20
726.24147608014721
 11
322.69658322592937
 21
724.15149085304097
  0
LINE
  8
_0-0_計極細
  6
CONTINUOUS
 62
    2
 10
322.69658322592937
 20
724.15149085304097
 11
321.81973585434827
 21
721.71681302226602
  0
LINE
  8
_0-0_計極細
  6
CONTINUOUS
 62
    2
 10
321.81973585434827
 20
721.71681302226602
 11
320.87452423686096
 21
719.0042960423466
  0
LINE
  8
_0-0_計極細
  6
CONTINUOUS
 62
    2
 10
320.87452423686096
 20
719.0042960423466
 11
319.9074989401953
 21
716.08848791444393
  0
LINE
  8
_0-0_計極細
  6
CONTINUOUS
 62
    2
 10
319.9074989401953
 20
716.08848791444393
 11
318.9677013145195
 21
713.04953279329311
  0
LINE
  8
_0-0_計極細
  6
CONTINUOUS
 62
    2
 10
318.9677013145195
 20
713.04953279329311
 11
318.1017616728742
 21
709.97088916794394
  0
LINE
  8
_0-0_計極細
  6
CONTINUOUS
 62
    2
 10
318.1017616728742
 20
709.97088916794394
 11
317.34857030033209
 21
706.9369444008023
  0
LINE
  8
_0-0_計極細
  6
CONTINUOUS
 62
    2
 10
317.34857030033209
 20
706.9369444008023
 11
316.73453582691241
 21
704.03061403131744
  0
LINE
  8
_0-0_計極細
  6
CONTINUOUS
 62
    2
 10
316.73453582691241
 20
704.03061403131744
 11
316.27044756986749
 21
701.33101515203737
  0
LINE
  8
_0-0_計極細
  6
CONTINUOUS
 62
    2
 10
316.27044756986749
 20
701.33101515203737
 11
315.95071891442331
 21
698.91129588747401
  0
LINE
  8
_0-0_計極細
  6
CONTINUOUS
 62
    2
 10
315.95071891442331
 20
698.91129588747401
 11
315.75534959699274
 21
696.83668869939663
  0
LINE
  8
_0-0_計極細
  6
CONTINUOUS
 62
    2
 10
315.75534959699274
 20
696.83668869939663
 11
315.65439756598732
 21
695.16283643612962
  0
LINE
  8
_0-0_計極細
  6
CONTINUOUS
 62
    2
 10
315.65439756598732
 20
695.16283643612962
 11
315.61421677755931
 21
693.93442009532396
  0
LINE
  8
_0-0_計極細
  6
CONTINUOUS
 62
    2
 10
315.61421677755931
 20
693.93442009532396
 11
315.60431790824555
 21
693.18409960989288
  0
LINE
  8
_0-0_計極細
  6
CONTINUOUS
 62
    2
 10
315.60431790824555
 20
693.18409960989288
 11
315.60353909942523
 21
692.93176632366692
  0
LINE
  8
_0-0_計極細
  6
CONTINUOUS
 62
    2
 10
315.60353909942523
 20
692.93176632366692
 11
315.60405632481007
 21
692.6794678357935
  0
LINE
  8
_0-0_計極細
  6
CONTINUOUS
 62
    2
 10
315.60405632481007
 20
692.6794678357935
 11
315.6131775791315
 21
691.92965803824734
  0
LINE
  8
_0-0_計極細
  6
CONTINUOUS
 62
    2
 10
315.6131775791315
 20
691.92965803824734
 11
315.65208593232046
 21
690.7033652307698
  0
LINE
  8
_0-0_計極細
  6
CONTINUOUS
 62
    2
 10
315.65208593232046
 20
690.7033652307698
 11
315.75130541655608
 21
689.03488754706314
  0
LINE
  8
_0-0_計極細
  6
CONTINUOUS
 62
    2
 10
315.75130541655608
 20
689.03488754706314
 11
315.94452933504584
 21
686.97071403762652
  0
LINE
  8
_0-0_計極細
  6
CONTINUOUS
 62
    2
 10
315.94452933504584
 20
686.97071403762652
 11
316.26175826026849
 21
684.56809700256713
  0
LINE
  8
_0-0_計極細
  6
CONTINUOUS
 62
    2
 10
316.26175826026849
 20
684.56809700256713
 11
316.72306064193555
 21
681.89334474347731
  0
LINE
  8
_0-0_計極細
  6
CONTINUOUS
 62
    2
 10
316.72306064193555
 20
681.89334474347731
 11
317.33409908623912
 21
679.01990742501187
  0
LINE
  8
_0-0_計極細
  6
CONTINUOUS
 62
    2
 10
317.33409908623912
 20
679.01990742501187
 11
318.08416599979068
 21
676.02632495042019
  0
LINE
  8
_0-0_計極細
  6
CONTINUOUS
 62
    2
 10
318.08416599979068
 20
676.02632495042019
 11
318.94693797966767
 21
672.99409701081674
  0
LINE
  8
_0-0_計極細
  6
CONTINUOUS
 62
    2
 10
318.94693797966767
 20
672.99409701081674
 11
319.88361114635279
 21
670.00552489023437
  0
LINE
  8
_0-0_計極細
  6
CONTINUOUS
 62
    2
 10
319.88361114635279
 20
670.00552489023437
 11
320.84764041390224
 21
667.14156533018684
  0
LINE
  8
_0-0_計極細
  6
CONTINUOUS
 62
    2
 10
320.84764041390224
 20
667.14156533018684
 11
321.79006615601173
 21
664.47973117173638
  0
LINE
  8
_0-0_計極細
  6
CONTINUOUS
 62
    2
 10
321.79006615601173
 20
664.47973117173638
 11
322.66441379737137
 21
662.09207270288857
  0
LINE
  8
_0-0_計極細
  6
CONTINUOUS
 62
    2
 10
322.66441379737137
 20
662.09207270288857
 11
323.43037933021174
 21
660.0432772324807
  0
LINE
  8
_0-0_計極細
  6
CONTINUOUS
 62
    2
 10
323.43037933021174
 20
660.0432772324807
 11
324.05589788609467
 21
658.38893061147633
  0
LINE
  8
_0-0_計極細
  6
CONTINUOUS
 62
    2
 10
324.05589788609467
 20
658.38893061147633
 11
324.51763009744326
 21
657.17399057046475
  0
LINE
  8
_0-0_計極細
  6
CONTINUOUS
 62
    2
 10
324.51763009744326
 20
657.17399057046475
 11
324.800280470617
 21
656.43152499474525
  0
LINE
  8
_0-0_計極細
  6
CONTINUOUS
 62
    2
 10
324.800280470617
 20
656.43152499474525
 11
324.89539095127748
 21
656.18176632366715
  0
LINE
  8
_0-1_計細線
  6
CONTINUOUS
 62
    3
 10
284.9337499592134
 20
705.18176632366715
 11
316.96808028432997
 21
705.18176632366715
  0
LINE
  8
_0-1_計細線
  6
CONTINUOUS
 62
    3
 10
1166.245842344741
 20
732.18176632366726
 11
283.6216575736853
 21
732.18176632366726
  0
LINE
  8
_0-1_計細線
  6
CONTINUOUS
 62
    3
 10
1164.9337499592125
 20
577.18176632366726
 11
284.9337499592134
 21
577.18176632366726
  0
ARC
  8
_0-1_計細線
  6
CONTINUOUS
 62
    3
 10
1177.996249959202
 20
584.68176632366897
 40
15.06249999999028
 50
150.13716564371109
 51
209.86283435630014
  0
ARC
  8
_0-1_計細線
  6
CONTINUOUS
 62
    3
 10
1151.8712499592457
 20
599.6817663236576
 40
15.062499999975882
 50
330.13716564369213
 51
29.862834356369127
  0
LINE
  8
_0-5_寸法線
  6
CONTINUOUS
 62
    7
 10
789.91333556852499
 20
597.83756053693753
 11
795.77687767146358
 21
589.73701277724467
  0
LINE
  8
_0-5_寸法線
  6
CONTINUOUS
 62
    7
 10
789.91333556852499
 20
597.83756053693753
 11
790.94103810598313
 21
587.89050934100499
  0
LINE
  8
_0-5_寸法線
  6
CONTINUOUS
 62
    7
 10
789.91333556852499
 20
597.83756053693753
 11
813.27081868857886
 21
536.66624679596282
  0
LINE
  8
_0-5_寸法線
  6
CONTINUOUS
 62
    7
 10
813.27081868857886
 20
536.66624679596282
 11
947.70983090369873
 21
536.66624679596282
  0
TEXT
  8
_0-5_寸法線
 62
    7
 10
815.70983090369873
 20
536.66624679596282
 40
15
 41
0.8000000000000001
 50
0
  1
ステンレスグレーチング
  0
LINE
  8
_0-5_寸法線
  6
CONTINUOUS
 62
    7
 10
582.48907015678515
 20
578.39677801520031
 11
587.48907015678515
 21
569.73652397735589
  0
LINE
  8
_0-5_寸法線
  6
CONTINUOUS
 62
    7
 10
582.48907015678515
 20
578.39677801520031
 11
582.48907015678515
 21
568.39677801520031
  0
LINE
  8
_0-5_寸法線
  6
CONTINUOUS
 62
    7
 10
582.48907015678515
 20
578.39677801520031
 11
593.67073229670132
 21
536.66624679596282
  0
LINE
  8
_0-5_寸法線
  6
CONTINUOUS
 62
    7
 10
593.67073229670132
 20
536.66624679596282
 11
701.72160550813533
 21
536.66624679596282
  0
TEXT
  8
_0-5_寸法線
 62
    7
 10
593.72160550813533
 20
536.66624679596282
 40
15
 41
0.8000000000000001
 50
0
  1
ＳＵＳアングル受枠
  0
LINE
  8
_0-0_計極細
  6
CONTINUOUS
 62
    2
 10
1125.0104679750834
 20
656.28393442776371
 11
1124.9150959109875
 21
656.03417575668561
  0
LINE
  8
_0-0_計極細
  6
CONTINUOUS
 62
    2
 10
1124.9150959109875
 20
656.03417575668561
 11
1124.6316679228216
 21
655.29171018096622
  0
LINE
  8
_0-0_計極細
  6
CONTINUOUS
 62
    2
 10
1124.6316679228216
 20
655.29171018096622
 11
1124.1686632762339
 21
654.07677013995453
  0
LINE
  8
_0-0_計極細
  6
CONTINUOUS
 62
    2
 10
1124.1686632762339
 20
654.07677013995453
 11
1123.541412173581
 21
652.42242351895015
  0
LINE
  8
_0-0_計極細
  6
CONTINUOUS
 62
    2
 10
1123.541412173581
 20
652.42242351895015
 11
1122.7733012417998
 21
650.37362804854229
  0
LINE
  8
_0-0_計極細
  6
CONTINUOUS
 62
    2
 10
1122.7733012417998
 20
650.37362804854229
 11
1121.8964538702189
 21
647.98596957969437
  0
LINE
  8
_0-0_計極細
  6
CONTINUOUS
 62
    2
 10
1121.8964538702189
 20
647.98596957969437
 11
1120.9512422527316
 21
645.32413542124402
  0
LINE
  8
_0-0_計極細
  6
CONTINUOUS
 62
    2
 10
1120.9512422527316
 20
645.32413542124402
 11
1119.9842169560659
 21
642.46017586119638
  0
LINE
  8
_0-0_計極細
  6
CONTINUOUS
 62
    2
 10
1119.9842169560659
 20
642.46017586119638
 11
1119.0444193303902
 21
639.47160374061377
  0
LINE
  8
_0-0_計極細
  6
CONTINUOUS
 62
    2
 10
1119.0444193303902
 20
639.47160374061377
 11
1118.1784796887453
 21
636.43937580101033
  0
LINE
  8
_0-0_計極細
  6
CONTINUOUS
 62
    2
 10
1118.1784796887453
 20
636.43937580101033
 11
1117.425288316203
 21
633.44579332641854
  0
LINE
  8
_0-0_計極細
  6
CONTINUOUS
 62
    2
 10
1117.425288316203
 20
633.44579332641854
 11
1116.8112538427831
 21
630.5723560079532
  0
LINE
  8
_0-0_計極細
  6
CONTINUOUS
 62
    2
 10
1116.8112538427831
 20
630.5723560079532
 11
1116.3471655857384
 21
627.89760374886339
  0
LINE
  8
_0-0_計極細
  6
CONTINUOUS
 62
    2
 10
1116.3471655857384
 20
627.89760374886339
 11
1116.0274369302942
 21
625.49498671380411
  0
LINE
  8
_0-0_計極細
  6
CONTINUOUS
 62
    2
 10
1116.0274369302942
 20
625.49498671380411
 11
1115.8320676128637
 21
623.43081320436727
  0
LINE
  8
_0-0_計極細
  6
CONTINUOUS
 62
    2
 10
1115.8320676128637
 20
623.43081320436727
 11
1115.7311155818584
 21
621.7623355206606
  0
LINE
  8
_0-0_計極細
  6
CONTINUOUS
 62
    2
 10
1115.7311155818584
 20
621.7623355206606
 11
1115.6909347934302
 21
620.53604271318306
  0
LINE
  8
_0-0_計極細
  6
CONTINUOUS
 62
    2
 10
1115.6909347934302
 20
620.53604271318306
 11
1115.6810359241167
 21
619.7862329156369
  0
LINE
  8
_0-0_計極細
  6
CONTINUOUS
 62
    2
 10
1115.6810359241167
 20
619.7862329156369
 11
1115.6802571152962
 21
619.53393442776348
  0
LINE
  8
_0-0_計極細
  6
CONTINUOUS
 62
    2
 10
1115.6802571152962
 20
619.53393442776348
 11
1115.680774340681
 21
619.28160114153752
  0
LINE
  8
_0-0_計極細
  6
CONTINUOUS
 62
    2
 10
1115.680774340681
 20
619.28160114153752
 11
1115.6898955950028
 21
618.53128065610667
  0
LINE
  8
_0-0_計極細
  6
CONTINUOUS
 62
    2
 10
1115.6898955950028
 20
618.53128065610667
 11
1115.7288039481914
 21
617.30286431530078
  0
LINE
  8
_0-0_計極細
  6
CONTINUOUS
 62
    2
 10
1115.7288039481914
 20
617.30286431530078
 11
1115.828023432427
 21
615.62901205203389
  0
LINE
  8
_0-0_計極細
  6
CONTINUOUS
 62
    2
 10
1115.828023432427
 20
615.62901205203389
 11
1116.0212473509168
 21
613.55440486395639
  0
LINE
  8
_0-0_計極細
  6
CONTINUOUS
 62
    2
 10
1116.0212473509168
 20
613.55440486395639
 11
1116.3384762761393
 21
611.13468559939315
  0
LINE
  8
_0-0_計極細
  6
CONTINUOUS
 62
    2
 10
1116.3384762761393
 20
611.13468559939315
 11
1116.7997786578064
 21
608.43508672011296
  0
LINE
  8
_0-0_計極細
  6
CONTINUOUS
 62
    2
 10
1116.7997786578064
 20
608.43508672011296
 11
1117.4108171021101
 21
605.5287563506281
  0
LINE
  8
_0-0_計極細
  6
CONTINUOUS
 62
    2
 10
1117.4108171021101
 20
605.5287563506281
 11
1118.1608840156616
 21
602.49481158348658
  0
LINE
  8
_0-0_計極細
  6
CONTINUOUS
 62
    2
 10
1118.1608840156616
 20
602.49481158348658
 11
1119.0236559955383
 21
599.41616795813752
  0
LINE
  8
_0-0_計極細
  6
CONTINUOUS
 62
    2
 10
1119.0236559955383
 20
599.41616795813752
 11
1119.9603291622236
 21
596.37721283698693
  0
LINE
  8
_0-0_計極細
  6
CONTINUOUS
 62
    2
 10
1119.9603291622236
 20
596.37721283698693
 11
1120.9243584297731
 21
593.46140470908404
  0
LINE
  8
_0-0_計極細
  6
CONTINUOUS
 62
    2
 10
1120.9243584297731
 20
593.46140470908404
 11
1121.8667841718823
 21
590.74888772916461
  0
LINE
  8
_0-0_計極細
  6
CONTINUOUS
 62
    2
 10
1121.8667841718823
 20
590.74888772916461
 11
1122.741131813242
 21
588.31420989838978
  0
LINE
  8
_0-0_計極細
  6
CONTINUOUS
 62
    2
 10
1122.741131813242
 20
588.31420989838978
 11
1123.5070973460822
 21
586.22422467128354
  0
LINE
  8
_0-0_計極細
  6
CONTINUOUS
 62
    2
 10
1123.5070973460822
 20
586.22422467128354
 11
1124.1326159019652
 21
584.53624134531447
  0
LINE
  8
_0-0_計極細
  6
CONTINUOUS
 62
    2
 10
1124.1326159019652
 20
584.53624134531447
 11
1124.594348113314
 21
583.29647223804261
  0
LINE
  8
_0-0_計極細
  6
CONTINUOUS
 62
    2
 10
1124.594348113314
 20
583.29647223804261
 11
1124.8769984864875
 21
582.53880753078477
  0
LINE
  8
_0-0_計極細
  6
CONTINUOUS
 62
    2
 10
1124.8769984864875
 20
582.53880753078477
 11
1124.972108967148
 21
582.28393442776371
  0
LINE
  8
_0-1_計細線
  6
CONTINUOUS
 62
    3
 10
978.43374995921295
 20
639.68176632366726
 11
978.43374995921295
 21
634.18176632366715
  0
LINE
  8
_0-1_計細線
  6
CONTINUOUS
 62
    3
 10
978.43374995921295
 20
627.18176632366726
 11
978.43374995921295
 21
621.18176632366715
  0
LINE
  8
_0-1_計細線
  6
CONTINUOUS
 62
    3
 10
978.43374995921295
 20
614.18176632366715
 11
978.43374995921295
 21
608.18176632366715
  0
LINE
  8
_0-1_計細線
  6
CONTINUOUS
 62
    3
 10
978.43374995921295
 20
601.18176632366715
 11
978.43374995921295
 21
595.18176632366715
  0
LINE
  8
_0-1_計細線
  6
CONTINUOUS
 62
    3
 10
978.43374995921295
 20
588.18176632366715
 11
978.43374995921295
 21
582.18176632366726
  0
LINE
  8
_0-1_計細線
  6
CONTINUOUS
 62
    3
 10
1164.9337499592125
 20
607.18176632366726
 11
1117.0536410834275
 21
607.18176632366726
  0
ARC
  8
_0-1_計細線
  6
CONTINUOUS
 62
    3
 10
271.87124995922386
 20
584.68176632366897
 40
15.06249999999028
 50
330.13716564369918
 51
29.86283435628857
  0
ARC
  8
_0-1_計細線
  6
CONTINUOUS
 62
    3
 10
297.9962499591802
 20
599.6817663236576
 40
15.062499999975882
 50
150.13716564363051
 51
209.8628343563071
  0
LINE
  8
_0-0_計極細
  6
CONTINUOUS
 62
    2
 10
324.85703194334246
 20
656.28393442776371
 11
324.95240400743847
 21
656.03417575668561
  0
LINE
  8
_0-0_計極細
  6
CONTINUOUS
 62
    2
 10
324.95240400743847
 20
656.03417575668561
 11
325.23583199560443
 21
655.29171018096622
  0
LINE
  8
_0-0_計極細
  6
CONTINUOUS
 62
    2
 10
325.23583199560443
 20
655.29171018096622
 11
325.69883664219219
 21
654.07677013995453
  0
LINE
  8
_0-0_計極細
  6
CONTINUOUS
 62
    2
 10
325.69883664219219
 20
654.07677013995453
 11
326.32608774484487
 21
652.42242351895015
  0
LINE
  8
_0-0_計極細
  6
CONTINUOUS
 62
    2
 10
326.32608774484487
 20
652.42242351895015
 11
327.09419867662598
 21
650.37362804854229
  0
LINE
  8
_0-0_計極細
  6
CONTINUOUS
 62
    2
 10
327.09419867662598
 20
650.37362804854229
 11
327.97104604820697
 21
647.98596957969437
  0
LINE
  8
_0-0_計極細
  6
CONTINUOUS
 62
    2
 10
327.97104604820697
 20
647.98596957969437
 11
328.91625766569427
 21
645.32413542124402
  0
LINE
  8
_0-0_計極細
  6
CONTINUOUS
 62
    2
 10
328.91625766569427
 20
645.32413542124402
 11
329.88328296236
 21
642.46017586119638
  0
LINE
  8
_0-0_計極細
  6
CONTINUOUS
 62
    2
 10
329.88328296236
 20
642.46017586119638
 11
330.82308058803562
 21
639.47160374061377
  0
LINE
  8
_0-0_計極細
  6
CONTINUOUS
 62
    2
 10
330.82308058803562
 20
639.47160374061377
 11
331.68902022968086
 21
636.43937580101033
  0
LINE
  8
_0-0_計極細
  6
CONTINUOUS
 62
    2
 10
331.68902022968086
 20
636.43937580101033
 11
332.44221160222287
 21
633.44579332641854
  0
LINE
  8
_0-0_計極細
  6
CONTINUOUS
 62
    2
 10
332.44221160222287
 20
633.44579332641854
 11
333.05624607564278
 21
630.5723560079532
  0
LINE
  8
_0-0_計極細
  6
CONTINUOUS
 62
    2
 10
333.05624607564278
 20
630.5723560079532
 11
333.52033433268758
 21
627.89760374886339
  0
LINE
  8
_0-0_計極細
  6
CONTINUOUS
 62
    2
 10
333.52033433268758
 20
627.89760374886339
 11
333.84006298813171
 21
625.49498671380411
  0
LINE
  8
_0-0_計極細
  6
CONTINUOUS
 62
    2
 10
333.84006298813171
 20
625.49498671380411
 11
334.03543230556232
 21
623.43081320436727
  0
LINE
  8
_0-0_計極細
  6
CONTINUOUS
 62
    2
 10
334.03543230556232
 20
623.43081320436727
 11
334.13638433656763
 21
621.7623355206606
  0
LINE
  8
_0-0_計極細
  6
CONTINUOUS
 62
    2
 10
334.13638433656763
 20
621.7623355206606
 11
334.1765651249957
 21
620.53604271318306
  0
LINE
  8
_0-0_計極細
  6
CONTINUOUS
 62
    2
 10
334.1765651249957
 20
620.53604271318306
 11
334.18646399430941
 21
619.7862329156369
  0
LINE
  8
_0-0_計極細
  6
CONTINUOUS
 62
    2
 10
334.18646399430941
 20
619.7862329156369
 11
334.18724280312972
 21
619.53393442776348
  0
LINE
  8
_0-0_計極細
  6
CONTINUOUS
 62
    2
 10
334.18724280312972
 20
619.53393442776348
 11
334.18672557774494
 21
619.28160114153752
  0
LINE
  8
_0-0_計極細
  6
CONTINUOUS
 62
    2
 10
334.18672557774494
 20
619.28160114153752
 11
334.17760432342345
 21
618.53128065610667
  0
LINE
  8
_0-0_計極細
  6
CONTINUOUS
 62
    2
 10
334.17760432342345
 20
618.53128065610667
 11
334.13869597023455
 21
617.30286431530078
  0
LINE
  8
_0-0_計極細
  6
CONTINUOUS
 62
    2
 10
334.13869597023455
 20
617.30286431530078
 11
334.03947648599899
 21
615.62901205203389
  0
LINE
  8
_0-0_計極細
  6
CONTINUOUS
 62
    2
 10
334.03947648599899
 20
615.62901205203389
 11
333.84625256750917
 21
613.55440486395639
  0
LINE
  8
_0-0_計極細
  6
CONTINUOUS
 62
    2
 10
333.84625256750917
 20
613.55440486395639
 11
333.52902364228646
 21
611.13468559939315
  0
LINE
  8
_0-0_計極細
  6
CONTINUOUS
 62
    2
 10
333.52902364228646
 20
611.13468559939315
 11
333.06772126061952
 21
608.43508672011296
  0
LINE
  8
_0-0_計極細
  6
CONTINUOUS
 62
    2
 10
333.06772126061952
 20
608.43508672011296
 11
332.45668281631595
 21
605.5287563506281
  0
LINE
  8
_0-0_計極細
  6
CONTINUOUS
 62
    2
 10
332.45668281631595
 20
605.5287563506281
 11
331.70661590276444
 21
602.49481158348658
  0
LINE
  8
_0-0_計極細
  6
CONTINUOUS
 62
    2
 10
331.70661590276444
 20
602.49481158348658
 11
330.84384392288746
 21
599.41616795813752
  0
LINE
  8
_0-0_計極細
  6
CONTINUOUS
 62
    2
 10
330.84384392288746
 20
599.41616795813752
 11
329.90717075620233
 21
596.37721283698693
  0
LINE
  8
_0-0_計極細
  6
CONTINUOUS
 62
    2
 10
329.90717075620233
 20
596.37721283698693
 11
328.943141488653
 21
593.46140470908404
  0
LINE
  8
_0-0_計極細
  6
CONTINUOUS
 62
    2
 10
328.943141488653
 20
593.46140470908404
 11
328.00071574654351
 21
590.74888772916461
  0
LINE
  8
_0-0_計極細
  6
CONTINUOUS
 62
    2
 10
328.00071574654351
 20
590.74888772916461
 11
327.12636810518393
 21
588.31420989838978
  0
LINE
  8
_0-0_計極細
  6
CONTINUOUS
 62
    2
 10
327.12636810518393
 20
588.31420989838978
 11
326.36040257234362
 21
586.22422467128354
  0
LINE
  8
_0-0_計極細
  6
CONTINUOUS
 62
    2
 10
326.36040257234362
 20
586.22422467128354
 11
325.73488401646068
 21
584.53624134531447
  0
LINE
  8
_0-0_計極細
  6
CONTINUOUS
 62
    2
 10
325.73488401646068
 20
584.53624134531447
 11
325.27315180511209
 21
583.29647223804261
  0
LINE
  8
_0-0_計極細
  6
CONTINUOUS
 62
    2
 10
325.27315180511209
 20
583.29647223804261
 11
324.99050143193841
 21
582.53880753078477
  0
LINE
  8
_0-0_計極細
  6
CONTINUOUS
 62
    2
 10
324.99050143193841
 20
582.53880753078477
 11
324.89539095127793
 21
582.28393442776371
  0
LINE
  8
_0-1_計細線
  6
CONTINUOUS
 62
    3
 10
284.9337499592134
 20
607.18176632366726
 11
332.81385883499843
 21
607.18176632366726
  0
LINE
  8
_0-1_計細線
  6
CONTINUOUS
 62
    3
 10
286.24584234473832
 20
580.18176632366715
 11
1163.6216575736876
 21
580.18176632366715
  0
LINE
  8
_0-1_計細線
  6
CONTINUOUS
 62
    3
 10
471.4337499592134
 20
730.18176632366715
 11
474.43374995921346
 21
730.18176632366715
  0
LINE
  8
_0-1_計細線
  6
CONTINUOUS
 62
    3
 10
474.43374995921346
 20
730.18176632366715
 11
474.43374995921346
 21
582.18176632366726
  0
LINE
  8
_0-1_計細線
  6
CONTINUOUS
 62
    3
 10
474.43374995921346
 20
582.18176632366726
 11
471.4337499592134
 21
582.18176632366726
  0
LINE
  8
_0-1_計細線
  6
CONTINUOUS
 62
    3
 10
471.4337499592134
 20
582.18176632366726
 11
471.4337499592134
 21
730.18176632366715
  0
LINE
  8
_0-1_計細線
  6
CONTINUOUS
 62
    3
 10
978.43374995921295
 20
730.18176632366715
 11
975.43374995921295
 21
730.18176632366715
  0
LINE
  8
_0-1_計細線
  6
CONTINUOUS
 62
    3
 10
975.43374995921295
 20
730.18176632366715
 11
975.43374995921295
 21
582.18176632366726
  0
LINE
  8
_0-1_計細線
  6
CONTINUOUS
 62
    3
 10
975.43374995921295
 20
582.18176632366726
 11
978.43374995921295
 21
582.18176632366726
  0
LINE
  8
_0-1_計細線
  6
CONTINUOUS
 62
    3
 10
978.43374995921295
 20
582.18176632366726
 11
978.43374995921295
 21
730.18176632366715
  0
LINE
  8
_0-1_計細線
  6
CONTINUOUS
 62
    3
 10
974.43374995921306
 20
730.18176632366715
 11
971.43374995921306
 21
730.18176632366715
  0
LINE
  8
_0-1_計細線
  6
CONTINUOUS
 62
    3
 10
971.43374995921306
 20
730.18176632366715
 11
971.43374995921306
 21
582.18176632366726
  0
LINE
  8
_0-1_計細線
  6
CONTINUOUS
 62
    3
 10
971.43374995921306
 20
582.18176632366726
 11
974.43374995921306
 21
582.18176632366726
  0
LINE
  8
_0-1_計細線
  6
CONTINUOUS
 62
    3
 10
974.43374995921306
 20
582.18176632366726
 11
974.43374995921306
 21
730.18176632366715
  0
LINE
  8
_0-1_計細線
  6
CONTINUOUS
 62
    3
 10
478.43374995921295
 20
730.18176632366715
 11
475.43374995921295
 21
730.18176632366715
  0
LINE
  8
_0-1_計細線
  6
CONTINUOUS
 62
    3
 10
475.43374995921295
 20
730.18176632366715
 11
475.43374995921295
 21
582.18176632366726
  0
LINE
  8
_0-1_計細線
  6
CONTINUOUS
 62
    3
 10
475.43374995921295
 20
582.18176632366726
 11
478.43374995921295
 21
582.18176632366726
  0
LINE
  8
_0-1_計細線
  6
CONTINUOUS
 62
    3
 10
478.43374995921295
 20
582.18176632366726
 11
478.43374995921295
 21
730.18176632366715
  0
LINE
  8
_0-0_計極細
  6
CENTER2
 62
    2
 10
1074.9337499592129
 20
724.18176632366726
 11
1074.9337499592129
 21
588.18176632366715
  0
LINE
  8
_0-0_計極細
  6
CENTER2
 62
    2
 10
874.93374995921295
 20
724.18176632366726
 11
874.93374995921295
 21
588.18176632366715
  0
LINE
  8
_0-0_計極細
  6
CENTER2
 62
    2
 10
774.93374995921295
 20
724.18176632366726
 11
774.93374995921295
 21
588.18176632366715
  0
LINE
  8
_0-0_計極細
  6
CENTER2
 62
    2
 10
674.93374995921295
 20
724.18176632366726
 11
674.93374995921295
 21
588.18176632366715
  0
LINE
  8
_0-0_計極細
  6
CENTER2
 62
    2
 10
574.93374995921295
 20
724.18176632366726
 11
574.93374995921295
 21
588.18176632366715
  0
LINE
  8
_0-5_寸法線
  6
CONTINUOUS
 62
    7
 10
272.93374995921067
 20
577.18176632366578
 11
227.9337499592109
 21
577.18176632366578
  0
LINE
  8
_0-5_寸法線
  6
CONTINUOUS
 62
    7
 10
232.9337499592109
 20
577.18176632366578
 11
230.34555950818572
 21
586.8410245865565
  0
LINE
  8
_0-5_寸法線
  6
CONTINUOUS
 62
    7
 10
232.9337499592109
 20
577.18176632366578
 11
235.52194041023611
 21
586.8410245865565
  0
LINE
  8
_0-5_寸法線
  6
CONTINUOUS
 62
    7
 10
272.93374995921067
 20
607.18176632366726
 11
227.9337499592109
 21
607.18176632366738
  0
LINE
  8
_0-5_寸法線
  6
CONTINUOUS
 62
    7
 10
232.9337499592109
 20
607.18176632366738
 11
235.52194041023611
 21
597.52250806077666
  0
LINE
  8
_0-5_寸法線
  6
CONTINUOUS
 62
    7
 10
232.9337499592109
 20
607.18176632366738
 11
230.34555950818572
 21
597.52250806077666
  0
LINE
  8
_0-5_寸法線
  6
CONTINUOUS
 62
    7
 10
232.9337499592109
 20
577.18176632366578
 11
232.9337499592109
 21
607.18176632366738
  0
TEXT
  8
_0-5_寸法線
 62
    7
 10
232.9337499592109
 20
584.68176632366669
 40
15
 41
1
 50
90
  1
30
  0
LINE
  8
_0-5_寸法線
  6
CONTINUOUS
 62
    7
 10
232.9337499592109
 20
607.18176632366738
 11
230.34555950818572
 21
616.84102458655821
  0
LINE
  8
_0-5_寸法線
  6
CONTINUOUS
 62
    7
 10
232.9337499592109
 20
607.18176632366738
 11
235.52194041023611
 21
616.84102458655821
  0
LINE
  8
_0-5_寸法線
  6
CONTINUOUS
 62
    7
 10
272.93374995921067
 20
705.18176632366715
 11
227.9337499592109
 21
705.18176632366715
  0
LINE
  8
_0-5_寸法線
  6
CONTINUOUS
 62
    7
 10
232.9337499592109
 20
705.18176632366715
 11
235.52194041023611
 21
695.52250806077654
  0
LINE
  8
_0-5_寸法線
  6
CONTINUOUS
 62
    7
 10
232.9337499592109
 20
705.18176632366715
 11
230.34555950818572
 21
695.52250806077654
  0
LINE
  8
_0-5_寸法線
  6
CONTINUOUS
 62
    7
 10
232.9337499592109
 20
607.18176632366738
 11
232.9337499592109
 21
705.18176632366715
  0
TEXT
  8
_0-5_寸法線
 62
    7
 10
232.9337499592109
 20
648.68176632366738
 40
15
 41
1
 50
90
  1
98
  0
LINE
  8
_0-5_寸法線
  6
CONTINUOUS
 62
    7
 10
232.9337499592109
 20
705.18176632366715
 11
230.34555950818572
 21
714.84102458655786
  0
LINE
  8
_0-5_寸法線
  6
CONTINUOUS
 62
    7
 10
232.9337499592109
 20
705.18176632366715
 11
235.52194041023611
 21
714.84102458655786
  0
LINE
  8
_0-5_寸法線
  6
CONTINUOUS
 62
    7
 10
272.93374995921067
 20
735.18176632366578
 11
227.9337499592109
 21
735.18176632366578
  0
LINE
  8
_0-5_寸法線
  6
CONTINUOUS
 62
    7
 10
232.9337499592109
 20
735.18176632366578
 11
235.52194041023611
 21
725.52250806077507
  0
LINE
  8
_0-5_寸法線
  6
CONTINUOUS
 62
    7
 10
232.9337499592109
 20
735.18176632366578
 11
230.34555950818572
 21
725.52250806077507
  0
LINE
  8
_0-5_寸法線
  6
CONTINUOUS
 62
    7
 10
232.9337499592109
 20
705.18176632366715
 11
232.9337499592109
 21
735.18176632366578
  0
TEXT
  8
_0-5_寸法線
 62
    7
 10
232.9337499592109
 20
712.68176632366647
 40
15
 41
1
 50
90
  1
30
  0
LINE
  8
_0-5_寸法線
  6
CONTINUOUS
 62
    7
 10
1176.9337499592157
 20
577.18176632366578
 11
1256.9337499592157
 21
577.18176632366556
  0
LINE
  8
_0-5_寸法線
  6
CONTINUOUS
 62
    7
 10
1251.9337499592157
 20
577.18176632366556
 11
1249.3455595081905
 21
586.84102458655627
  0
LINE
  8
_0-5_寸法線
  6
CONTINUOUS
 62
    7
 10
1251.9337499592157
 20
577.18176632366556
 11
1254.5219404102409
 21
586.84102458655627
  0
LINE
  8
_0-5_寸法線
  6
CONTINUOUS
 62
    7
 10
1176.9337499592157
 20
735.18176632366578
 11
1256.9337499592157
 21
735.18176632366567
  0
LINE
  8
_0-5_寸法線
  6
CONTINUOUS
 62
    7
 10
1251.9337499592157
 20
735.18176632366567
 11
1254.5219404102409
 21
725.52250806077484
  0
LINE
  8
_0-5_寸法線
  6
CONTINUOUS
 62
    7
 10
1251.9337499592157
 20
735.18176632366567
 11
1249.3455595081905
 21
725.52250806077484
  0
LINE
  8
_0-5_寸法線
  6
CONTINUOUS
 62
    7
 10
1251.9337499592157
 20
577.18176632366556
 11
1251.9337499592157
 21
735.18176632366567
  0
TEXT
  8
_0-5_寸法線
 62
    7
 10
1251.9337499592157
 20
644.93176632366544
 40
15
 41
1
 50
90
  1
158
  0
LINE
  8
_0-0_計極細
  6
CENTER2
 62
    2
 10
374.93374995921295
 20
724.18176632366726
 11
374.93374995921295
 21
588.18176632366715
  0
LINE
  8
_0-1_計細線
  6
CONTINUOUS
 62
    3
 10
478.43374995921295
 20
730.18176632366715
 11
478.43374995921295
 21
722.18176632366738
  0
LINE
  8
_0-1_計細線
  6
CONTINUOUS
 62
    3
 10
478.43374995921295
 20
722.18176632366738
 11
971.43374995921306
 21
722.18176632366738
  0
LINE
  8
_0-1_計細線
  6
CONTINUOUS
 62
    3
 10
971.43374995921306
 20
722.18176632366738
 11
971.43374995921306
 21
730.18176632366715
  0
LINE
  8
_0-1_計細線
  6
CONTINUOUS
 62
    3
 10
971.43374995921306
 20
730.18176632366715
 11
478.43374995921295
 21
730.18176632366715
  0
LINE
  8
_0-1_計細線
  6
CONTINUOUS
 62
    3
 10
478.43374995921295
 20
716.18176632366715
 11
478.43374995921295
 21
708.18176632366749
  0
LINE
  8
_0-1_計細線
  6
CONTINUOUS
 62
    3
 10
478.43374995921295
 20
708.18176632366749
 11
971.43374995921306
 21
708.18176632366749
  0
LINE
  8
_0-1_計細線
  6
CONTINUOUS
 62
    3
 10
971.43374995921306
 20
708.18176632366749
 11
971.43374995921306
 21
716.18176632366715
  0
LINE
  8
_0-1_計細線
  6
CONTINUOUS
 62
    3
 10
971.43374995921306
 20
716.18176632366715
 11
478.43374995921295
 21
716.18176632366715
  0
LINE
  8
_0-1_計細線
  6
CONTINUOUS
 62
    3
 10
478.43374995921295
 20
702.18176632366738
 11
478.43374995921295
 21
694.18176632366783
  0
LINE
  8
_0-1_計細線
  6
CONTINUOUS
 62
    3
 10
478.43374995921295
 20
694.18176632366783
 11
971.43374995921306
 21
694.18176632366783
  0
LINE
  8
_0-1_計細線
  6
CONTINUOUS
 62
    3
 10
971.43374995921306
 20
694.18176632366783
 11
971.43374995921306
 21
702.18176632366738
  0
LINE
  8
_0-1_計細線
  6
CONTINUOUS
 62
    3
 10
971.43374995921306
 20
702.18176632366738
 11
478.43374995921295
 21
702.18176632366738
  0
LINE
  8
_0-1_計細線
  6
CONTINUOUS
 62
    3
 10
478.43374995921295
 20
688.18176632366749
 11
478.43374995921295
 21
680.1817663236676
  0
LINE
  8
_0-1_計細線
  6
CONTINUOUS
 62
    3
 10
478.43374995921295
 20
680.1817663236676
 11
971.43374995921306
 21
680.1817663236676
  0
LINE
  8
_0-1_計細線
  6
CONTINUOUS
 62
    3
 10
971.43374995921306
 20
680.1817663236676
 11
971.43374995921306
 21
688.18176632366749
  0
LINE
  8
_0-1_計細線
  6
CONTINUOUS
 62
    3
 10
971.43374995921306
 20
688.18176632366749
 11
478.43374995921295
 21
688.18176632366749
  0
LINE
  8
_0-1_計細線
  6
CONTINUOUS
 62
    3
 10
478.43374995921295
 20
674.18176632366738
 11
478.43374995921295
 21
666.18176632366772
  0
LINE
  8
_0-1_計細線
  6
CONTINUOUS
 62
    3
 10
478.43374995921295
 20
666.18176632366772
 11
971.43374995921306
 21
666.18176632366772
  0
LINE
  8
_0-1_計細線
  6
CONTINUOUS
 62
    3
 10
971.43374995921306
 20
666.18176632366772
 11
971.43374995921306
 21
674.18176632366738
  0
LINE
  8
_0-1_計細線
  6
CONTINUOUS
 62
    3
 10
971.43374995921306
 20
674.18176632366738
 11
478.43374995921295
 21
674.18176632366738
  0
LINE
  8
_0-1_計細線
  6
CONTINUOUS
 62
    3
 10
478.43374995921295
 20
660.18176632366715
 11
478.43374995921295
 21
652.18176632366738
  0
LINE
  8
_0-1_計細線
  6
CONTINUOUS
 62
    3
 10
478.43374995921295
 20
652.18176632366738
 11
971.43374995921306
 21
652.18176632366738
  0
LINE
  8
_0-1_計細線
  6
CONTINUOUS
 62
    3
 10
971.43374995921306
 20
652.18176632366738
 11
971.43374995921306
 21
660.18176632366715
  0
LINE
  8
_0-1_計細線
  6
CONTINUOUS
 62
    3
 10
971.43374995921306
 20
660.18176632366715
 11
478.43374995921295
 21
660.18176632366715
  0
LINE
  8
_0-1_計細線
  6
CONTINUOUS
 62
    3
 10
478.43374995921295
 20
646.18176632366715
 11
478.43374995921295
 21
638.18176632366749
  0
LINE
  8
_0-1_計細線
  6
CONTINUOUS
 62
    3
 10
478.43374995921295
 20
638.18176632366749
 11
971.43374995921306
 21
638.18176632366749
  0
LINE
  8
_0-1_計細線
  6
CONTINUOUS
 62
    3
 10
971.43374995921306
 20
638.18176632366749
 11
971.43374995921306
 21
646.18176632366715
  0
LINE
  8
_0-1_計細線
  6
CONTINUOUS
 62
    3
 10
971.43374995921306
 20
646.18176632366715
 11
478.43374995921295
 21
646.18176632366715
  0
LINE
  8
_0-0_計極細
  6
CONTINUOUS
 62
    2
 10
577.43374995921295
 20
722.18176632366738
 11
577.43374995921295
 21
716.18176632366715
  0
LINE
  8
_0-0_計極細
  6
CONTINUOUS
 62
    2
 10
572.43374995921295
 20
716.18176632366703
 11
572.43374995921295
 21
722.18176632366738
  0
LINE
  8
_0-0_計極細
  6
CONTINUOUS
 62
    2
 10
577.43374995921295
 20
708.18176632366749
 11
577.43374995921295
 21
702.18176632366692
  0
LINE
  8
_0-0_計極細
  6
CONTINUOUS
 62
    2
 10
572.43374995921295
 20
702.18176632366692
 11
572.43374995921295
 21
708.18176632366749
  0
LINE
  8
_0-0_計極細
  6
CONTINUOUS
 62
    2
 10
577.43374995921295
 20
694.18176632366738
 11
577.43374995921295
 21
688.18176632366703
  0
LINE
  8
_0-0_計極細
  6
CONTINUOUS
 62
    2
 10
572.43374995921295
 20
688.18176632366703
 11
572.43374995921295
 21
694.18176632366738
  0
LINE
  8
_0-0_計極細
  6
CONTINUOUS
 62
    2
 10
577.43374995921295
 20
680.18176632366692
 11
577.43374995921295
 21
674.18176632366669
  0
LINE
  8
_0-0_計極細
  6
CONTINUOUS
 62
    2
 10
572.43374995921295
 20
674.18176632366658
 11
572.43374995921295
 21
680.18176632366692
  0
LINE
  8
_0-0_計極細
  6
CONTINUOUS
 62
    2
 10
577.43374995921295
 20
666.18176632366703
 11
577.43374995921295
 21
660.18176632366681
  0
LINE
  8
_0-0_計極細
  6
CONTINUOUS
 62
    2
 10
572.43374995921295
 20
660.18176632366647
 11
572.43374995921295
 21
666.18176632366703
  0
LINE
  8
_0-0_計極細
  6
CONTINUOUS
 62
    2
 10
577.43374995921295
 20
652.18176632366692
 11
577.43374995921295
 21
646.18176632366669
  0
LINE
  8
_0-0_計極細
  6
CONTINUOUS
 62
    2
 10
572.43374995921295
 20
646.18176632366658
 11
572.43374995921295
 21
652.18176632366692
  0
LINE
  8
_0-0_計極細
  6
CONTINUOUS
 62
    2
 10
677.43374995921295
 20
722.18176632366738
 11
677.43374995921295
 21
716.18176632366715
  0
LINE
  8
_0-0_計極細
  6
CONTINUOUS
 62
    2
 10
672.43374995921295
 20
716.18176632366703
 11
672.43374995921295
 21
722.18176632366738
  0
LINE
  8
_0-0_計極細
  6
CONTINUOUS
 62
    2
 10
677.43374995921295
 20
708.18176632366749
 11
677.43374995921295
 21
702.18176632366692
  0
LINE
  8
_0-0_計極細
  6
CONTINUOUS
 62
    2
 10
672.43374995921295
 20
702.18176632366692
 11
672.43374995921295
 21
708.18176632366749
  0
LINE
  8
_0-0_計極細
  6
CONTINUOUS
 62
    2
 10
677.43374995921295
 20
694.18176632366738
 11
677.43374995921295
 21
688.18176632366703
  0
LINE
  8
_0-0_計極細
  6
CONTINUOUS
 62
    2
 10
672.43374995921295
 20
688.18176632366703
 11
672.43374995921295
 21
694.18176632366738
  0
LINE
  8
_0-0_計極細
  6
CONTINUOUS
 62
    2
 10
677.43374995921295
 20
680.18176632366692
 11
677.43374995921295
 21
674.18176632366669
  0
LINE
  8
_0-0_計極細
  6
CONTINUOUS
 62
    2
 10
672.43374995921295
 20
674.18176632366658
 11
672.43374995921295
 21
680.18176632366692
  0
LINE
  8
_0-0_計極細
  6
CONTINUOUS
 62
    2
 10
677.43374995921295
 20
666.18176632366703
 11
677.43374995921295
 21
660.18176632366681
  0
LINE
  8
_0-0_計極細
  6
CONTINUOUS
 62
    2
 10
672.43374995921295
 20
660.18176632366647
 11
672.43374995921295
 21
666.18176632366703
  0
LINE
  8
_0-0_計極細
  6
CONTINUOUS
 62
    2
 10
677.43374995921295
 20
652.18176632366692
 11
677.43374995921295
 21
646.18176632366669
  0
LINE
  8
_0-0_計極細
  6
CONTINUOUS
 62
    2
 10
672.43374995921295
 20
646.18176632366658
 11
672.43374995921295
 21
652.18176632366692
  0
LINE
  8
_0-0_計極細
  6
CONTINUOUS
 62
    2
 10
777.43374995921295
 20
722.18176632366738
 11
777.43374995921295
 21
716.18176632366715
  0
LINE
  8
_0-0_計極細
  6
CONTINUOUS
 62
    2
 10
772.43374995921295
 20
716.18176632366703
 11
772.43374995921295
 21
722.18176632366738
  0
LINE
  8
_0-0_計極細
  6
CONTINUOUS
 62
    2
 10
777.43374995921295
 20
708.18176632366749
 11
777.43374995921295
 21
702.18176632366692
  0
LINE
  8
_0-0_計極細
  6
CONTINUOUS
 62
    2
 10
772.43374995921295
 20
702.18176632366692
 11
772.43374995921295
 21
708.18176632366749
  0
LINE
  8
_0-0_計極細
  6
CONTINUOUS
 62
    2
 10
777.43374995921295
 20
694.18176632366738
 11
777.43374995921295
 21
688.18176632366703
  0
LINE
  8
_0-0_計極細
  6
CONTINUOUS
 62
    2
 10
772.43374995921295
 20
688.18176632366703
 11
772.43374995921295
 21
694.18176632366738
  0
LINE
  8
_0-0_計極細
  6
CONTINUOUS
 62
    2
 10
777.43374995921295
 20
680.18176632366692
 11
777.43374995921295
 21
674.18176632366669
  0
LINE
  8
_0-0_計極細
  6
CONTINUOUS
 62
    2
 10
772.43374995921295
 20
674.18176632366658
 11
772.43374995921295
 21
680.18176632366692
  0
LINE
  8
_0-0_計極細
  6
CONTINUOUS
 62
    2
 10
777.43374995921295
 20
666.18176632366703
 11
777.43374995921295
 21
660.18176632366681
  0
LINE
  8
_0-0_計極細
  6
CONTINUOUS
 62
    2
 10
772.43374995921295
 20
660.18176632366647
 11
772.43374995921295
 21
666.18176632366703
  0
LINE
  8
_0-0_計極細
  6
CONTINUOUS
 62
    2
 10
777.43374995921295
 20
652.18176632366692
 11
777.43374995921295
 21
646.18176632366669
  0
LINE
  8
_0-0_計極細
  6
CONTINUOUS
 62
    2
 10
772.43374995921295
 20
646.18176632366658
 11
772.43374995921295
 21
652.18176632366692
  0
LINE
  8
_0-0_計極細
  6
CONTINUOUS
 62
    2
 10
877.43374995921295
 20
722.18176632366738
 11
877.43374995921295
 21
716.18176632366715
  0
LINE
  8
_0-0_計極細
  6
CONTINUOUS
 62
    2
 10
872.43374995921295
 20
716.18176632366703
 11
872.43374995921295
 21
722.18176632366738
  0
LINE
  8
_0-0_計極細
  6
CONTINUOUS
 62
    2
 10
877.43374995921295
 20
708.18176632366749
 11
877.43374995921295
 21
702.18176632366692
  0
LINE
  8
_0-0_計極細
  6
CONTINUOUS
 62
    2
 10
872.43374995921295
 20
702.18176632366692
 11
872.43374995921295
 21
708.18176632366749
  0
LINE
  8
_0-0_計極細
  6
CONTINUOUS
 62
    2
 10
877.43374995921295
 20
694.18176632366738
 11
877.43374995921295
 21
688.18176632366703
  0
LINE
  8
_0-0_計極細
  6
CONTINUOUS
 62
    2
 10
872.43374995921295
 20
688.18176632366703
 11
872.43374995921295
 21
694.18176632366738
  0
LINE
  8
_0-0_計極細
  6
CONTINUOUS
 62
    2
 10
877.43374995921295
 20
680.18176632366692
 11
877.43374995921295
 21
674.18176632366669
  0
LINE
  8
_0-0_計極細
  6
CONTINUOUS
 62
    2
 10
872.43374995921295
 20
674.18176632366658
 11
872.43374995921295
 21
680.18176632366692
  0
LINE
  8
_0-0_計極細
  6
CONTINUOUS
 62
    2
 10
877.43374995921295
 20
666.18176632366703
 11
877.43374995921295
 21
660.18176632366681
  0
LINE
  8
_0-0_計極細
  6
CONTINUOUS
 62
    2
 10
872.43374995921295
 20
660.18176632366647
 11
872.43374995921295
 21
666.18176632366703
  0
LINE
  8
_0-0_計極細
  6
CONTINUOUS
 62
    2
 10
877.43374995921295
 20
652.18176632366692
 11
877.43374995921295
 21
646.18176632366669
  0
LINE
  8
_0-0_計極細
  6
CONTINUOUS
 62
    2
 10
872.43374995921295
 20
646.18176632366658
 11
872.43374995921295
 21
652.18176632366692
  0
LINE
  8
_0-1_計細線
  6
CONTINUOUS
 62
    3
 10
478.43374995921295
 20
632.18176632366726
 11
478.43374995921295
 21
624.18176632366738
  0
LINE
  8
_0-1_計細線
  6
CONTINUOUS
 62
    3
 10
478.43374995921295
 20
624.18176632366738
 11
971.43374995921306
 21
624.18176632366738
  0
LINE
  8
_0-1_計細線
  6
CONTINUOUS
 62
    3
 10
971.43374995921306
 20
624.18176632366738
 11
971.43374995921306
 21
632.18176632366726
  0
LINE
  8
_0-1_計細線
  6
CONTINUOUS
 62
    3
 10
971.43374995921306
 20
632.18176632366726
 11
478.43374995921295
 21
632.18176632366726
  0
LINE
  8
_0-0_計極細
  6
CONTINUOUS
 62
    2
 10
577.43374995921295
 20
638.18176632366692
 11
577.43374995921295
 21
632.18176632366669
  0
LINE
  8
_0-0_計極細
  6
CONTINUOUS
 62
    2
 10
572.43374995921295
 20
632.18176632366647
 11
572.43374995921295
 21
638.18176632366692
  0
LINE
  8
_0-0_計極細
  6
CONTINUOUS
 62
    2
 10
677.43374995921295
 20
638.18176632366692
 11
677.43374995921295
 21
632.18176632366669
  0
LINE
  8
_0-0_計極細
  6
CONTINUOUS
 62
    2
 10
672.43374995921295
 20
632.18176632366647
 11
672.43374995921295
 21
638.18176632366692
  0
LINE
  8
_0-0_計極細
  6
CONTINUOUS
 62
    2
 10
777.43374995921295
 20
638.18176632366692
 11
777.43374995921295
 21
632.18176632366669
  0
LINE
  8
_0-0_計極細
  6
CONTINUOUS
 62
    2
 10
772.43374995921295
 20
632.18176632366647
 11
772.43374995921295
 21
638.18176632366692
  0
LINE
  8
_0-0_計極細
  6
CONTINUOUS
 62
    2
 10
877.43374995921295
 20
638.18176632366692
 11
877.43374995921295
 21
632.18176632366669
  0
LINE
  8
_0-0_計極細
  6
CONTINUOUS
 62
    2
 10
872.43374995921295
 20
632.18176632366647
 11
872.43374995921295
 21
638.18176632366692
  0
LINE
  8
_0-1_計細線
  6
CONTINUOUS
 62
    3
 10
478.43374995921295
 20
618.18176632366715
 11
478.43374995921295
 21
610.18176632366738
  0
LINE
  8
_0-1_計細線
  6
CONTINUOUS
 62
    3
 10
478.43374995921295
 20
610.18176632366738
 11
971.43374995921306
 21
610.18176632366738
  0
LINE
  8
_0-1_計細線
  6
CONTINUOUS
 62
    3
 10
971.43374995921306
 20
610.18176632366738
 11
971.43374995921306
 21
618.18176632366715
  0
LINE
  8
_0-1_計細線
  6
CONTINUOUS
 62
    3
 10
971.43374995921306
 20
618.18176632366715
 11
478.43374995921295
 21
618.18176632366715
  0
LINE
  8
_0-0_計極細
  6
CONTINUOUS
 62
    2
 10
577.43374995921295
 20
624.18176632366692
 11
577.43374995921295
 21
618.18176632366669
  0
LINE
  8
_0-0_計極細
  6
CONTINUOUS
 62
    2
 10
572.43374995921295
 20
618.18176632366647
 11
572.43374995921295
 21
624.18176632366692
  0
LINE
  8
_0-0_計極細
  6
CONTINUOUS
 62
    2
 10
677.43374995921295
 20
624.18176632366692
 11
677.43374995921295
 21
618.18176632366669
  0
LINE
  8
_0-0_計極細
  6
CONTINUOUS
 62
    2
 10
672.43374995921295
 20
618.18176632366647
 11
672.43374995921295
 21
624.18176632366692
  0
LINE
  8
_0-0_計極細
  6
CONTINUOUS
 62
    2
 10
777.43374995921295
 20
624.18176632366692
 11
777.43374995921295
 21
618.18176632366669
  0
LINE
  8
_0-0_計極細
  6
CONTINUOUS
 62
    2
 10
772.43374995921295
 20
618.18176632366647
 11
772.43374995921295
 21
624.18176632366692
  0
LINE
  8
_0-0_計極細
  6
CONTINUOUS
 62
    2
 10
877.43374995921295
 20
624.18176632366692
 11
877.43374995921295
 21
618.18176632366669
  0
LINE
  8
_0-0_計極細
  6
CONTINUOUS
 62
    2
 10
872.43374995921295
 20
618.18176632366647
 11
872.43374995921295
 21
624.18176632366692
  0
LINE
  8
_0-1_計細線
  6
CONTINUOUS
 62
    3
 10
478.43374995921295
 20
604.18176632366715
 11
478.43374995921295
 21
596.18176632366738
  0
LINE
  8
_0-1_計細線
  6
CONTINUOUS
 62
    3
 10
478.43374995921295
 20
596.18176632366738
 11
971.43374995921306
 21
596.18176632366738
  0
LINE
  8
_0-1_計細線
  6
CONTINUOUS
 62
    3
 10
971.43374995921306
 20
596.18176632366738
 11
971.43374995921306
 21
604.18176632366715
  0
LINE
  8
_0-1_計細線
  6
CONTINUOUS
 62
    3
 10
971.43374995921306
 20
604.18176632366715
 11
478.43374995921295
 21
604.18176632366715
  0
LINE
  8
_0-0_計極細
  6
CONTINUOUS
 62
    2
 10
577.43374995921295
 20
610.18176632366692
 11
577.43374995921295
 21
604.18176632366669
  0
LINE
  8
_0-0_計極細
  6
CONTINUOUS
 62
    2
 10
572.43374995921295
 20
604.18176632366658
 11
572.43374995921295
 21
610.18176632366692
  0
LINE
  8
_0-0_計極細
  6
CONTINUOUS
 62
    2
 10
677.43374995921295
 20
610.18176632366692
 11
677.43374995921295
 21
604.18176632366669
  0
LINE
  8
_0-0_計極細
  6
CONTINUOUS
 62
    2
 10
672.43374995921295
 20
604.18176632366658
 11
672.43374995921295
 21
610.18176632366692
  0
LINE
  8
_0-0_計極細
  6
CONTINUOUS
 62
    2
 10
777.43374995921295
 20
610.18176632366692
 11
777.43374995921295
 21
604.18176632366669
  0
LINE
  8
_0-0_計極細
  6
CONTINUOUS
 62
    2
 10
772.43374995921295
 20
604.18176632366658
 11
772.43374995921295
 21
610.18176632366692
  0
LINE
  8
_0-0_計極細
  6
CONTINUOUS
 62
    2
 10
877.43374995921295
 20
610.18176632366692
 11
877.43374995921295
 21
604.18176632366669
  0
LINE
  8
_0-0_計極細
  6
CONTINUOUS
 62
    2
 10
872.43374995921295
 20
604.18176632366658
 11
872.43374995921295
 21
610.18176632366692
  0
LINE
  8
_0-1_計細線
  6
CONTINUOUS
 62
    3
 10
478.43374995921295
 20
590.18176632366715
 11
478.43374995921295
 21
582.18176632366738
  0
LINE
  8
_0-1_計細線
  6
CONTINUOUS
 62
    3
 10
478.43374995921295
 20
582.18176632366738
 11
971.43374995921306
 21
582.18176632366738
  0
LINE
  8
_0-1_計細線
  6
CONTINUOUS
 62
    3
 10
971.43374995921306
 20
582.18176632366738
 11
971.43374995921306
 21
590.18176632366715
  0
LINE
  8
_0-1_計細線
  6
CONTINUOUS
 62
    3
 10
971.43374995921306
 20
590.18176632366715
 11
478.43374995921295
 21
590.18176632366715
  0
LINE
  8
_0-0_計極細
  6
CONTINUOUS
 62
    2
 10
577.43374995921295
 20
596.18176632366703
 11
577.43374995921295
 21
590.18176632366681
  0
LINE
  8
_0-0_計極細
  6
CONTINUOUS
 62
    2
 10
572.43374995921295
 20
590.18176632366647
 11
572.43374995921295
 21
596.18176632366703
  0
LINE
  8
_0-0_計極細
  6
CONTINUOUS
 62
    2
 10
677.43374995921295
 20
596.18176632366703
 11
677.43374995921295
 21
590.18176632366681
  0
LINE
  8
_0-0_計極細
  6
CONTINUOUS
 62
    2
 10
672.43374995921295
 20
590.18176632366647
 11
672.43374995921295
 21
596.18176632366703
  0
LINE
  8
_0-0_計極細
  6
CONTINUOUS
 62
    2
 10
777.43374995921295
 20
596.18176632366703
 11
777.43374995921295
 21
590.18176632366681
  0
LINE
  8
_0-0_計極細
  6
CONTINUOUS
 62
    2
 10
772.43374995921295
 20
590.18176632366647
 11
772.43374995921295
 21
596.18176632366703
  0
LINE
  8
_0-0_計極細
  6
CONTINUOUS
 62
    2
 10
877.43374995921295
 20
596.18176632366703
 11
877.43374995921295
 21
590.18176632366681
  0
LINE
  8
_0-0_計極細
  6
CONTINUOUS
 62
    2
 10
872.43374995921295
 20
590.18176632366647
 11
872.43374995921295
 21
596.18176632366703
  0
LINE
  8
_0-0_計極細
  6
CONTINUOUS
 62
    2
 10
377.43374995921295
 20
722.18176632366738
 11
377.43374995921295
 21
716.18176632366715
  0
LINE
  8
_0-0_計極細
  6
CONTINUOUS
 62
    2
 10
372.43374995921295
 20
716.18176632366703
 11
372.43374995921295
 21
722.18176632366738
  0
LINE
  8
_0-0_計極細
  6
CONTINUOUS
 62
    2
 10
377.43374995921295
 20
708.18176632366749
 11
377.43374995921295
 21
702.18176632366692
  0
LINE
  8
_0-0_計極細
  6
CONTINUOUS
 62
    2
 10
372.43374995921295
 20
702.18176632366692
 11
372.43374995921295
 21
708.18176632366749
  0
LINE
  8
_0-0_計極細
  6
CONTINUOUS
 62
    2
 10
377.43374995921295
 20
694.18176632366738
 11
377.43374995921295
 21
688.18176632366703
  0
LINE
  8
_0-0_計極細
  6
CONTINUOUS
 62
    2
 10
372.43374995921295
 20
688.18176632366703
 11
372.43374995921295
 21
694.18176632366738
  0
LINE
  8
_0-0_計極細
  6
CONTINUOUS
 62
    2
 10
377.43374995921295
 20
680.18176632366692
 11
377.43374995921295
 21
674.18176632366669
  0
LINE
  8
_0-0_計極細
  6
CONTINUOUS
 62
    2
 10
372.43374995921295
 20
674.18176632366658
 11
372.43374995921295
 21
680.18176632366692
  0
LINE
  8
_0-0_計極細
  6
CONTINUOUS
 62
    2
 10
377.43374995921295
 20
666.18176632366703
 11
377.43374995921295
 21
660.18176632366681
  0
LINE
  8
_0-0_計極細
  6
CONTINUOUS
 62
    2
 10
372.43374995921295
 20
660.18176632366647
 11
372.43374995921295
 21
666.18176632366703
  0
LINE
  8
_0-0_計極細
  6
CONTINUOUS
 62
    2
 10
377.43374995921295
 20
652.18176632366692
 11
377.43374995921295
 21
646.18176632366669
  0
LINE
  8
_0-0_計極細
  6
CONTINUOUS
 62
    2
 10
372.43374995921295
 20
646.18176632366658
 11
372.43374995921295
 21
652.18176632366692
  0
LINE
  8
_0-0_計極細
  6
CONTINUOUS
 62
    2
 10
377.43374995921295
 20
638.18176632366692
 11
377.43374995921295
 21
632.18176632366669
  0
LINE
  8
_0-0_計極細
  6
CONTINUOUS
 62
    2
 10
372.43374995921295
 20
632.18176632366647
 11
372.43374995921295
 21
638.18176632366692
  0
LINE
  8
_0-0_計極細
  6
CONTINUOUS
 62
    2
 10
377.43374995921295
 20
624.18176632366692
 11
377.43374995921295
 21
618.18176632366669
  0
LINE
  8
_0-0_計極細
  6
CONTINUOUS
 62
    2
 10
372.43374995921295
 20
618.18176632366647
 11
372.43374995921295
 21
624.18176632366692
  0
LINE
  8
_0-0_計極細
  6
CONTINUOUS
 62
    2
 10
377.43374995921295
 20
610.18176632366692
 11
377.43374995921295
 21
604.18176632366669
  0
LINE
  8
_0-0_計極細
  6
CONTINUOUS
 62
    2
 10
372.43374995921295
 20
604.18176632366658
 11
372.43374995921295
 21
610.18176632366692
  0
LINE
  8
_0-0_計極細
  6
CONTINUOUS
 62
    2
 10
377.43374995921295
 20
596.18176632366703
 11
377.43374995921295
 21
590.18176632366681
  0
LINE
  8
_0-0_計極細
  6
CONTINUOUS
 62
    2
 10
372.43374995921295
 20
590.18176632366647
 11
372.43374995921295
 21
596.18176632366703
  0
LINE
  8
_0-1_計細線
  6
CONTINUOUS
 62
    3
 10
324.93374995921295
 20
730.18176632366715
 11
471.4337499592134
 21
730.18176632366715
  0
LINE
  8
_0-1_計細線
  6
CONTINUOUS
 62
    3
 10
471.4337499592134
 20
722.18176632366738
 11
321.98718843270944
 21
722.18176632366738
  0
LINE
  8
_0-1_計細線
  6
CONTINUOUS
 62
    3
 10
319.93843464563088
 20
716.18176632366715
 11
471.4337499592134
 21
716.18176632366715
  0
LINE
  8
_0-1_計細線
  6
CONTINUOUS
 62
    3
 10
471.4337499592134
 20
708.18176632366749
 11
317.6576033265128
 21
708.18176632366749
  0
LINE
  8
_0-1_計細線
  6
CONTINUOUS
 62
    3
 10
316.41670027113065
 20
702.18176632366738
 11
471.4337499592134
 21
702.18176632366738
  0
LINE
  8
_0-1_計細線
  6
CONTINUOUS
 62
    3
 10
471.4337499592134
 20
694.18176632366783
 11
315.62230732971148
 21
694.18176632366783
  0
LINE
  8
_0-1_計細線
  6
CONTINUOUS
 62
    3
 10
315.8311647040523
 20
688.18176632366749
 11
471.4337499592134
 21
688.18176632366749
  0
LINE
  8
_0-1_計細線
  6
CONTINUOUS
 62
    3
 10
471.4337499592134
 20
680.1817663236676
 11
317.08702898334423
 21
680.1817663236676
  0
LINE
  8
_0-1_計細線
  6
CONTINUOUS
 62
    3
 10
318.6090056655749
 20
674.18176632366738
 11
471.4337499592134
 21
674.18176632366738
  0
LINE
  8
_0-1_計細線
  6
CONTINUOUS
 62
    3
 10
471.4337499592134
 20
666.18176632366772
 11
321.18745846309321
 21
666.18176632366772
  0
LINE
  8
_0-1_計細線
  6
CONTINUOUS
 62
    3
 10
323.37860360537485
 20
660.18176632366715
 11
471.4337499592134
 21
660.18176632366715
  0
LINE
  8
_0-1_計細線
  6
CONTINUOUS
 62
    3
 10
471.4337499592134
 20
652.18176632366738
 11
326.7008336546096
 21
652.18176632366738
  0
LINE
  8
_0-1_計細線
  6
CONTINUOUS
 62
    3
 10
328.61171476623758
 20
646.18176632366715
 11
471.4337499592134
 21
646.18176632366715
  0
LINE
  8
_0-1_計細線
  6
CONTINUOUS
 62
    3
 10
471.4337499592134
 20
638.18176632366749
 11
331.19143065038497
 21
638.18176632366749
  0
LINE
  8
_0-1_計細線
  6
CONTINUOUS
 62
    3
 10
332.7123257787303
 20
632.18176632366726
 11
471.4337499592134
 21
632.18176632366726
  0
LINE
  8
_0-1_計細線
  6
CONTINUOUS
 62
    3
 10
471.4337499592134
 20
624.18176632366738
 11
333.96435630460155
 21
624.18176632366738
  0
LINE
  8
_0-1_計細線
  6
CONTINUOUS
 62
    3
 10
334.16653395042431
 20
618.18176632366715
 11
471.4337499592134
 21
618.18176632366715
  0
LINE
  8
_0-1_計細線
  6
CONTINUOUS
 62
    3
 10
471.4337499592134
 20
610.18176632366738
 11
333.36619058778979
 21
610.18176632366738
  0
LINE
  8
_0-1_計細線
  6
CONTINUOUS
 62
    3
 10
332.12367324308667
 20
604.18176632366715
 11
471.4337499592134
 21
604.18176632366715
  0
LINE
  8
_0-1_計細線
  6
CONTINUOUS
 62
    3
 10
471.4337499592134
 20
596.18176632366738
 11
329.84255190927706
 21
596.18176632366738
  0
LINE
  8
_0-1_計細線
  6
CONTINUOUS
 62
    3
 10
327.79704967746693
 20
590.18176632366715
 11
471.4337499592134
 21
590.18176632366715
  0
LINE
  8
_0-1_計細線
  6
CONTINUOUS
 62
    3
 10
471.4337499592134
 20
582.18176632366738
 11
324.89539095127793
 21
582.18176632366738
  0
LINE
  8
_0-0_計極細
  6
CONTINUOUS
 62
    2
 10
1077.4337499592129
 20
722.1817663236676
 11
1077.4337499592129
 21
716.18176632366738
  0
LINE
  8
_0-0_計極細
  6
CONTINUOUS
 62
    2
 10
1072.4337499592129
 20
716.18176632366715
 11
1072.4337499592129
 21
722.1817663236676
  0
LINE
  8
_0-0_計極細
  6
CONTINUOUS
 62
    2
 10
1077.4337499592129
 20
708.1817663236676
 11
1077.4337499592129
 21
702.18176632366726
  0
LINE
  8
_0-0_計極細
  6
CONTINUOUS
 62
    2
 10
1072.4337499592129
 20
702.18176632366726
 11
1072.4337499592129
 21
708.1817663236676
  0
LINE
  8
_0-0_計極細
  6
CONTINUOUS
 62
    2
 10
1077.4337499592129
 20
694.18176632366772
 11
1077.4337499592129
 21
688.18176632366715
  0
LINE
  8
_0-0_計極細
  6
CONTINUOUS
 62
    2
 10
1072.4337499592129
 20
688.18176632366715
 11
1072.4337499592129
 21
694.18176632366772
  0
LINE
  8
_0-0_計極細
  6
CONTINUOUS
 62
    2
 10
1077.4337499592129
 20
680.18176632366715
 11
1077.4337499592129
 21
674.18176632366692
  0
LINE
  8
_0-0_計極細
  6
CONTINUOUS
 62
    2
 10
1072.4337499592129
 20
674.18176632366669
 11
1072.4337499592129
 21
680.18176632366715
  0
LINE
  8
_0-0_計極細
  6
CONTINUOUS
 62
    2
 10
1077.4337499592129
 20
666.18176632366715
 11
1077.4337499592129
 21
660.18176632366692
  0
LINE
  8
_0-0_計極細
  6
CONTINUOUS
 62
    2
 10
1072.4337499592129
 20
660.18176632366681
 11
1072.4337499592129
 21
666.18176632366715
  0
LINE
  8
_0-0_計極細
  6
CONTINUOUS
 62
    2
 10
1077.4337499592129
 20
652.18176632366726
 11
1077.4337499592129
 21
646.18176632366703
  0
LINE
  8
_0-0_計極細
  6
CONTINUOUS
 62
    2
 10
1072.4337499592129
 20
646.18176632366669
 11
1072.4337499592129
 21
652.18176632366726
  0
LINE
  8
_0-0_計極細
  6
CONTINUOUS
 62
    2
 10
1077.4337499592129
 20
638.18176632366715
 11
1077.4337499592129
 21
632.18176632366692
  0
LINE
  8
_0-0_計極細
  6
CONTINUOUS
 62
    2
 10
1072.4337499592129
 20
632.18176632366669
 11
1072.4337499592129
 21
638.18176632366715
  0
LINE
  8
_0-0_計極細
  6
CONTINUOUS
 62
    2
 10
1077.4337499592129
 20
624.18176632366715
 11
1077.4337499592129
 21
618.18176632366692
  0
LINE
  8
_0-0_計極細
  6
CONTINUOUS
 62
    2
 10
1072.4337499592129
 20
618.18176632366669
 11
1072.4337499592129
 21
624.18176632366715
  0
LINE
  8
_0-0_計極細
  6
CONTINUOUS
 62
    2
 10
1077.4337499592129
 20
610.18176632366715
 11
1077.4337499592129
 21
604.18176632366692
  0
LINE
  8
_0-0_計極細
  6
CONTINUOUS
 62
    2
 10
1072.4337499592129
 20
604.18176632366669
 11
1072.4337499592129
 21
610.18176632366715
  0
LINE
  8
_0-0_計極細
  6
CONTINUOUS
 62
    2
 10
1077.4337499592129
 20
596.18176632366715
 11
1077.4337499592129
 21
590.18176632366692
  0
LINE
  8
_0-0_計極細
  6
CONTINUOUS
 62
    2
 10
1072.4337499592129
 20
590.18176632366681
 11
1072.4337499592129
 21
596.18176632366715
  0
LINE
  8
_0-1_計細線
  6
CONTINUOUS
 62
    3
 10
1124.9337499592129
 20
730.18176632366749
 11
978.43374995921295
 21
730.18176632366749
  0
LINE
  8
_0-1_計細線
  6
CONTINUOUS
 62
    3
 10
978.43374995921295
 20
722.1817663236676
 11
1127.8803114857164
 21
722.1817663236676
  0
LINE
  8
_0-1_計細線
  6
CONTINUOUS
 62
    3
 10
1129.929065272795
 20
716.18176632366738
 11
978.43374995921295
 21
716.18176632366738
  0
LINE
  8
_0-1_計細線
  6
CONTINUOUS
 62
    3
 10
978.43374995921295
 20
708.1817663236676
 11
1132.2098965919135
 21
708.1817663236676
  0
LINE
  8
_0-1_計細線
  6
CONTINUOUS
 62
    3
 10
1133.4507996472953
 20
702.1817663236676
 11
978.43374995921295
 21
702.1817663236676
  0
LINE
  8
_0-1_計細線
  6
CONTINUOUS
 62
    3
 10
978.43374995921295
 20
694.18176632366806
 11
1134.2451925887144
 21
694.18176632366806
  0
LINE
  8
_0-1_計細線
  6
CONTINUOUS
 62
    3
 10
1134.0363352143736
 20
688.1817663236676
 11
978.43374995921295
 21
688.1817663236676
  0
LINE
  8
_0-1_計細線
  6
CONTINUOUS
 62
    3
 10
978.43374995921295
 20
680.18176632366794
 11
1132.7804709350817
 21
680.18176632366794
  0
LINE
  8
_0-1_計細線
  6
CONTINUOUS
 62
    3
 10
1131.2584942528511
 20
674.18176632366772
 11
978.43374995921295
 21
674.18176632366772
  0
LINE
  8
_0-1_計細線
  6
CONTINUOUS
 62
    3
 10
978.43374995921295
 20
666.18176632366783
 11
1128.6800414553322
 21
666.18176632366783
  0
LINE
  8
_0-1_計細線
  6
CONTINUOUS
 62
    3
 10
1126.4888963130511
 20
660.18176632366749
 11
978.43374995921295
 21
660.18176632366749
  0
LINE
  8
_0-1_計細線
  6
CONTINUOUS
 62
    3
 10
978.43374995921295
 20
652.1817663236676
 11
1123.4511877343052
 21
652.1817663236676
  0
LINE
  8
_0-1_計細線
  6
CONTINUOUS
 62
    3
 10
1121.2557851521883
 20
646.18176632366738
 11
978.43374995921295
 21
646.18176632366738
  0
LINE
  8
_0-1_計細線
  6
CONTINUOUS
 62
    3
 10
978.43374995921295
 20
638.1817663236676
 11
1118.6760692680409
 21
638.1817663236676
  0
LINE
  8
_0-1_計細線
  6
CONTINUOUS
 62
    3
 10
1117.1551741396956
 20
632.18176632366738
 11
978.43374995921295
 21
632.18176632366738
  0
LINE
  8
_0-1_計細線
  6
CONTINUOUS
 62
    3
 10
978.43374995921295
 20
624.18176632366772
 11
1115.9031436138243
 21
624.18176632366772
  0
LINE
  8
_0-1_計細線
  6
CONTINUOUS
 62
    3
 10
1115.700965968002
 20
618.18176632366749
 11
978.43374995921295
 21
618.18176632366749
  0
LINE
  8
_0-1_計細線
  6
CONTINUOUS
 62
    3
 10
978.43374995921295
 20
610.1817663236676
 11
1116.5013093306356
 21
610.1817663236676
  0
LINE
  8
_0-1_計細線
  6
CONTINUOUS
 62
    3
 10
1117.7438266753393
 20
604.18176632366738
 11
978.43374995921295
 21
604.18176632366738
  0
LINE
  8
_0-1_計細線
  6
CONTINUOUS
 62
    3
 10
978.43374995921295
 20
596.1817663236676
 11
1120.0249480091488
 21
596.1817663236676
  0
LINE
  8
_0-1_計細線
  6
CONTINUOUS
 62
    3
 10
1122.0704502409585
 20
590.18176632366738
 11
978.43374995921295
 21
590.18176632366738
  0
LINE
  8
_0-1_計細線
  6
CONTINUOUS
 62
    3
 10
978.43374995921295
 20
582.1817663236676
 11
1124.9988902655446
 21
582.1817663236676
  0
TEXT
  8
_0-5_寸法線
 62
    7
 10
593.67073235415455
 20
521.66624679596282
 40
15
 41
0.8000000000000001
 50
0
  1
ＧＳＬ－２０
  0
TEXT
  8
_0-5_寸法線
 62
    7
 10
813.27081868857886
 20
521.66624679596282
 40
15
 41
0.8000000000000001
 50
0
  1
ＧＳＴ－２０Ｗ１４８
  0
TEXT
  8
_0-7_枠細線
 62
    5
 10
965.50000000000011
 20
110
 40
20
 41
0.6
 50
0
  1
ＧＳＴ－２０Ｗ１４８
  0
TEXT
  8
_0-7_枠細線
 62
    5
 10
965.49999999999966
 20
70
 40
20.000000000000004
 41
0.5999999999999997
 50
0
  1
表面形状については記号表参照のこと
  0
LINE
  8
_0-7_枠細線
  6
CONTINUOUS
 62
    5
 10
1409.4018171150183
 20
328.47321710336234
 11
1409.4018171150183
 21
223.47321710336274
  0
TEXT
  8
_0-7_枠細線
 62
    5
 10
1318.4018171150192
 20
308.47321710336234
 40
15.000000000000002
 41
0.8
 50
0
  1
ノンスリップ
  0
TEXT
  8
_0-7_枠細線
 62
    5
 10
1330.4018171150185
 20
283.47321710336234
 40
15.000000000000002
 41
0.8
 50
0
  1
品番－Ｄ
  0
LINE
  8
_0-7_枠細線
  6
CONTINUOUS
 62
    5
 10
1299.4018171150178
 20
328.47321710336234
 11
1299.4018171150178
 21
223.47321710336274
  0
TEXT
  8
_0-7_枠細線
 62
    5
 10
1220.4018171150178
 20
308.4732171033624
 40
15.000000000000002
 41
0.8
 50
0
  1
プレーン
  0
TEXT
  8
_0-7_枠細線
 62
    5
 10
1220.4018171150185
 20
283.47321710336234
 40
15.000000000000002
 41
0.8
 50
0
  1
品番－Ｆ
  0
TEXT
  8
_0-7_枠細線
 62
    5
 10
1140.4018171150183
 20
308.47321710336234
 40
15.000000000000002
 41
0.8
 50
0
  1
タ イ プ
  0
LINE
  8
_0-7_枠細線
  6
CONTINUOUS
 62
    5
 10
1139.4018171150174
 20
278.47321710336234
 11
1409.4018171150183
 21
278.47321710336234
  0
LINE
  8
_0-7_枠細線
  6
CONTINUOUS
 62
    5
 10
1139.4018171150174
 20
303.47321710336234
 11
1409.4018171150183
 21
303.47321710336234
  0
LINE
  8
_0-7_枠細線
  6
CONTINUOUS
 62
    5
 10
1139.4018171150174
 20
328.47321710336234
 11
1409.4018171150183
 21
328.47321710336234
  0
LINE
  8
_0-7_枠細線
  6
CONTINUOUS
 62
    5
 10
1139.4018171150174
 20
223.47321710336274
 11
1409.4018171150183
 21
223.47321710336274
  0
LINE
  8
_0-7_枠細線
  6
CONTINUOUS
 62
    5
 10
1189.4018171150183
 20
328.47321710336234
 11
1189.4018171150183
 21
223.47321710336274
  0
LINE
  8
_0-7_枠細線
  6
CONTINUOUS
 62
    5
 10
1139.4018171150174
 20
328.47321710336234
 11
1139.4018171150174
 21
223.47321710336274
  0
TEXT
  8
_0-7_枠細線
 62
    5
 10
1140.4018171150183
 20
243.47321710336257
 40
15.000000000000002
 41
0.8
 50
0
  1
表面形状
  0
TEXT
  8
_0-7_枠細線
 62
    5
 10
1147.1760284558286
 20
330.9732171033624
 40
17.500000000000004
 41
0.7999999999999996
 50
0
  1
記号表
  0
TEXT
  8
_0-7_枠細線
 62
    5
 10
1140.4018171150183
 20
283.47321710336246
 40
15.000000000000002
 41
0.8
 50
0
  1
記　　号
  0
ARC
  8
_0-7_枠細線
  6
CONTINUOUS
 62
    5
 10
1282.9664605906703
 20
242.85777402966897
 40
12.026499332130607
 50
317.5616290000047
 51
42.438370999994966
  0
ARC
  8
_0-7_枠細線
  6
CONTINUOUS
 62
    5
 10
1300.7176602555628
 20
259.08866002804609
 40
12.026499332130607
 50
137.56162900000001
 51
222.43837100000297
  0
ARC
  8
_0-7_枠細線
  6
CONTINUOUS
 62
    5
 10
1188.0859738141417
 20
242.85777402966897
 40
12.026499332130607
 50
317.5616290000047
 51
42.438370999994966
  0
ARC
  8
_0-7_枠細線
  6
CONTINUOUS
 62
    5
 10
1205.8371734790342
 20
259.08866002804609
 40
12.026499332130607
 50
137.56162900000001
 51
222.43837100000297
  0
LINE
  8
_0-7_枠細線
  6
CONTINUOUS
 62
    5
 10
1194.4553061852557
 20
262.97321702885733
 11
1289.3357929617841
 21
262.97321702885733
  0
LINE
  8
_0-7_枠細線
  6
CONTINUOUS
 62
    5
 10
1294.3483278844485
 20
238.97321702885733
 11
1199.4678411079201
 21
238.97321702885733
  0
ARC
  8
_0-7_枠細線
  6
CONTINUOUS
 62
    5
 10
1392.966460590671
 20
242.85777402966897
 40
12.026499332130607
 50
317.5616290000047
 51
42.438370999994966
  0
ARC
  8
_0-7_枠細線
  6
CONTINUOUS
 62
    5
 10
1410.7176602555635
 20
259.08866002804609
 40
12.026499332130607
 50
137.56162900000001
 51
222.43837100000297
  0
ARC
  8
_0-7_枠細線
  6
CONTINUOUS
 62
    5
 10
1298.0859738141421
 20
242.85777402966897
 40
12.026499332130607
 50
317.5616290000047
 51
42.438370999994966
  0
ARC
  8
_0-7_枠細線
  6
CONTINUOUS
 62
    5
 10
1315.8371734790348
 20
259.08866002804609
 40
12.026499332130607
 50
137.56162900000001
 51
222.43837100000297
  0
LINE
  8
_0-7_枠細線
  6
CONTINUOUS
 62
    5
 10
1304.4553061852562
 20
262.97321702885733
 11
1399.3357929617846
 21
262.97321702885733
  0
LINE
  8
_0-7_枠細線
  6
CONTINUOUS
 62
    5
 10
1404.3483278844492
 20
238.97321702885733
 11
1309.4678411079208
 21
238.97321702885733
  0
LINE
  8
_0-7_枠細線
  6
CONTINUOUS
 62
    5
 10
1310.0055655050667
 20
244.4577803132122
 11
1315.4901287894213
 21
238.9732170288575
  0
LINE
  8
_0-7_枠細線
  6
CONTINUOUS
 62
    5
 10
1304.3960893257238
 20
262.79517855391305
 11
1328.218050850779
 21
238.97321702885748
  0
LINE
  8
_0-7_枠細線
  6
CONTINUOUS
 62
    5
 10
1316.9459729121372
 20
262.97321702885756
 11
1340.9459729121368
 21
238.97321702885748
  0
LINE
  8
_0-7_枠細線
  6
CONTINUOUS
 62
    5
 10
1329.6738949734947
 20
262.97321702885745
 11
1353.6738949734945
 21
238.97321702885748
  0
LINE
  8
_0-7_枠細線
  6
CONTINUOUS
 62
    5
 10
1342.4018170348527
 20
262.97321702885745
 11
1366.4018170348525
 21
238.97321702885745
  0
LINE
  8
_0-7_枠細線
  6
CONTINUOUS
 62
    5
 10
1355.1297390962102
 20
262.97321702885739
 11
1379.12973909621
 21
238.97321702885739
  0
LINE
  8
_0-7_枠細線
  6
CONTINUOUS
 62
    5
 10
1367.8576611575681
 20
262.97321702885739
 11
1391.8576611575677
 21
238.97321702885739
  0
LINE
  8
_0-7_枠細線
  6
CONTINUOUS
 62
    5
 10
1380.5855832189261
 20
262.97321702885739
 11
1404.4075447439814
 21
239.15125550380145
  0
LINE
  8
_0-7_枠細線
  6
CONTINUOUS
 62
    5
 10
1393.3135052802836
 20
262.97321702885733
 11
1398.7980685646389
 21
257.48865374450207
  0
LINE
  8
_0-7_枠細線
  6
CONTINUOUS
 62
    5
 10
1393.3135052802843
 20
238.97321702885739
 11
1403.3188705607763
 21
248.97858230934932
  0
LINE
  8
_0-7_枠細線
  6
CONTINUOUS
 62
    5
 10
1380.5855832189263
 20
238.97321702885739
 11
1398.8365633238182
 21
257.22419713374904
  0
LINE
  8
_0-7_枠細線
  6
CONTINUOUS
 62
    5
 10
1367.8576611575684
 20
238.97321702885745
 11
1391.8576611575686
 21
262.97321702885733
  0
LINE
  8
_0-7_枠細線
  6
CONTINUOUS
 62
    5
 10
1355.1297390962109
 20
238.97321702885748
 11
1379.1297390962106
 21
262.97321702885739
  0
LINE
  8
_0-7_枠細線
  6
CONTINUOUS
 62
    5
 10
1342.4018170348527
 20
238.97321702885748
 11
1366.4018170348527
 21
262.97321702885739
  0
LINE
  8
_0-7_枠細線
  6
CONTINUOUS
 62
    5
 10
1329.673894973495
 20
238.97321702885748
 11
1353.673894973495
 21
262.97321702885739
  0
LINE
  8
_0-7_枠細線
  6
CONTINUOUS
 62
    5
 10
1316.9459729121374
 20
238.9732170288575
 11
1340.9459729121372
 21
262.97321702885745
  0
LINE
  8
_0-7_枠細線
  6
CONTINUOUS
 62
    5
 10
1309.9670707458877
 20
244.72223692396568
 11
1328.2180508507793
 21
262.97321702885745
  0
LINE
  8
_0-7_枠細線
  6
CONTINUOUS
 62
    5
 10
1305.4847635089297
 20
252.96785174836555
 11
1315.4901287894218
 21
262.97321702885756
  0
LINE
  8
_0-a_極細3
  6
CONTINUOUS
 62
    7
 10
605.93065977017193
 20
251.56810602460041
 11
602.09732643683856
 21
251.56810602460041
  0
LINE
  8
_0-a_極細3
  6
CONTINUOUS
 62
    7
 10
605.93065977017193
 20
254.9014393579339
 11
602.09732643683856
 21
254.9014393579339
  0
LINE
  8
_0-a_極細3
  6
CONTINUOUS
 62
    7
 10
605.93065977017193
 20
248.23477269126715
 11
602.09732643683856
 21
248.23477269126715
  0
LINE
  8
_0-a_極細3
  6
CONTINUOUS
 62
    7
 10
605.93065977017193
 20
258.23477269126715
 11
602.09732643683856
 21
258.23477269126715
  0
LINE
  8
_0-a_極細3
  6
CONTINUOUS
 62
    7
 10
602.09732643683856
 20
224.9014393579339
 11
605.93065977017193
 21
224.9014393579339
  0
LINE
  8
_0-a_極細3
  6
CONTINUOUS
 62
    7
 10
605.93065977017193
 20
274.9014393579339
 11
602.09732643683856
 21
274.9014393579339
  0
LINE
  8
_0-b_細線3
  6
CONTINUOUS
 62
    7
 10
602.09732643683856
 20
278.23477269126715
 11
602.09732643683856
 21
219.9014393579339
  0
LINE
  8
_0-b_細線3
  6
CONTINUOUS
 62
    7
 10
602.09732643683856
 20
219.9014393579339
 11
605.93065977017193
 21
219.9014393579339
  0
LINE
  8
_0-b_細線3
  6
CONTINUOUS
 62
    7
 10
605.93065977017193
 20
219.9014393579339
 11
605.93065977017193
 21
278.23477269126715
  0
LINE
  8
_0-b_細線3
  6
CONTINUOUS
 62
    7
 10
605.93065977017193
 20
278.23477269126715
 11
602.09732643683856
 21
278.23477269126715
  0
LINE
  8
_0-7_枠細線
  6
CONTINUOUS
 62
    5
 10
625.0165278634114
 20
255.9635226874212
 11
617.5165278634114
 21
270.96352268742118
  0
LINE
  8
_0-7_枠細線
  6
CONTINUOUS
 62
    5
 10
610.0165278634114
 20
255.9635226874212
 11
625.0165278634114
 21
255.9635226874212
  0
LINE
  8
_0-7_枠細線
  6
CONTINUOUS
 62
    5
 10
617.5165278634114
 20
270.96352268742118
 11
610.0165278634114
 21
255.9635226874212
  0
TEXT
  8
_0-7_枠細線
 62
    5
 10
612.38167913155951
 20
255.65652044204063
 40
12.5
 41
0.8
 50
0
  1
１
  0
LINE
  8
_0-a_極細3
  6
CONTINUOUS
 62
    7
 10
334.93065977017176
 20
251.56810602460041
 11
338.76399310350502
 21
251.56810602460041
  0
LINE
  8
_0-a_極細3
  6
CONTINUOUS
 62
    7
 10
334.93065977017176
 20
254.9014393579339
 11
338.76399310350502
 21
254.9014393579339
  0
LINE
  8
_0-a_極細3
  6
CONTINUOUS
 62
    7
 10
334.93065977017176
 20
248.23477269126715
 11
338.76399310350502
 21
248.23477269126715
  0
LINE
  8
_0-a_極細3
  6
CONTINUOUS
 62
    7
 10
334.93065977017176
 20
258.23477269126715
 11
338.76399310350502
 21
258.23477269126715
  0
LINE
  8
_0-a_極細3
  6
CONTINUOUS
 62
    7
 10
338.76399310350502
 20
224.9014393579339
 11
334.93065977017176
 21
224.9014393579339
  0
LINE
  8
_0-a_極細3
  6
CONTINUOUS
 62
    7
 10
334.93065977017176
 20
274.9014393579339
 11
338.76399310350502
 21
274.9014393579339
  0
LINE
  8
_0-b_細線3
  6
CONTINUOUS
 62
    7
 10
338.76399310350502
 20
278.23477269126715
 11
338.76399310350502
 21
219.9014393579339
  0
LINE
  8
_0-b_細線3
  6
CONTINUOUS
 62
    7
 10
338.76399310350502
 20
219.9014393579339
 11
334.93065977017176
 21
219.9014393579339
  0
LINE
  8
_0-b_細線3
  6
CONTINUOUS
 62
    7
 10
334.93065977017176
 20
219.9014393579339
 11
334.93065977017176
 21
278.23477269126715
  0
LINE
  8
_0-b_細線3
  6
CONTINUOUS
 62
    7
 10
334.93065977017176
 20
278.23477269126715
 11
338.76399310350502
 21
278.23477269126715
  0
LINE
  8
_0-9_枠極太
  6
CONTINUOUS
 62
    5
 10
60
 20
60
 11
60
 21
960
  0
LINE
  8
_0-9_枠極太
  6
CONTINUOUS
 62
    5
 10
60
 20
960
 11
1425
 21
960
  0
LINE
  8
_0-9_枠極太
  6
CONTINUOUS
 62
    5
 10
1425
 20
960
 11
1425
 21
60
  0
LINE
  8
_0-9_枠極太
  6
CONTINUOUS
 62
    5
 10
1425
 20
60
 11
60
 21
60
  0
LINE
  8
_0-7_枠細線
  6
CONTINUOUS
 62
    5
 10
1425
 20
907.5
 11
890
 21
907.5
  0
LINE
  8
_0-7_枠細線
  6
CONTINUOUS
 62
    5
 10
915
 20
908.94233397174708
 11
907.5
 21
923.94233397174708
  0
LINE
  8
_0-7_枠細線
  6
CONTINUOUS
 62
    5
 10
900
 20
908.94233397174708
 11
915
 21
908.94233397174708
  0
LINE
  8
_0-7_枠細線
  6
CONTINUOUS
 62
    5
 10
907.5
 20
923.94233397174708
 11
900
 21
908.94233397174708
  0
TEXT
  8
_0-7_枠細線
 62
    5
 10
902.36515126814822
 20
908.63533172636653
 40
12.5
 41
0.8
 50
0
  1
１
  0
TEXT
  8
_0-7_枠細線
 62
    5
 10
1180
 20
910
 40
12.5
 41
0.7199999999999999
 50
0
  1
２０１９．０９．０１
  0
TEXT
  8
_0-7_枠細線
 62
    5
 10
938.85037037037023
 20
910
 40
12.500000000000002
 41
1
 50
0
  1
アンカー材質･厚み変更
  0
LINE
  8
_0-7_枠細線
  6
CONTINUOUS
 62
    5
 10
890
 20
907.5
 11
890
 21
959.99999999999909
  0
LINE
  8
_0-7_枠細線
  6
CONTINUOUS
 62
    5
 10
925
 20
907.5
 11
925
 21
959.99999999999943
  0
LINE
  8
_0-7_枠細線
  6
CONTINUOUS
 62
    5
 10
1175
 20
907.5
 11
1175
 21
959.99999999999943
  0
LINE
  8
_0-7_枠細線
  6
CONTINUOUS
 62
    5
 10
1275
 20
907.5
 11
1275
 21
959.99999999999943
  0
TEXT
  8
_0-7_枠細線
 62
    5
 10
421.66034948065402
 20
121.56774102292253
 40
25
 41
0.8
 50
0
  1
断面詳細図
  0
TEXT
  8
_0-7_枠細線
 62
    5
 10
546.03483901569302
 20
123.54070090313563
 40
20
 41
0.6
 50
0
  1
Ｓ＝１：３
  0
LINE
  8
_0-5_寸法線
  6
CONTINUOUS
 62
    7
 10
1176.9337499592157
 20
577.18176632366578
 11
1221.9337499592157
 21
577.18176632366556
  0
LINE
  8
_0-5_寸法線
  6
CONTINUOUS
 62
    7
 10
1216.9337499592157
 20
577.18176632366556
 11
1219.5219404102409
 21
567.52250806077484
  0
LINE
  8
_0-5_寸法線
  6
CONTINUOUS
 62
    7
 10
1216.9337499592157
 20
577.18176632366556
 11
1214.3455595081905
 21
567.52250806077484
  0
LINE
  8
_0-5_寸法線
  6
CONTINUOUS
 62
    7
 10
1176.9337499592157
 20
580.18176632366715
 11
1221.9337499592157
 21
580.18176632366715
  0
CIRCLE
  8
_0-5_寸法線
  6
CONTINUOUS
 62
    1
 10
1216.9337499592157
 20
580.18176632366715
 40
1.5000000000000002
  0
LINE
  8
_0-5_寸法線
  6
CONTINUOUS
 62
    7
 10
1216.9337499592157
 20
552.18176632366556
 11
1216.9337499592157
 21
580.18176632366715
  0
TEXT
  8
_0-5_寸法線
 62
    7
 10
1216.9337499592157
 20
554.6143096679275
 40
15
 41
1
 50
90
  1
3
  0
LINE
  8
_0-5_寸法線
  6
CONTINUOUS
 62
    7
 10
1176.9337499592157
 20
582.18176632366692
 11
1221.9337499592157
 21
582.18176632366692
  0
LINE
  8
_0-5_寸法線
  6
CONTINUOUS
 62
    7
 10
1216.9337499592157
 20
580.18176632366715
 11
1216.9337499592157
 21
582.18176632366692
  0
TEXT
  8
_0-5_寸法線
 62
    7
 10
1235.413838773816
 20
580.18176632366715
 40
15
 41
1
 50
90
  1
2
  0
LINE
  8
_0-5_寸法線
  6
CONTINUOUS
 62
    7
 10
1216.9337499592157
 20
582.18176632366692
 11
1214.3455595081905
 21
591.84102458655764
  0
LINE
  8
_0-5_寸法線
  6
CONTINUOUS
 62
    7
 10
1216.9337499592157
 20
582.18176632366692
 11
1219.5219404102409
 21
591.84102458655764
  0
LINE
  8
_0-5_寸法線
  6
CONTINUOUS
 62
    7
 10
1176.9337499592157
 20
730.18176632366692
 11
1221.9337499592157
 21
730.18176632366692
  0
LINE
  8
_0-5_寸法線
  6
CONTINUOUS
 62
    7
 10
1216.9337499592157
 20
730.18176632366692
 11
1219.5219404102409
 21
720.5225080607762
  0
LINE
  8
_0-5_寸法線
  6
CONTINUOUS
 62
    7
 10
1216.9337499592157
 20
730.18176632366692
 11
1214.3455595081905
 21
720.5225080607762
  0
LINE
  8
_0-5_寸法線
  6
CONTINUOUS
 62
    7
 10
1216.9337499592157
 20
582.18176632366692
 11
1216.9337499592157
 21
730.18176632366692
  0
TEXT
  8
_0-5_寸法線
 62
    7
 10
1216.9337499592157
 20
644.93176632366669
 40
15
 41
1
 50
90
  1
148
  0
LINE
  8
_0-5_寸法線
  6
CONTINUOUS
 62
    7
 10
1176.9337499592157
 20
732.18176632366726
 11
1221.9337499592157
 21
732.18176632366692
  0
CIRCLE
  8
_0-5_寸法線
  6
CONTINUOUS
 62
    1
 10
1216.9337499592157
 20
732.18176632366692
 40
1.5000000000000002
  0
LINE
  8
_0-5_寸法線
  6
CONTINUOUS
 62
    7
 10
1216.9337499592157
 20
730.18176632366692
 11
1216.9337499592157
 21
732.18176632366692
  0
TEXT
  8
_0-5_寸法線
 62
    7
 10
1235.2128891563866
 20
724.68176632366726
 40
15
 41
1
 50
90
  1
2
  0
LINE
  8
_0-5_寸法線
  6
CONTINUOUS
 62
    7
 10
1176.9337499592157
 20
735.18176632366578
 11
1221.9337499592157
 21
735.18176632366567
  0
LINE
  8
_0-5_寸法線
  6
CONTINUOUS
 62
    7
 10
1216.9337499592157
 20
735.18176632366567
 11
1214.3455595081905
 21
744.84102458655627
  0
LINE
  8
_0-5_寸法線
  6
CONTINUOUS
 62
    7
 10
1216.9337499592157
 20
735.18176632366567
 11
1219.5219404102409
 21
744.84102458655627
  0
LINE
  8
_0-5_寸法線
  6
CONTINUOUS
 62
    7
 10
1216.9337499592157
 20
732.18176632366692
 11
1216.9337499592157
 21
760.18176632366567
  0
TEXT
  8
_0-5_寸法線
 62
    7
 10
1216.9337499592157
 20
748.5691090813624
 40
15
 41
1
 50
90
  1
3
  0
LINE
  8
_0-d_寸法3
  6
CONTINUOUS
 62
    7
 10
338.76399310350502
 20
371.56810435625584
 11
329.10473484061436
 21
368.97991390523066
  0
LINE
  8
_0-d_寸法3
  6
CONTINUOUS
 62
    7
 10
338.76399310350502
 20
371.56810435625584
 11
329.10473484061436
 21
374.15629480728109
  0
LINE
  8
_0-d_寸法3
  6
CONTINUOUS
 62
    7
 10
343.76399310350502
 20
300.73477269126715
 11
343.76399310350502
 21
376.56810435625584
  0
CIRCLE
  8
_0-d_寸法3
  6
CONTINUOUS
 62
    1
 10
343.76399310350502
 20
371.56810435625584
 40
1.5000000000000002
  0
LINE
  8
_0-d_寸法3
  6
CONTINUOUS
 62
    7
 10
313.76399310350507
 20
371.56810435625584
 11
343.76399310350502
 21
371.56810435625584
  0
TEXT
  8
_0-d_寸法3
 62
    7
 10
317.61932515958176
 20
371.56810435625584
 40
15
 41
1
 50
0
  1
3
  0
LINE
  8
_0-d_寸法3
  6
CONTINUOUS
 62
    7
 10
347.09732643683816
 20
298.23477102292281
 11
347.09732643683856
 21
376.56810435625584
  0
LINE
  8
_0-d_寸法3
  6
CONTINUOUS
 62
    7
 10
343.76399310350502
 20
371.56810435625584
 11
347.0973264368385
 21
371.56810435625584
  0
TEXT
  8
_0-d_寸法3
 62
    7
 10
341.68065977017159
 20
371.56810435625584
 40
15
 41
1
 50
0
  1
2
  0
LINE
  8
_0-d_寸法3
  6
CONTINUOUS
 62
    7
 10
347.0973264368385
 20
371.56810435625584
 11
356.75658469972916
 21
374.15629480728109
  0
LINE
  8
_0-d_寸法3
  6
CONTINUOUS
 62
    7
 10
347.0973264368385
 20
371.56810435625584
 11
356.75658469972916
 21
368.97991390523066
  0
LINE
  8
_0-d_寸法3
  6
CONTINUOUS
 62
    7
 10
593.76399310350507
 20
298.23477102292281
 11
593.76399310350507
 21
376.56810435625584
  0
LINE
  8
_0-d_寸法3
  6
CONTINUOUS
 62
    7
 10
593.76399310350507
 20
371.56810435625584
 11
584.10473484061436
 21
368.97991390523066
  0
LINE
  8
_0-d_寸法3
  6
CONTINUOUS
 62
    7
 10
593.76399310350507
 20
371.56810435625584
 11
584.10473484061436
 21
374.15629480728109
  0
LINE
  8
_0-d_寸法3
  6
CONTINUOUS
 62
    7
 10
347.0973264368385
 20
371.56810435625584
 11
593.76399310350507
 21
371.56810435625584
  0
TEXT
  8
_0-d_寸法3
 62
    7
 10
459.18065977017159
 20
371.56810435625584
 40
15
 41
1
 50
0
  1
148
  0
LINE
  8
_0-d_寸法3
  6
CONTINUOUS
 62
    7
 10
597.0973264368381
 20
300.73477269126715
 11
597.09732643683856
 21
376.56810435625584
  0
CIRCLE
  8
_0-d_寸法3
  6
CONTINUOUS
 62
    1
 10
597.09732643683856
 20
371.56810435625584
 40
1.5000000000000002
  0
LINE
  8
_0-d_寸法3
  6
CONTINUOUS
 62
    7
 10
593.76399310350507
 20
371.56810435625584
 11
597.09732643683856
 21
371.56810435625584
  0
TEXT
  8
_0-d_寸法3
 62
    7
 10
591.68065977017159
 20
371.56810435625584
 40
15
 41
1
 50
0
  1
2
  0
LINE
  8
_0-d_寸法3
  6
CONTINUOUS
 62
    7
 10
602.09732643683856
 20
371.56810435625584
 11
611.75658469972927
 21
374.15629480728103
  0
LINE
  8
_0-d_寸法3
  6
CONTINUOUS
 62
    7
 10
602.09732643683856
 20
371.56810435625584
 11
611.75658469972927
 21
368.9799139052306
  0
LINE
  8
_0-d_寸法3
  6
CONTINUOUS
 62
    7
 10
597.09732643683856
 20
371.56810435625584
 11
627.09732643683856
 21
371.56810435625584
  0
TEXT
  8
_0-d_寸法3
 62
    7
 10
616.76118801674602
 20
371.56810435625584
 40
15
 41
1
 50
0
  1
3
  0
ENDSEC
  0
EOF
