  0
SECTION
  2
HEADER
  9
$ACADVER
  1
AC1009
  9
$INSBASE
 10
0
 20
0
 30
0
  9
$EXTMIN
 10
0
 20
0
  9
$EXTMAX
 10
1485
 20
1050
  9
$LIMMIN
 10
0
 20
0
  9
$LIMMAX
 10
1485
 20
1050
  9
$LTSCALE
 40
5
  0
ENDSEC
  0
SECTION
  2
TABLES
  0
TABLE
  2
LTYPE
 70
     9
  0
LTYPE
  2
CONTINUOUS
 70
    64
  3
実線
 72
    65
 73
     0
 40
0.0
  0
LTYPE
  2
DASHED1
 70
    64
  3
--  --  --  --  --  --  --  --  
 72
    65
 73
     2
 40
2.5
 49
1.25
 49
-1.25
  0
LTYPE
  2
DASHED2
 70
    64
  3
----    ----    ----    ----    
 72
    65
 73
     2
 40
5.0
 49
2.5
 49
-2.5
  0
LTYPE
  2
DASHED3
 70
    64
  3
------  ------  ------  ------  
 72
    65
 73
     2
 40
5.0
 49
3.75
 49
-1.25
  0
LTYPE
  2
CENTER1
 70
    64
  3
----- - ----- - ----- - ----- - 
 72
    65
 73
     4
 40
10.0
 49
6.25
 49
-1.25
 49
1.25
 49
-1.25
  0
LTYPE
  2
CENTER2
 70
    64
  3
----------  --  ----------  --  
 72
    65
 73
     4
 40
20.0
 49
12.5
 49
-2.5
 49
2.5
 49
-2.5
  0
LTYPE
  2
PHANTOM1
 70
    64
  3
--- - - --- - - --- - - --- - - 
 72
    65
 73
     6
 40
10.0
 49
3.25
 49
-1.25
 49
1.25
 49
-1.25
 49
1.25
 49
-1.25
  0
LTYPE
  2
PHANTOM2
 70
    64
  3
--------  -  -  --------  -  -  
 72
    65
 73
     6
 40
20.0
 49
10.0
 49
-2.5
 49
1.25
 49
-2.5
 49
1.25
 49
-2.5
  0
LTYPE
  2
DOT
 70
    64
  3
-   -   -   -   -   -   -   -   
 72
    65
 73
     2
 40
2.5
 49
0.625
 49
-1.875
  0
LTYPE
  2
DUMMY
 70
    64
  3
ダミー
 72
    65
 73
     0
 40
0.0
  0
LTYPE
  2
RAND1
 70
    64
  3
ランダム線1
 72
    65
 73
     4
 40
10.0
 49
1.0
 49
-2.0
 49
3.0
 49
-4.0
  0
LTYPE
  2
RAND2
 70
    64
  3
ランダム線2
 72
    65
 73
     4
 40
14.0
 49
2.0
 49
-3.0
 49
4.0
 49
-5.0
  0
LTYPE
  2
RAND3
 70
    64
  3
ランダム線3
 72
    65
 73
     4
 40
18.0
 49
3.0
 49
-4.0
 49
5.0
 49
-6.0
  0
LTYPE
  2
RAND4
 70
    64
  3
ランダム線4
 72
    65
 73
     4
 40
22.0
 49
4.0
 49
-5.0
 49
6.0
 49
-7.0
  0
LTYPE
  2
RAND5
 70
    64
  3
ランダム線5
 72
    65
 73
     4
 40
26.0
 49
5.0
 49
-6.0
 49
7.0
 49
-8.0
  0
LTYPE
  2
LONG1
 70
    64
  3
----------  --  ----------  --  
 72
    65
 73
     4
 40
40.0
 49
32.5
 49
-2.5
 49
2.5
 49
-2.5
  0
LTYPE
  2
LONG2
 70
    64
  3
--------  -  -  --------  -  -  
 72
    65
 73
     6
 40
40.0
 49
30.0
 49
-2.5
 49
1.25
 49
-2.5
 49
1.25
 49
-2.5
  0
LTYPE
  2
LONG3
 70
    64
  3
+++++++++++++++..+++++++++++++++
 72
    65
 73
     2
 40
40.0
 49
37.5
 49
-2.5
  0
LTYPE
  2
LONG4
 70
    64
  3
+++++++++++++++..+++++++++++++++
 72
    65
 73
     2
 40
80.0
 49
75.0
 49
-5.0
  0
LTYPE
  2
LONG5
 70
    64
  3
----------  --  ----------  --  
 72
    65
 73
     4
 40
60.0
 49
37.5
 49
-7.5
 49
7.5
 49
-7.5
  0
LTYPE
  2
dashed
 70
   64
  3
-------   -------------   ------
 72
   65
 73
    2
 40
7.5
 49
6
 49
-1.5
  0
LTYPE
  2
dashed_spaced
 70
   64
  3
----        --------        ----
 72
   65
 73
    2
 40
12
 49
6
 49
-6
  0
LTYPE
  2
long_dashed_dotted
 70
   64
  3
------------- --- --------------
 72
   65
 73
    4
 40
15.25
 49
12
 49
-1.5
 49
0.25
 49
-1.5
  0
LTYPE
  2
long_dashed_double-dotted
 70
   64
  3
----------- --- --- ------------
 72
   65
 73
    6
 40
17
 49
12
 49
-1.5
 49
0.25
 49
-1.5
 49
0.25
 49
-1.5
  0
LTYPE
  2
long_dashed_triplicate-dotted
 70
   64
  3
--------- --- --- --- ----------
 72
   65
 73
    8
 40
18.75
 49
12
 49
-1.5
 49
0.25
 49
-1.5
 49
0.25
 49
-1.5
 49
0.25
 49
-1.5
  0
LTYPE
  2
dotted
 70
   64
  3
   -       -       -       -    
 72
   65
 73
    2
 40
1.75
 49
0.25
 49
-1.5
  0
LTYPE
  2
chain
 70
   64
  3
-------------- -- --------------
 72
   65
 73
    4
 40
18.5
 49
12
 49
-1.5
 49
3.5
 49
-1.5
  0
LTYPE
  2
chain_double_dash
 70
   64
  3
------------ -- -- -------------
 72
   65
 73
    6
 40
23.5
 49
12
 49
-1.5
 49
3.5
 49
-1.5
 49
3.5
 49
-1.5
  0
LTYPE
  2
dashed_dotted
 70
   64
  3
-----------     -     ----------
 72
   65
 73
    4
 40
9.25
 49
6
 49
-1.5
 49
0.25
 49
-1.5
  0
LTYPE
  2
double-dashed_dotted
 70
   64
  3
------   -----------   -   -----
 72
   65
 73
    6
 40
16.75
 49
6
 49
-1.5
 49
6
 49
-1.5
 49
0.25
 49
-1.5
  0
LTYPE
  2
dashed_double-dotted
 70
   64
  3
---------    -    -    ---------
 72
   65
 73
    6
 40
11
 49
6
 49
-1.5
 49
0.25
 49
-1.5
 49
0.25
 49
-1.5
  0
LTYPE
  2
double-dashed_double-dotted
 70
   64
  3
-----   ---------   -   -   ----
 72
   65
 73
    8
 40
18.5
 49
6
 49
-1.5
 49
6
 49
-1.5
 49
0.25
 49
-1.5
 49
0.25
 49
-1.5
  0
LTYPE
  2
dashed_triplicate-dotted
 70
   64
  3
-------    -    -    -    ------
 72
   65
 73
    8
 40
12.75
 49
6
 49
-1.5
 49
0.25
 49
-1.5
 49
0.25
 49
-1.5
 49
0.25
 49
-1.5
  0
LTYPE
  2
double-dashed_triplicate-dotted
 70
   64
  3
-----  ---------  -  -  -  -----
 72
   65
 73
   10
 40
20.25
 49
6
 49
-1.5
 49
6
 49
-1.5
 49
0.25
 49
-1.5
 49
0.25
 49
-1.5
 49
0.25
 49
-1.5
  0
LTYPE
  2
undefined
 70
   64
  3
--------------------------------
 72
   65
 73
    0
 40
0
  0
ENDTAB
  0
TABLE
  2
STYLE
  5
3
100
AcDbSymbolTable
 70
     1
  0
STYLE
  5
10
100
AcDbSymbolTableRecord
100
AcDbTextStyleTableRecord
  2
STANDARD
 70
     0
 40
0.0
 41
1.0
 50
0.0
 71
     0
 42
0.2
  3
txt
  4
bigfont.shx
  0
STYLE
  5
26
100
AcDbSymbolTableRecord
100
AcDbTextStyleTableRecord
  2
TATEGAKI
 70
    68
 40
0.0
 41
1.0
 50
0.0
 71
     0
 42
1.0
  3
txt
  4
bigfont.shx
  0
ENDTAB
  0
TABLE
  2
LAYER
 70
   10
  0
LAYER
  2
_0-0_計極細
 70
   64
 62
    7
  6
CONTINUOUS
  0
LAYER
  2
_0-1_計細線
 70
   64
 62
    7
  6
CONTINUOUS
  0
LAYER
  2
_0-5_寸法線
 70
   64
 62
    7
  6
CONTINUOUS
  0
LAYER
  2
_0-7_枠細線
 70
   64
 62
    7
  6
CONTINUOUS
  0
LAYER
  2
_0-8_枠中線
 70
   64
 62
    7
  6
CONTINUOUS
  0
LAYER
  2
_0-9_枠極太
 70
   64
 62
    7
  6
CONTINUOUS
  0
LAYER
  2
_0-a_極細3
 70
   64
 62
    7
  6
CONTINUOUS
  0
LAYER
  2
_0-b_細線3
 70
   64
 62
    7
  6
CONTINUOUS
  0
LAYER
  2
_0-d_寸法3
 70
   64
 62
    7
  6
CONTINUOUS
  0
LAYER
  2
ADD_LINE
 70
   64
 62
    7
  6
CONTINUOUS
  0
ENDTAB
  0
ENDSEC
  0
SECTION
  2
BLOCKS
  0
ENDSEC
  0
SECTION
  2
ENTITIES
  0
LINE
  8
_0-7_枠細線
  6
CONTINUOUS
 62
    5
 10
1425
 20
942.5
 11
890
 21
942.5
  0
TEXT
  8
_0-7_枠細線
 62
    5
 10
895
 20
945
 40
12.5
 41
1
 50
0
  1
記号
  0
TEXT
  8
_0-7_枠細線
 62
    5
 10
996.875
 20
945
 40
12.5
 41
1
 50
0
  1
訂　 正　 記　 事
  0
TEXT
  8
_0-7_枠細線
 62
    5
 10
1181.25
 20
945
 40
12.5
 41
1
 50
0
  1
訂 正 年 月 日
  0
TEXT
  8
_0-7_枠細線
 62
    5
 10
1306.25
 20
945
 40
12.5
 41
1
 50
0
  1
備　　　　　考
  0
LINE
  8
_0-7_枠細線
  6
CONTINUOUS
 62
    5
 10
1185
 20
180
 11
1185
 21
100
  0
TEXT
  8
_0-7_枠細線
 62
    5
 10
937.5
 20
97.5
 40
17.5
 41
1
 50
0
  1
備考
  7
TATEGAKI
  0
TEXT
  8
_0-7_枠細線
 62
    5
 10
937.5
 20
137.5
 40
17.5
 41
1
 50
0
  1
品番
  7
TATEGAKI
  0
TEXT
  8
_0-7_枠細線
 62
    5
 10
937.5
 20
177.5
 40
17.5
 41
1
 50
0
  1
品名
  7
TATEGAKI
  0
LINE
  8
_0-7_枠細線
  6
CONTINUOUS
 62
    5
 10
1185
 20
140
 11
925
 21
140
  0
LINE
  8
_0-7_枠細線
  6
CONTINUOUS
 62
    5
 10
950
 20
180
 11
950
 21
60
  0
LINE
  8
_0-8_枠中線
  6
CONTINUOUS
 62
    5
 10
1425
 20
180
 11
925
 21
180
  0
LINE
  8
_0-8_枠中線
  6
CONTINUOUS
 62
    5
 10
925
 20
180
 11
925
 21
60
  0
LINE
  8
_0-7_枠細線
  6
CONTINUOUS
 62
    5
 10
1245
 20
180
 11
1245
 21
60
  0
TEXT
  8
_0-7_枠細線
 62
    5
 10
1192.5
 20
160
 40
15
 41
1
 50
0
  1
縮　尺
  0
TEXT
  8
_0-7_枠細線
 62
    5
 10
1194
 20
117.5
 40
20
 41
0.7000000000000001
 50
0
  1
１：５
  0
LINE
  8
_0-7_枠細線
  6
CONTINUOUS
 62
    5
 10
1185
 20
155
 11
1245
 21
155
  0
LINE
  8
_0-7_枠細線
  6
CONTINUOUS
 62
    5
 10
1245
 20
100
 11
925
 21
100
  0
LINE
  8
_0-7_枠細線
  6
CONTINUOUS
 62
    5
 10
1425
 20
90
 11
1245
 21
90
  0
LINE
  8
_0-7_枠細線
  6
CONTINUOUS
 62
    5
 10
1245
 20
120
 11
1425
 21
120
  0
LINE
  8
_0-7_枠細線
  6
CONTINUOUS
 62
    5
 10
1425
 20
140
 11
1245
 21
140
  0
TEXT
  8
_0-7_枠細線
 62
    5
 10
1255
 20
147.5
 40
25
 41
0.8
 50
0
  1
株式会社シマブン
  0
TEXT
  8
_0-7_枠細線
 62
    5
 10
1252.5
 20
60
 40
15
 41
1
 50
0
  1
年月日
  0
TEXT
  8
_0-7_枠細線
 62
    5
 10
1252.5
 20
75
 40
15
 41
1
 50
0
  1
作　成
  0
TEXT
  8
_0-7_枠細線
 62
    5
 10
1256.25
 20
122.5
 40
15
 41
1
 50
0
  1
承 認
  0
LINE
  8
_0-7_枠細線
  6
CONTINUOUS
 62
    5
 10
1305
 20
140
 11
1305
 21
60
  0
TEXT
  8
_0-7_枠細線
 62
    5
 10
1316.25
 20
122.5
 40
15
 41
1
 50
0
  1
検 図
  0
LINE
  8
_0-7_枠細線
  6
CONTINUOUS
 62
    5
 10
1365
 20
140
 11
1365
 21
90
  0
TEXT
  8
_0-7_枠細線
 62
    5
 10
1375
 20
95
 40
20
 41
1
 50
0
  1
藤戸
  0
TEXT
  8
_0-7_枠細線
 62
    5
 10
1376.25
 20
122.5
 40
15
 41
1
 50
0
  1
設 計
  0
TEXT
  8
_0-7_枠細線
 62
    5
 10
1255
 20
95
 40
20
 41
1
 50
0
  1
隠塚
  0
TEXT
  8
_0-7_枠細線
 62
    5
 10
1315
 20
95
 40
20
 41
1
 50
0
  1
渋田
  0
TEXT
  8
_0-7_枠細線
 62
    5
 10
965.50000000000011
 20
150
 40
20
 41
0.5
 50
0
  1
Ｔバー ステンレスグレーチング Ｈ２０タイプ
  0
TEXT
  8
_0-7_枠細線
 62
    5
 10
1310
 20
67.5
 40
15
 41
0.6666666666666666
 50
0
  1
２０１２年０２月２９日
  0
LINE
  8
_0-7_枠細線
  6
CONTINUOUS
 62
    5
 10
1425
 20
925
 11
890
 21
925
  0
TEXT
  8
_0-7_枠細線
 62
    5
 10
938.85037037037023
 20
927.5
 40
12.500000000000002
 41
1
 50
0
  1
品番変更
  0
TEXT
  8
_0-7_枠細線
 62
    5
 10
1180
 20
927.5
 40
12.5
 41
0.7199999999999999
 50
0
  1
２０１５．０４．０１
  0
LINE
  8
_0-a_極細3
  6
CENTER1
 62
    7
 10
470.43065977017199
 20
243.71560987248384
 11
470.43065977017199
 21
307.16560987248999
  0
CIRCLE
  8
_0-a_極細3
  6
CONTINUOUS
 62
    7
 10
243.71423256698966
 20
281.52707199681572
 40
0.5530864197530718
  0
LINE
  8
_0-a_極細3
  6
CONTINUOUS
 62
    7
 10
248.7639931035055
 20
296.56810602460041
 11
248.7639931035055
 21
284.90143935793344
  0
LINE
  8
_0-a_極細3
  6
CONTINUOUS
 62
    7
 10
257.0973264368389
 20
284.90143935793344
 11
159.58624595839083
 21
284.90143935793344
  0
LINE
  8
_0-a_極細3
  6
CONTINUOUS
 62
    7
 10
257.0973264368389
 20
295.73477269126693
 11
257.0973264368389
 21
296.56810602460041
  0
LINE
  8
_0-a_極細3
  6
CONTINUOUS
 62
    7
 10
256.89923618047942
 20
284.90143935793344
 11
257.0973264368385
 21
285.09952961429303
  0
LINE
  8
_0-a_極細3
  6
CONTINUOUS
 62
    7
 10
252.65659549336027
 20
284.90143935793344
 11
257.0973264368389
 21
289.34217030141212
  0
LINE
  8
_0-a_極細3
  6
CONTINUOUS
 62
    7
 10
248.7639931035055
 20
285.25147765519819
 11
257.0973264368389
 21
293.58481098853144
  0
LINE
  8
_0-a_極細3
  6
CONTINUOUS
 62
    7
 10
248.7639931035055
 20
289.49411834231728
 11
255.83798078578815
 21
296.56810602460041
  0
LINE
  8
_0-a_極細3
  6
CONTINUOUS
 62
    7
 10
248.7639931035055
 20
293.73675902943683
 11
251.59534009866903
 21
296.56810602460041
  0
LINE
  8
_0-a_極細3
  6
CONTINUOUS
 62
    7
 10
257.0973264368389
 20
294.28713915234175
 11
254.81635956458049
 21
296.56810602460041
  0
LINE
  8
_0-a_極細3
  6
CONTINUOUS
 62
    7
 10
257.0973264368389
 20
290.04449846522243
 11
250.573718877461
 21
296.56810602460041
  0
LINE
  8
_0-a_極細3
  6
CONTINUOUS
 62
    7
 10
248.7639931035055
 20
294.1351911114366
 11
257.0973264368389
 21
285.80185777810334
  0
LINE
  8
_0-a_極細3
  6
CONTINUOUS
 62
    7
 10
248.7639931035055
 20
289.89255042431728
 11
253.75510416988888
 21
284.90143935793344
  0
LINE
  8
_0-a_極細3
  6
CONTINUOUS
 62
    7
 10
248.7639931035055
 20
285.64990973719796
 11
249.51246348276982
 21
284.90143935793344
  0
LINE
  8
_0-a_極細3
  6
CONTINUOUS
 62
    7
 10
239.92867342587488
 20
284.90143935180618
 11
248.7639931035055
 21
293.73675902943683
  0
LINE
  8
_0-a_極細3
  6
CONTINUOUS
 62
    7
 10
218.71546997556734
 20
284.9014393370951
 11
230.38213666307271
 21
296.56810602460018
  0
LINE
  8
_0-a_極細3
  6
CONTINUOUS
 62
    7
 10
197.50226652525953
 20
284.90143932238357
 11
209.16893322747583
 21
296.56810602460041
  0
LINE
  8
_0-a_極細3
  6
CONTINUOUS
 62
    7
 10
176.28906307495157
 20
284.90143930767249
 11
187.95572979187952
 21
296.56810602460041
  0
LINE
  8
_0-a_極細3
  6
CONTINUOUS
 62
    7
 10
159.58624595839083
 20
289.4118256267077
 11
166.74252635628312
 21
296.56810602460018
  0
LINE
  8
_0-a_極細3
  6
DASHED2
 62
    7
 10
229.3220717007211
 20
284.90143934445064
 11
240.98873838087087
 21
296.56810602460041
  0
LINE
  8
_0-a_極細3
  6
DASHED2
 62
    7
 10
208.10886825041322
 20
284.90143932973933
 11
219.77553494527456
 21
296.56810602460041
  0
LINE
  8
_0-a_極細3
  6
DASHED2
 62
    7
 10
186.89566480010575
 20
284.90143931502803
 11
198.56233150967768
 21
296.56810602460041
  0
LINE
  8
_0-a_極細3
  6
DASHED2
 62
    7
 10
165.68246134979788
 20
284.90143930031695
 11
177.34912807408136
 21
296.56810602460041
  0
CIRCLE
  8
_0-a_極細3
  6
CONTINUOUS
 62
    7
 10
177.48213380155804
 20
275.10484977459373
 40
0.5530864197530718
  0
CIRCLE
  8
_0-a_極細3
  6
CONTINUOUS
 62
    7
 10
218.82534367810095
 20
279.90484977459369
 40
0.5530864197530718
  0
CIRCLE
  8
_0-a_極細3
  6
CONTINUOUS
 62
    7
 10
187.81877953222141
 20
280.71100725916813
 40
1.825531472681392
  0
CIRCLE
  8
_0-a_極細3
  6
CONTINUOUS
 62
    7
 10
167.62169999114207
 20
281.60361520669244
 40
1.825531472681392
  0
LINE
  8
_0-a_極細3
  6
CONTINUOUS
 62
    7
 10
257.0973264368389
 20
296.56810602460041
 11
159.58624595839083
 21
296.56810602460041
  0
LINE
  8
_0-a_極細3
  6
CONTINUOUS
 62
    7
 10
190.43065977017199
 20
251.56810602460041
 11
190.43065977017199
 21
183.23477269126712
  0
LINE
  8
_0-a_極細3
  6
CONTINUOUS
 62
    7
 10
273.76399310350553
 20
183.23477269126712
 11
190.43065977017199
 21
183.23477269126712
  0
LINE
  8
_0-a_極細3
  6
CONTINUOUS
 62
    7
 10
190.43065977017199
 20
251.56810602460041
 11
159.58624595839083
 21
251.56810602460041
  0
LINE
  8
_0-a_極細3
  6
CONTINUOUS
 62
    7
 10
273.76399310350553
 20
183.23477269126712
 11
273.76399310350553
 21
156.99317239648806
  0
LINE
  8
_0-a_極細3
  6
CONTINUOUS
 62
    7
 10
236.34201853851565
 20
156.99317251292499
 11
262.58361871685838
 21
183.23477269126712
  0
LINE
  8
_0-a_極細3
  6
CONTINUOUS
 62
    7
 10
165.6313406398744
 20
156.99317273293809
 11
191.87294059820346
 21
183.23477269126712
  0
LINE
  8
_0-a_極細3
  6
CONTINUOUS
 62
    7
 10
159.58624595839083
 20
221.65875617010943
 11
189.49559581288213
 21
251.56810602460041
  0
LINE
  8
_0-a_極細3
  6
CONTINUOUS
 62
    7
 10
229.2709507486515
 20
156.99317253492632
 11
255.51255090499254
 21
183.23477269126712
  0
LINE
  8
_0-a_極細3
  6
CONTINUOUS
 62
    7
 10
159.58624595839083
 20
158.01914586332009
 11
190.43065977017199
 21
188.86355967510141
  0
LINE
  8
_0-a_極細3
  6
CONTINUOUS
 62
    7
 10
159.58624595839083
 20
228.72982398197496
 11
182.42452800101631
 21
251.56810602460041
  0
LINE
  8
_0-a_極細3
  6
CONTINUOUS
 62
    7
 10
222.19988295878778
 20
156.99317255692768
 11
248.44148309312729
 21
183.23477269126712
  0
LINE
  8
_0-a_極細3
  6
CONTINUOUS
 62
    7
 10
159.58624595839083
 20
165.09021367518562
 11
190.43065977017199
 21
195.93462748696695
  0
LINE
  8
_0-a_極細3
  6
CONTINUOUS
 62
    7
 10
159.58624595839083
 20
235.80089179384029
 11
175.35346018915106
 21
251.56810602460041
  0
CIRCLE
  8
_0-a_極細3
  6
CONTINUOUS
 62
    7
 10
167.15126960402762
 20
256.81596088570495
 40
0.5530864197530718
  0
CIRCLE
  8
_0-a_極細3
  6
CONTINUOUS
 62
    7
 10
177.75867701143483
 20
257.88262755237156
 40
0.5530864197530718
  0
CIRCLE
  8
_0-a_極細3
  6
CONTINUOUS
 62
    7
 10
190.38089923365709
 20
259.83818310792708
 40
0.5530864197530718
  0
CIRCLE
  8
_0-a_極細3
  6
CONTINUOUS
 62
    7
 10
249.40312145587853
 20
265.34929421903826
 40
0.5530864197530718
  0
CIRCLE
  8
_0-a_極細3
  6
CONTINUOUS
 62
    7
 10
224.51423256698988
 20
264.81596088570495
 40
0.5530864197530718
  0
CIRCLE
  8
_0-a_極細3
  6
CONTINUOUS
 62
    7
 10
197.32534367810146
 20
252.5826275523716
 40
0.5530864197530718
  0
CIRCLE
  8
_0-a_極細3
  6
CONTINUOUS
 62
    7
 10
217.76978812254532
 20
251.33818310792708
 40
0.5530864197530718
  0
CIRCLE
  8
_0-a_極細3
  6
CONTINUOUS
 62
    7
 10
242.83645478921193
 20
247.60484977459399
 40
0.5530864197530718
  0
CIRCLE
  8
_0-a_極細3
  6
CONTINUOUS
 62
    7
 10
230.21423256698966
 20
241.91596088570509
 40
0.5530864197530718
  0
CIRCLE
  8
_0-a_極細3
  6
CONTINUOUS
 62
    7
 10
215.45867701143465
 20
228.40484977459394
 40
0.5530864197530718
  0
CIRCLE
  8
_0-a_極細3
  6
CONTINUOUS
 62
    7
 10
242.83645478921193
 20
235.69373866348292
 40
0.5530864197530718
  0
CIRCLE
  8
_0-a_極細3
  6
CONTINUOUS
 62
    7
 10
201.72534367810107
 20
208.58262755237206
 40
0.5530864197530718
  0
CIRCLE
  8
_0-a_極細3
  6
CONTINUOUS
 62
    7
 10
196.03645478921223
 20
190.62707199681654
 40
0.5530864197530718
  0
CIRCLE
  8
_0-a_極細3
  6
CONTINUOUS
 62
    7
 10
204.74756590032342
 20
197.38262755237201
 40
0.5530864197530718
  0
CIRCLE
  8
_0-a_極細3
  6
CONTINUOUS
 62
    7
 10
210.96978812254562
 20
188.84929421903877
 40
0.5530864197530718
  0
CIRCLE
  8
_0-a_極細3
  6
CONTINUOUS
 62
    7
 10
250.26978812254532
 20
206.73818310792765
 40
0.5530864197530718
  0
CIRCLE
  8
_0-a_極細3
  6
CONTINUOUS
 62
    7
 10
239.0697881225455
 20
201.22707199681642
 40
0.5530864197530718
  0
CIRCLE
  8
_0-a_極細3
  6
CONTINUOUS
 62
    7
 10
245.2920103447677
 20
198.73818310792763
 40
0.5530864197530718
  0
CIRCLE
  8
_0-a_極細3
  6
CONTINUOUS
 62
    7
 10
241.73645478921202
 20
189.49373866348338
 40
0.5530864197530718
  0
CIRCLE
  8
_0-a_極細3
  6
CONTINUOUS
 62
    7
 10
261.64756590032312
 20
190.56040533014993
 40
0.5530864197530718
  0
CIRCLE
  8
_0-a_極細3
  6
CONTINUOUS
 62
    7
 10
274.62534367810071
 20
193.76040533015001
 40
0.5530864197530718
  0
CIRCLE
  8
_0-a_極細3
  6
CONTINUOUS
 62
    7
 10
288.31423256698952
 20
178.82707199681681
 40
0.5530864197530718
  0
CIRCLE
  8
_0-a_極細3
  6
CONTINUOUS
 62
    7
 10
281.38089923365618
 20
163.89373866348342
 40
0.5530864197530718
  0
CIRCLE
  8
_0-a_極細3
  6
CONTINUOUS
 62
    7
 10
264.71423256698972
 20
207.50855347829796
 40
0.5530864197530718
  0
CIRCLE
  8
_0-a_極細3
  6
CONTINUOUS
 62
    7
 10
279.46978812254514
 20
241.64188681163114
 40
0.5530864197530718
  0
CIRCLE
  8
_0-a_極細3
  6
CONTINUOUS
 62
    7
 10
294.58089923365606
 20
231.68633125607562
 40
0.5530864197530718
  0
CIRCLE
  8
_0-a_極細3
  6
CONTINUOUS
 62
    7
 10
295.11423256698936
 20
213.7307757005201
 40
0.5530864197530718
  0
CIRCLE
  8
_0-a_極細3
  6
CONTINUOUS
 62
    7
 10
259.86978812254517
 20
243.46410903385322
 40
0.5530864197530718
  0
CIRCLE
  8
_0-a_極細3
  6
CONTINUOUS
 62
    7
 10
239.58089923365648
 20
265.4480596511371
 40
1.825531472681392
  0
CIRCLE
  8
_0-a_極細3
  6
CONTINUOUS
 62
    7
 10
214.35867701143428
 20
242.64805965113715
 40
1.825531472681392
  0
CIRCLE
  8
_0-a_極細3
  6
CONTINUOUS
 62
    7
 10
194.75867701143443
 20
204.6480596511376
 40
1.825531472681392
  0
CIRCLE
  8
_0-a_極細3
  6
CONTINUOUS
 62
    7
 10
247.95867701143379
 20
191.84805965113787
 40
1.825531472681392
  0
CIRCLE
  8
_0-a_極細3
  6
CONTINUOUS
 62
    7
 10
283.93645478921144
 20
188.24805965113796
 40
1.825531472681392
  0
CIRCLE
  8
_0-a_極細3
  6
CONTINUOUS
 62
    7
 10
288.73645478921111
 20
169.58139298447151
 40
1.825531472681392
  0
LINE
  8
_0-a_極細3
  6
CONTINUOUS
 62
    7
 10
306.26399310350553
 20
258.23477269126715
 11
307.0973264368389
 21
258.23477269126715
  0
LINE
  8
_0-a_極細3
  6
CONTINUOUS
 62
    7
 10
307.0973264368389
 20
258.23477269126715
 11
307.0973264368389
 21
156.99317239648806
  0
CIRCLE
  8
_0-a_極細3
  6
CONTINUOUS
 62
    7
 10
300.20989228921002
 20
242.24805965113774
 40
1.825531472681392
  0
CIRCLE
  8
_0-a_極細3
  6
CONTINUOUS
 62
    7
 10
299.21793627069292
 20
187.53818310792781
 40
0.5530864197530718
  0
CIRCLE
  8
_0-a_極細3
  6
CONTINUOUS
 62
    7
 10
300.5512696040268
 20
164.882112074758
 40
0.5530864197530718
  0
CIRCLE
  8
_0-a_極細3
  6
CONTINUOUS
 62
    7
 10
288.18089923365176
 20
223.13694854002691
 40
1.825531472681392
  0
LINE
  8
_0-a_極細3
  6
CONTINUOUS
 62
    7
 10
213.45725821635369
 20
208.11647385377071
 11
208.32695606646843
 21
222.21186316555918
  0
LINE
  8
_0-a_極細3
  6
CONTINUOUS
 62
    7
 10
263.45130089015015
 20
242.27548386480547
 11
268.58160304003491
 21
228.18009455301694
  0
LINE
  8
_0-a_極細3
  6
CONTINUOUS
 62
    7
 10
208.32695606646843
 20
222.21186316555918
 11
263.45130089015015
 21
242.27548386480547
  0
LINE
  8
_0-a_極細3
  6
CONTINUOUS
 62
    7
 10
213.45725821635369
 20
208.11647385377071
 11
268.58160304003491
 21
228.18009455301694
  0
LINE
  8
_0-a_極細3
  6
CENTER1
 62
    7
 10
205.9366737494183
 20
213.360538469635
 11
269.96769423198401
 21
236.66592395467049
  0
LINE
  8
_0-a_極細3
  6
CONTINUOUS
 62
    7
 10
232.09732643683893
 20
183.23477269126712
 11
232.09732643683893
 21
227.32033403958326
  0
LINE
  8
_0-a_極細3
  6
CONTINUOUS
 62
    7
 10
232.09732643683893
 20
227.32033403958326
 11
217.09732643683893
 21
227.32033403958326
  0
LINE
  8
_0-a_極細3
  6
CONTINUOUS
 62
    7
 10
217.09732643683893
 20
227.32033403958326
 11
217.09732643683893
 21
183.23477269126712
  0
CIRCLE
  8
_0-a_極細3
  6
CONTINUOUS
 62
    7
 10
246.47719552995289
 20
213.15670162644597
 40
1.825531472681392
  0
CIRCLE
  8
_0-a_極細3
  6
CONTINUOUS
 62
    7
 10
268.18583750526159
 20
219.37892384866839
 40
1.825531472681392
  0
LINE
  8
_0-a_極細3
  6
CENTER1
 62
    7
 10
224.59732643683893
 20
174.95803240681425
 11
224.59732643683893
 21
231.59605420419282
  0
LINE
  8
_0-d_寸法3
  6
CONTINUOUS
 62
    7
 10
247.09732643683893
 20
296.56810602460047
 11
201.14729535824921
 21
296.56810602460041
  0
LINE
  8
_0-d_寸法3
  6
CONTINUOUS
 62
    7
 10
206.14729535824921
 20
296.56810602460041
 11
208.73548580927434
 21
286.90884776170969
  0
LINE
  8
_0-d_寸法3
  6
CONTINUOUS
 62
    7
 10
206.14729535824921
 20
296.56810602460041
 11
203.55910490722394
 21
286.90884776170975
  0
LINE
  8
_0-d_寸法3
  6
CONTINUOUS
 62
    7
 10
245.09732643683896
 20
258.23477269126721
 11
201.14729535824964
 21
258.23477269126715
  0
LINE
  8
_0-d_寸法3
  6
CONTINUOUS
 62
    7
 10
206.14729535824964
 20
258.23477269126715
 11
203.55910490722442
 21
267.89403095415781
  0
LINE
  8
_0-d_寸法3
  6
CONTINUOUS
 62
    7
 10
206.14729535824964
 20
258.23477269126715
 11
208.73548580927491
 21
267.89403095415787
  0
LINE
  8
_0-d_寸法3
  6
CONTINUOUS
 62
    7
 10
206.14729535824921
 20
296.56810602460041
 11
206.14729535824964
 21
258.23477269126715
  0
TEXT
  8
_0-d_寸法3
 62
    7
 10
206.14729535824964
 20
269.9014393579339
 40
15
 41
1
 50
90
  1
23
  0
LINE
  8
_0-d_寸法3
  6
CONTINUOUS
 62
    7
 10
247.09732643683893
 20
258.23477269126698
 11
201.14729535824964
 21
258.23477269126693
  0
LINE
  8
_0-d_寸法3
  6
CONTINUOUS
 62
    7
 10
206.14729535824964
 20
258.23477269126693
 11
208.73548580927485
 21
248.57551442837627
  0
LINE
  8
_0-d_寸法3
  6
CONTINUOUS
 62
    7
 10
206.14729535824964
 20
258.23477269126693
 11
203.55910490722442
 21
248.57551442837629
  0
LINE
  8
_0-d_寸法3
  6
CONTINUOUS
 62
    7
 10
245.09732643683896
 20
219.9014393579337
 11
201.14729535824964
 21
219.9014393579337
  0
LINE
  8
_0-d_寸法3
  6
CONTINUOUS
 62
    7
 10
206.14729535824964
 20
219.9014393579337
 11
203.55910490722442
 21
229.56069762082436
  0
LINE
  8
_0-d_寸法3
  6
CONTINUOUS
 62
    7
 10
206.14729535824964
 20
219.9014393579337
 11
208.73548580927491
 21
229.56069762082436
  0
LINE
  8
_0-d_寸法3
  6
CONTINUOUS
 62
    7
 10
206.14729535824964
 20
258.23477269126693
 11
206.14729535824964
 21
219.9014393579337
  0
TEXT
  8
_0-d_寸法3
 62
    7
 10
206.14729535824964
 20
231.56810602460041
 40
15
 41
1
 50
90
  1
23
  0
LINE
  8
_0-d_寸法3
  6
CONTINUOUS
 62
    7
 10
257.09732643683884
 20
209.9014393579339
 11
257.09732643683867
 21
192.7567474570285
  0
LINE
  8
_0-d_寸法3
  6
CONTINUOUS
 62
    7
 10
257.09732643683878
 20
197.7567474570285
 11
266.75658469972944
 21
200.34493790805371
  0
LINE
  8
_0-d_寸法3
  6
CONTINUOUS
 62
    7
 10
257.09732643683878
 20
197.7567474570285
 11
266.75658469972944
 21
195.16855700600331
  0
LINE
  8
_0-d_寸法3
  6
CONTINUOUS
 62
    7
 10
307.09732643683878
 20
248.23477269126715
 11
307.09732643683799
 21
192.7567474570285
  0
LINE
  8
_0-d_寸法3
  6
CONTINUOUS
 62
    7
 10
307.0973264368381
 20
197.7567474570285
 11
297.43806817394733
 21
195.16855700600331
  0
LINE
  8
_0-d_寸法3
  6
CONTINUOUS
 62
    7
 10
307.0973264368381
 20
197.7567474570285
 11
297.43806817394739
 21
200.34493790805371
  0
LINE
  8
_0-d_寸法3
  6
CONTINUOUS
 62
    7
 10
257.09732643683878
 20
197.7567474570285
 11
307.0973264368381
 21
197.7567474570285
  0
TEXT
  8
_0-d_寸法3
 62
    7
 10
274.5973264368385
 20
197.7567474570285
 40
15
 41
1
 50
0
  1
30
  0
ARC
  8
_0-b_細線3
  6
CONTINUOUS
 62
    7
 10
262.0973264368389
 20
263.23477269126715
 40
5
 50
179.99999999999983
 51
269.99999999999977
  0
LINE
  8
_0-b_細線3
  6
CONTINUOUS
 62
    7
 10
257.0973264368389
 20
263.23477269126715
 11
257.0973264368389
 21
295.73477269126693
  0
LINE
  8
_0-b_細線3
  6
CONTINUOUS
 62
    7
 10
262.0973264368389
 20
258.23477269126715
 11
306.26399310350553
 21
258.23477269126715
  0
LINE
  8
_0-b_細線3
  6
CONTINUOUS
 62
    7
 10
307.0973264368389
 20
259.06810602460041
 11
306.26399310350553
 21
258.23477269126715
  0
LINE
  8
_0-b_細線3
  6
CONTINUOUS
 62
    7
 10
307.0973264368389
 20
262.4014393579339
 11
307.0973264368389
 21
259.06810602460041
  0
LINE
  8
_0-b_細線3
  6
CONTINUOUS
 62
    7
 10
306.26399310350553
 20
263.23477269126715
 11
307.0973264368389
 21
262.4014393579339
  0
LINE
  8
_0-b_細線3
  6
CONTINUOUS
 62
    7
 10
262.0973264368389
 20
263.23477269126715
 11
306.26399310350553
 21
263.23477269126715
  0
LINE
  8
_0-b_細線3
  6
CONTINUOUS
 62
    7
 10
257.93065977017199
 20
296.56810602460041
 11
257.0973264368389
 21
295.73477269126693
  0
LINE
  8
_0-b_細線3
  6
CONTINUOUS
 62
    7
 10
261.26399310350553
 20
296.56810602460041
 11
257.93065977017199
 21
296.56810602460041
  0
LINE
  8
_0-b_細線3
  6
CONTINUOUS
 62
    7
 10
262.0973264368389
 20
295.73477269126693
 11
261.26399310350553
 21
296.56810602460041
  0
LINE
  8
_0-b_細線3
  6
CONTINUOUS
 62
    7
 10
262.0973264368389
 20
263.23477269126715
 11
262.0973264368389
 21
295.73477269126693
  0
ARC
  8
_0-b_細線3
  6
CONTINUOUS
 62
    7
 10
330.43065977017221
 20
317.70421713571136
 40
46.136111111111113
 50
256.63227178393186
 51
283.36772821606712
  0
ARC
  8
_0-b_細線3
  6
CONTINUOUS
 62
    7
 10
330.43065977017221
 20
242.0986615801562
 40
46.136111111111113
 50
76.632271783932524
 51
103.36772821606777
  0
LINE
  8
_0-b_細線3
  6
CONTINUOUS
 62
    7
 10
325.43065977017199
 20
294.56810602460041
 11
325.43065977017199
 21
296.56810602460041
  0
LINE
  8
_0-b_細線3
  6
CONTINUOUS
 62
    7
 10
319.76399310350541
 20
294.56810602460041
 11
325.43065977017199
 21
294.56810602460041
  0
LINE
  8
_0-b_細線3
  6
CONTINUOUS
 62
    7
 10
319.76399310350541
 20
263.23477269126715
 11
319.76399310350541
 21
294.56810602460041
  0
LINE
  8
_0-b_細線3
  6
CONTINUOUS
 62
    7
 10
317.76399310350547
 20
263.23477269126715
 11
319.76399310350541
 21
263.23477269126715
  0
LINE
  8
_0-b_細線3
  6
CONTINUOUS
 62
    7
 10
317.76399310350547
 20
294.56810602460041
 11
317.76399310350547
 21
263.23477269126715
  0
LINE
  8
_0-b_細線3
  6
CONTINUOUS
 62
    7
 10
312.0973264368389
 20
294.56810602460041
 11
317.76399310350547
 21
294.56810602460041
  0
LINE
  8
_0-b_細線3
  6
CONTINUOUS
 62
    7
 10
312.0973264368389
 20
296.56810602460041
 11
312.0973264368389
 21
294.56810602460041
  0
LINE
  8
_0-b_細線3
  6
CONTINUOUS
 62
    7
 10
325.43065977017199
 20
296.56810602460041
 11
312.0973264368389
 21
296.56810602460041
  0
ARC
  8
_0-b_細線3
  6
CONTINUOUS
 62
    7
 10
307.09732643683878
 20
317.70421713571136
 40
46.136111111111113
 50
256.63227178393214
 51
283.36772821606741
  0
ARC
  8
_0-b_細線3
  6
CONTINUOUS
 62
    7
 10
307.09732643683878
 20
242.0986615801562
 40
46.136111111111113
 50
76.632271783932239
 51
103.36772821606749
  0
LINE
  8
_0-b_細線3
  6
CONTINUOUS
 62
    7
 10
302.0973264368385
 20
294.56810602460041
 11
302.0973264368385
 21
296.56810602460041
  0
LINE
  8
_0-b_細線3
  6
CONTINUOUS
 62
    7
 10
296.43065977017221
 20
294.56810602460041
 11
302.0973264368385
 21
294.56810602460041
  0
LINE
  8
_0-b_細線3
  6
CONTINUOUS
 62
    7
 10
296.43065977017221
 20
263.23477269126715
 11
296.43065977017221
 21
294.56810602460041
  0
LINE
  8
_0-b_細線3
  6
CONTINUOUS
 62
    7
 10
294.43065977017227
 20
263.23477269126715
 11
296.43065977017221
 21
263.23477269126715
  0
LINE
  8
_0-b_細線3
  6
CONTINUOUS
 62
    7
 10
294.43065977017227
 20
294.56810602460041
 11
294.43065977017227
 21
263.23477269126715
  0
LINE
  8
_0-b_細線3
  6
CONTINUOUS
 62
    7
 10
288.76399310350553
 20
294.56810602460041
 11
294.43065977017227
 21
294.56810602460041
  0
LINE
  8
_0-b_細線3
  6
CONTINUOUS
 62
    7
 10
288.76399310350553
 20
296.56810602460041
 11
288.76399310350553
 21
294.56810602460041
  0
LINE
  8
_0-b_細線3
  6
CONTINUOUS
 62
    7
 10
302.0973264368385
 20
296.56810602460041
 11
288.76399310350553
 21
296.56810602460041
  0
ARC
  8
_0-b_細線3
  6
CONTINUOUS
 62
    7
 10
283.76399310350553
 20
317.70421713571136
 40
46.136111111111113
 50
256.63227178393186
 51
283.36772821606712
  0
ARC
  8
_0-b_細線3
  6
CONTINUOUS
 62
    7
 10
283.76399310350553
 20
242.0986615801562
 40
46.136111111111113
 50
76.632271783932524
 51
103.36772821606777
  0
LINE
  8
_0-b_細線3
  6
CONTINUOUS
 62
    7
 10
278.76399310350519
 20
294.56810602460041
 11
278.76399310350519
 21
296.56810602460041
  0
LINE
  8
_0-b_細線3
  6
CONTINUOUS
 62
    7
 10
273.09732643683873
 20
294.56810602460041
 11
278.76399310350519
 21
294.56810602460041
  0
LINE
  8
_0-b_細線3
  6
CONTINUOUS
 62
    7
 10
273.09732643683873
 20
263.23477269126715
 11
273.09732643683873
 21
294.56810602460041
  0
LINE
  8
_0-b_細線3
  6
CONTINUOUS
 62
    7
 10
271.09732643683867
 20
263.23477269126715
 11
273.09732643683873
 21
263.23477269126715
  0
LINE
  8
_0-b_細線3
  6
CONTINUOUS
 62
    7
 10
271.09732643683867
 20
294.56810602460041
 11
271.09732643683867
 21
263.23477269126715
  0
LINE
  8
_0-b_細線3
  6
CONTINUOUS
 62
    7
 10
265.43065977017221
 20
294.56810602460041
 11
271.09732643683867
 21
294.56810602460041
  0
LINE
  8
_0-b_細線3
  6
CONTINUOUS
 62
    7
 10
265.43065977017221
 20
296.56810602460041
 11
265.43065977017221
 21
294.56810602460041
  0
LINE
  8
_0-b_細線3
  6
CONTINUOUS
 62
    7
 10
278.76399310350519
 20
296.56810602460041
 11
265.43065977017221
 21
296.56810602460041
  0
CIRCLE
  8
_0-a_極細3
  6
CONTINUOUS
 62
    7
 10
755.75867701143034
 20
281.83355347829706
 40
0.5530864197530718
  0
CIRCLE
  8
_0-a_極細3
  6
CONTINUOUS
 62
    7
 10
703.75867701143079
 20
282.76688681163046
 40
0.5530864197530718
  0
LINE
  8
_0-a_極細3
  6
CONTINUOUS
 62
    7
 10
692.09732643683867
 20
296.56810602460041
 11
692.09732643683867
 21
284.90143935793344
  0
LINE
  8
_0-a_極細3
  6
CONTINUOUS
 62
    7
 10
683.76399310350507
 20
284.90143935793344
 11
781.27507358195317
 21
284.90143935793344
  0
LINE
  8
_0-a_極細3
  6
CONTINUOUS
 62
    7
 10
683.76399310350507
 20
295.73477269126693
 11
683.76399310350507
 21
296.56810602460041
  0
LINE
  8
_0-a_極細3
  6
CONTINUOUS
 62
    7
 10
692.09732643683867
 20
288.57052563865841
 11
688.42824015611359
 21
284.90143935793344
  0
LINE
  8
_0-a_極細3
  6
CONTINUOUS
 62
    7
 10
692.09732643683867
 20
292.8131663257775
 11
684.1855994689945
 21
284.90143935793344
  0
LINE
  8
_0-a_極細3
  6
CONTINUOUS
 62
    7
 10
683.76399310350507
 20
288.72247367956356
 11
691.60962544854203
 21
296.56810602460041
  0
LINE
  8
_0-a_極細3
  6
CONTINUOUS
 62
    7
 10
683.76399310350507
 20
292.96511436668288
 11
687.36698476142237
 21
296.56810602460018
  0
LINE
  8
_0-a_極細3
  6
CONTINUOUS
 62
    7
 10
692.09732643683867
 20
295.05878381509478
 11
690.58800422733293
 21
296.56810602460041
  0
LINE
  8
_0-a_極細3
  6
CONTINUOUS
 62
    7
 10
692.09732643683867
 20
290.81614312797547
 11
686.34536354021395
 21
296.56810602460041
  0
LINE
  8
_0-a_極細3
  6
CONTINUOUS
 62
    7
 10
692.09732643683867
 20
286.57350244085615
 11
683.76399310350507
 21
294.90683577418963
  0
LINE
  8
_0-a_極細3
  6
CONTINUOUS
 62
    7
 10
689.52674883264183
 20
284.90143935793344
 11
683.76399310350507
 21
290.66419508707031
  0
LINE
  8
_0-a_極細3
  6
CONTINUOUS
 62
    7
 10
685.28410814552262
 20
284.90143935793344
 11
683.76399310350507
 21
286.42155439995099
  0
LINE
  8
_0-a_極細3
  6
CONTINUOUS
 62
    7
 10
760.55313183714134
 20
284.90143935793344
 11
772.21979787701912
 21
296.56810539781122
  0
LINE
  8
_0-a_極細3
  6
CONTINUOUS
 62
    7
 10
739.33992840154497
 20
284.90143935793367
 11
751.00659460737143
 21
296.5681055637599
  0
LINE
  8
_0-a_極細3
  6
CONTINUOUS
 62
    7
 10
718.1267249659486
 20
284.90143935793344
 11
729.79339133772328
 21
296.56810572970812
  0
LINE
  8
_0-a_極細3
  6
CONTINUOUS
 62
    7
 10
696.91352153035223
 20
284.90143935793344
 11
708.58018806807559
 21
296.5681058956568
  0
LINE
  8
_0-a_極細3
  6
DASHED2
 62
    7
 10
771.15973355494009
 20
284.90143935793367
 11
781.27507358195317
 21
295.01677938494709
  0
LINE
  8
_0-a_極細3
  6
DASHED2
 62
    7
 10
749.94653011934315
 20
284.90143935793344
 11
761.61319624219504
 21
296.56810548078533
  0
LINE
  8
_0-a_極細3
  6
DASHED2
 62
    7
 10
728.7333266837469
 20
284.90143935793344
 11
740.39999297254735
 21
296.56810564673401
  0
LINE
  8
_0-a_極細3
  6
DASHED2
 62
    7
 10
707.52012324815041
 20
284.90143935793344
 11
719.1867897028992
 21
296.56810581268246
  0
LINE
  8
_0-a_極細3
  6
DASHED2
 62
    7
 10
692.09732643683867
 20
290.69184598221796
 11
697.97358643325151
 21
296.56810597863091
  0
CIRCLE
  8
_0-a_極細3
  6
CONTINUOUS
 62
    7
 10
763.75867701142988
 20
282.20361520669235
 40
1.825531472681392
  0
CIRCLE
  8
_0-a_極細3
  6
CONTINUOUS
 62
    7
 10
725.09201034476393
 20
278.78139298447036
 40
1.825531472681392
  0
LINE
  8
_0-a_極細3
  6
CONTINUOUS
 62
    7
 10
683.76399310350507
 20
296.56810602460041
 11
781.27507358195317
 21
296.56810602460041
  0
LINE
  8
_0-a_極細3
  6
CONTINUOUS
 62
    7
 10
750.43065977017159
 20
251.56810602460041
 11
750.43065977017159
 21
183.23477269126712
  0
LINE
  8
_0-a_極細3
  6
CONTINUOUS
 62
    7
 10
667.09732643683867
 20
183.23477269126712
 11
750.43065977017159
 21
183.23477269126712
  0
LINE
  8
_0-a_極細3
  6
CONTINUOUS
 62
    7
 10
750.43065977017159
 20
251.56810602460041
 11
781.27507358195317
 21
251.56810602460041
  0
LINE
  8
_0-a_極細3
  6
CONTINUOUS
 62
    7
 10
667.09732643683867
 20
183.23477269126712
 11
667.09732643683867
 21
156.99317239648806
  0
LINE
  8
_0-a_極細3
  6
CONTINUOUS
 62
    7
 10
758.72066218476493
 20
156.99317239648806
 11
781.27507362349388
 21
179.54758383521698
  0
LINE
  8
_0-a_極細3
  6
CONTINUOUS
 62
    7
 10
688.00998406611018
 20
156.99317239648806
 11
714.25158436088896
 21
183.23477269126712
  0
LINE
  8
_0-a_極細3
  6
CONTINUOUS
 62
    7
 10
750.43065977017159
 20
219.41384810054981
 11
781.27507358270861
 21
250.2582619130867
  0
LINE
  8
_0-a_極細3
  6
CONTINUOUS
 62
    7
 10
751.64959437289917
 20
156.99317239648806
 11
781.27507361941525
 21
186.61865164300409
  0
LINE
  8
_0-a_極細3
  6
CONTINUOUS
 62
    7
 10
680.9389162542443
 20
156.99317239648806
 11
707.18051654902365
 21
183.23477269126712
  0
LINE
  8
_0-a_極細3
  6
CONTINUOUS
 62
    7
 10
750.43065977017159
 20
226.48491591241535
 11
775.51384970280651
 21
251.56810584505001
  0
LINE
  8
_0-a_極細3
  6
CONTINUOUS
 62
    7
 10
744.57852656103387
 20
156.99317239648806
 11
781.27507361533674
 21
193.68971945079102
  0
LINE
  8
_0-a_極細3
  6
CONTINUOUS
 62
    7
 10
673.86784844237911
 20
156.99317239648806
 11
700.10944873715846
 21
183.23477269126712
  0
LINE
  8
_0-a_極細3
  6
CONTINUOUS
 62
    7
 10
750.43065977017159
 20
233.55598372428088
 11
768.44278194155731
 21
251.56810589566615
  0
CIRCLE
  8
_0-a_極細3
  6
CONTINUOUS
 62
    7
 10
653.50312145587577
 20
242.08910903385322
 40
0.5530864197530718
  0
CIRCLE
  8
_0-a_極細3
  6
CONTINUOUS
 62
    7
 10
663.45867701143106
 20
246.8891090338532
 40
0.5530864197530718
  0
CIRCLE
  8
_0-a_極細3
  6
CONTINUOUS
 62
    7
 10
659.36978812254256
 20
221.91133125607578
 40
0.5530864197530718
  0
CIRCLE
  8
_0-a_極細3
  6
CONTINUOUS
 62
    7
 10
676.90312145587586
 20
204.8891090338536
 40
0.5530864197530718
  0
CIRCLE
  8
_0-a_極細3
  6
CONTINUOUS
 62
    7
 10
659.06978812254238
 20
181.5891090338539
 40
0.5530864197530718
  0
CIRCLE
  8
_0-a_極細3
  6
CONTINUOUS
 62
    7
 10
649.73645478920946
 20
163.72244236718734
 40
0.5530864197530718
  0
CIRCLE
  8
_0-a_極細3
  6
CONTINUOUS
 62
    7
 10
661.20312145587559
 20
193.58910903385365
 40
0.5530864197530718
  0
CIRCLE
  8
_0-a_極細3
  6
CONTINUOUS
 62
    7
 10
675.06978812254249
 20
188.78910903385375
 40
0.5530864197530718
  0
CIRCLE
  8
_0-a_極細3
  6
CONTINUOUS
 62
    7
 10
702.00312145587577
 20
189.05577570052037
 40
0.5530864197530718
  0
CIRCLE
  8
_0-a_極細3
  6
CONTINUOUS
 62
    7
 10
690.00312145587588
 20
198.12244236718698
 40
0.5530864197530718
  0
CIRCLE
  8
_0-a_極細3
  6
CONTINUOUS
 62
    7
 10
701.20312145587559
 20
203.72244236718686
 40
0.5530864197530718
  0
CIRCLE
  8
_0-a_極細3
  6
CONTINUOUS
 62
    7
 10
689.22534367809749
 20
258.01133125607521
 40
0.5530864197530718
  0
CIRCLE
  8
_0-a_極細3
  6
CONTINUOUS
 62
    7
 10
709.7586770114309
 20
257.30022014496421
 40
0.5530864197530718
  0
CIRCLE
  8
_0-a_極細3
  6
CONTINUOUS
 62
    7
 10
698.15867701143088
 20
243.30022014496421
 40
0.5530864197530718
  0
CIRCLE
  8
_0-a_極細3
  6
CONTINUOUS
 62
    7
 10
737.35867701143081
 20
190.10022014496485
 40
0.5530864197530718
  0
CIRCLE
  8
_0-a_極細3
  6
CONTINUOUS
 62
    7
 10
744.55867701143052
 20
204.10022014496491
 40
0.5530864197530718
  0
CIRCLE
  8
_0-a_極細3
  6
CONTINUOUS
 62
    7
 10
742.95867701143027
 20
224.90022014496461
 40
0.5530864197530718
  0
CIRCLE
  8
_0-a_極細3
  6
CONTINUOUS
 62
    7
 10
724.95867701143072
 20
246.1002201449644
 40
0.5530864197530718
  0
CIRCLE
  8
_0-a_極細3
  6
CONTINUOUS
 62
    7
 10
741.75867701143034
 20
265.70022014496408
 40
0.5530864197530718
  0
CIRCLE
  8
_0-a_極細3
  6
CONTINUOUS
 62
    7
 10
738.95867701143015
 20
238.90022014496438
 40
0.5530864197530718
  0
CIRCLE
  8
_0-a_極細3
  6
CONTINUOUS
 62
    7
 10
768.55867701143006
 20
260.10022014496417
 40
0.5530864197530718
  0
CIRCLE
  8
_0-a_極細3
  6
CONTINUOUS
 62
    7
 10
748.11423256698572
 20
258.40361520669262
 40
1.825531472681392
  0
CIRCLE
  8
_0-a_極細3
  6
CONTINUOUS
 62
    7
 10
692.69201034476418
 20
264.9813929844704
 40
1.825531472681392
  0
CIRCLE
  8
_0-a_極細3
  6
CONTINUOUS
 62
    7
 10
724.69201034476373
 20
232.98139298447066
 40
1.825531472681392
  0
CIRCLE
  8
_0-a_極細3
  6
CONTINUOUS
 62
    7
 10
654.29756590032059
 20
188.43139298447113
 40
1.825531472681392
  0
CIRCLE
  8
_0-a_極細3
  6
CONTINUOUS
 62
    7
 10
664.5197881225422
 20
218.29805965113769
 40
1.825531472681392
  0
CIRCLE
  8
_0-a_極細3
  6
CONTINUOUS
 62
    7
 10
699.71978812254201
 20
195.89805965113783
 40
1.825531472681392
  0
CIRCLE
  8
_0-a_極細3
  6
CONTINUOUS
 62
    7
 10
745.98498075782572
 20
185.71100725916835
 40
1.825531472681392
  0
CIRCLE
  8
_0-a_極細3
  6
CONTINUOUS
 62
    7
 10
695.31978812254192
 20
239.09805965113745
 40
1.825531472681392
  0
CIRCLE
  8
_0-a_極細3
  6
CONTINUOUS
 62
    7
 10
647.85373873982644
 20
233.67485424410097
 40
0.5530864197530718
  0
CIRCLE
  8
_0-a_極細3
  6
CONTINUOUS
 62
    7
 10
648.05373873982717
 20
209.71929868854571
 40
0.5530864197530718
  0
LINE
  8
_0-a_極細3
  6
CONTINUOUS
 62
    7
 10
634.59732643683765
 20
258.23477269126715
 11
633.76399310350462
 21
258.23477269126715
  0
LINE
  8
_0-a_極細3
  6
CONTINUOUS
 62
    7
 10
633.76399310350462
 20
258.23477269126715
 11
633.76399310350462
 21
156.99317239648806
  0
CIRCLE
  8
_0-a_極細3
  6
CONTINUOUS
 62
    7
 10
639.74838894558798
 20
218.17799792274243
 40
0.5530864197530718
  0
CIRCLE
  8
_0-a_極細3
  6
CONTINUOUS
 62
    7
 10
641.05497330772778
 20
178.92244236718716
 40
0.5530864197530718
  0
CIRCLE
  8
_0-a_極細3
  6
CONTINUOUS
 62
    7
 10
640.41608441883818
 20
244.87583742891573
 40
1.825531472681392
  0
CIRCLE
  8
_0-a_極細3
  6
CONTINUOUS
 62
    7
 10
643.36423256698617
 20
172.25361520669324
 40
1.825531472681392
  0
LINE
  8
_0-a_極細3
  6
CONTINUOUS
 62
    7
 10
727.40406132399039
 20
208.11647385377071
 11
732.5343634738756
 21
222.21186316555918
  0
LINE
  8
_0-a_極細3
  6
CONTINUOUS
 62
    7
 10
677.41001865019416
 20
242.27548386480547
 11
672.27971650030941
 21
228.18009455301694
  0
LINE
  8
_0-a_極細3
  6
CONTINUOUS
 62
    7
 10
732.5343634738756
 20
222.21186316555918
 11
677.41001865019416
 21
242.27548386480547
  0
LINE
  8
_0-a_極細3
  6
CONTINUOUS
 62
    7
 10
727.40406132399039
 20
208.11647385377071
 11
672.27971650030941
 21
228.18009455301694
  0
LINE
  8
_0-a_極細3
  6
CENTER1
 62
    7
 10
734.92464579092587
 20
213.360538469635
 11
670.89362530836024
 21
236.66592395467049
  0
LINE
  8
_0-a_極細3
  6
CONTINUOUS
 62
    7
 10
708.76399310350507
 20
183.23477269126712
 11
708.76399310350507
 21
227.32033403958326
  0
LINE
  8
_0-a_極細3
  6
CONTINUOUS
 62
    7
 10
708.76399310350507
 20
227.32033403958326
 11
723.76399310350507
 21
227.32033403958326
  0
LINE
  8
_0-a_極細3
  6
CONTINUOUS
 62
    7
 10
723.76399310350507
 20
227.32033403958326
 11
723.76399310350507
 21
183.23477269126712
  0
LINE
  8
_0-a_極細3
  6
CENTER1
 62
    7
 10
716.26399310350507
 20
174.95803240681425
 11
716.26399310350507
 21
231.59605420419282
  0
CIRCLE
  8
_0-a_極細3
  6
CONTINUOUS
 62
    7
 10
710.38089923365351
 20
240.3965164412607
 40
0.5530864197530718
  0
CIRCLE
  8
_0-a_極細3
  6
CONTINUOUS
 62
    7
 10
732.59708579058042
 20
227.05330656471779
 40
0.5530864197530718
  0
LINE
  8
_0-d_寸法3
  6
CONTINUOUS
 62
    7
 10
683.76399310350553
 20
209.9014393579339
 11
683.76399310350553
 21
192.7567474570285
  0
LINE
  8
_0-d_寸法3
  6
CONTINUOUS
 62
    7
 10
683.76399310350553
 20
197.7567474570285
 11
674.10473484061481
 21
195.16855700600331
  0
LINE
  8
_0-d_寸法3
  6
CONTINUOUS
 62
    7
 10
683.76399310350553
 20
197.7567474570285
 11
674.10473484061481
 21
200.34493790805371
  0
LINE
  8
_0-d_寸法3
  6
CONTINUOUS
 62
    7
 10
633.76399310350553
 20
248.23477269126715
 11
633.76399310350553
 21
192.7567474570285
  0
LINE
  8
_0-d_寸法3
  6
CONTINUOUS
 62
    7
 10
633.76399310350553
 20
197.7567474570285
 11
643.42325136639624
 21
200.34493790805371
  0
LINE
  8
_0-d_寸法3
  6
CONTINUOUS
 62
    7
 10
633.76399310350553
 20
197.7567474570285
 11
643.42325136639624
 21
195.16855700600331
  0
LINE
  8
_0-d_寸法3
  6
CONTINUOUS
 62
    7
 10
683.76399310350553
 20
197.7567474570285
 11
633.76399310350553
 21
197.7567474570285
  0
TEXT
  8
_0-d_寸法3
 62
    7
 10
651.26399310350553
 20
197.75674745702844
 40
15
 41
1
 50
0.0000000000005428
  1
30
  0
ARC
  8
_0-b_細線3
  6
CONTINUOUS
 62
    7
 10
678.76399310350507
 20
263.23477269126715
 40
5
 50
269.99999999999977
 51
359.99999999999966
  0
LINE
  8
_0-b_細線3
  6
CONTINUOUS
 62
    7
 10
683.76399310350507
 20
263.23477269126715
 11
683.76399310350507
 21
295.73477269126693
  0
LINE
  8
_0-b_細線3
  6
CONTINUOUS
 62
    7
 10
678.76399310350507
 20
258.23477269126715
 11
634.59732643683765
 21
258.23477269126715
  0
LINE
  8
_0-b_細線3
  6
CONTINUOUS
 62
    7
 10
633.76399310350462
 20
259.06810602460041
 11
634.59732643683765
 21
258.23477269126715
  0
LINE
  8
_0-b_細線3
  6
CONTINUOUS
 62
    7
 10
633.76399310350462
 20
262.4014393579339
 11
633.76399310350462
 21
259.06810602460041
  0
LINE
  8
_0-b_細線3
  6
CONTINUOUS
 62
    7
 10
634.59732643683765
 20
263.23477269126715
 11
633.76399310350462
 21
262.4014393579339
  0
LINE
  8
_0-b_細線3
  6
CONTINUOUS
 62
    7
 10
678.76399310350507
 20
263.23477269126715
 11
634.59732643683765
 21
263.23477269126715
  0
LINE
  8
_0-b_細線3
  6
CONTINUOUS
 62
    7
 10
682.93065977017204
 20
296.56810602460041
 11
683.76399310350507
 21
295.73477269126693
  0
LINE
  8
_0-b_細線3
  6
CONTINUOUS
 62
    7
 10
679.59732643683867
 20
296.56810602460041
 11
682.93065977017204
 21
296.56810602460041
  0
LINE
  8
_0-b_細線3
  6
CONTINUOUS
 62
    7
 10
678.76399310350507
 20
295.73477269126693
 11
679.59732643683867
 21
296.56810602460041
  0
LINE
  8
_0-b_細線3
  6
CONTINUOUS
 62
    7
 10
678.76399310350507
 20
263.23477269126715
 11
678.76399310350507
 21
295.73477269126693
  0
ARC
  8
_0-b_細線3
  6
CONTINUOUS
 62
    7
 10
633.76399310350553
 20
317.70421713571136
 40
46.136111111111113
 50
256.63227178393163
 51
283.36772821606712
  0
ARC
  8
_0-b_細線3
  6
CONTINUOUS
 62
    7
 10
633.76399310350553
 20
242.0986615801562
 40
46.136111111111113
 50
76.632271783932524
 51
103.36772821606749
  0
LINE
  8
_0-b_細線3
  6
CONTINUOUS
 62
    7
 10
652.09732643683901
 20
294.56810602460041
 11
652.09732643683901
 21
296.56810602460041
  0
LINE
  8
_0-b_細線3
  6
CONTINUOUS
 62
    7
 10
646.43065977017204
 20
294.56810602460041
 11
652.09732643683901
 21
294.56810602460041
  0
LINE
  8
_0-b_細線3
  6
CONTINUOUS
 62
    7
 10
646.43065977017204
 20
263.23477269126715
 11
646.43065977017204
 21
294.56810602460041
  0
LINE
  8
_0-b_細線3
  6
CONTINUOUS
 62
    7
 10
644.43065977017216
 20
263.23477269126715
 11
646.43065977017204
 21
263.23477269126715
  0
LINE
  8
_0-b_細線3
  6
CONTINUOUS
 62
    7
 10
644.43065977017216
 20
294.56810602460041
 11
644.43065977017216
 21
263.23477269126715
  0
LINE
  8
_0-b_細線3
  6
CONTINUOUS
 62
    7
 10
638.76399310350553
 20
294.56810602460041
 11
644.43065977017216
 21
294.56810602460041
  0
LINE
  8
_0-b_細線3
  6
CONTINUOUS
 62
    7
 10
638.76399310350553
 20
296.56810602460041
 11
638.76399310350553
 21
294.56810602460041
  0
LINE
  8
_0-b_細線3
  6
CONTINUOUS
 62
    7
 10
652.09732643683901
 20
296.56810602460041
 11
638.76399310350553
 21
296.56810602460041
  0
ARC
  8
_0-b_細線3
  6
CONTINUOUS
 62
    7
 10
657.09732643683867
 20
317.70421713571136
 40
46.136111111111113
 50
256.63227178393163
 51
283.36772821606712
  0
ARC
  8
_0-b_細線3
  6
CONTINUOUS
 62
    7
 10
657.09732643683867
 20
242.0986615801562
 40
46.136111111111113
 50
76.632271783932524
 51
103.36772821606749
  0
LINE
  8
_0-b_細線3
  6
CONTINUOUS
 62
    7
 10
675.43065977017204
 20
294.56810602460041
 11
675.43065977017204
 21
296.56810602460041
  0
LINE
  8
_0-b_細線3
  6
CONTINUOUS
 62
    7
 10
669.76399310350519
 20
294.56810602460041
 11
675.43065977017204
 21
294.56810602460041
  0
LINE
  8
_0-b_細線3
  6
CONTINUOUS
 62
    7
 10
669.76399310350519
 20
263.23477269126715
 11
669.76399310350519
 21
294.56810602460041
  0
LINE
  8
_0-b_細線3
  6
CONTINUOUS
 62
    7
 10
667.76399310350507
 20
263.23477269126715
 11
669.76399310350519
 21
263.23477269126715
  0
LINE
  8
_0-b_細線3
  6
CONTINUOUS
 62
    7
 10
667.76399310350507
 20
294.56810602460041
 11
667.76399310350507
 21
263.23477269126715
  0
LINE
  8
_0-b_細線3
  6
CONTINUOUS
 62
    7
 10
662.09732643683867
 20
294.56810602460041
 11
667.76399310350507
 21
294.56810602460041
  0
LINE
  8
_0-b_細線3
  6
CONTINUOUS
 62
    7
 10
662.09732643683867
 20
296.56810602460041
 11
662.09732643683867
 21
294.56810602460041
  0
LINE
  8
_0-b_細線3
  6
CONTINUOUS
 62
    7
 10
675.43065977017204
 20
296.56810602460041
 11
662.09732643683867
 21
296.56810602460041
  0
ARC
  8
_0-b_細線3
  6
CONTINUOUS
 62
    7
 10
610.43065977017068
 20
317.70421713571136
 40
46.136111111111113
 50
256.63227178393214
 51
283.36772821606769
  0
ARC
  8
_0-b_細線3
  6
CONTINUOUS
 62
    7
 10
610.43065977017068
 20
242.0986615801562
 40
46.136111111111113
 50
76.632271783931969
 51
103.36772821606749
  0
LINE
  8
_0-b_細線3
  6
CONTINUOUS
 62
    7
 10
628.76399310350416
 20
294.56810602460041
 11
628.76399310350416
 21
296.56810602460041
  0
LINE
  8
_0-b_細線3
  6
CONTINUOUS
 62
    7
 10
623.09732643683719
 20
294.56810602460041
 11
628.76399310350416
 21
294.56810602460041
  0
LINE
  8
_0-b_細線3
  6
CONTINUOUS
 62
    7
 10
623.09732643683719
 20
263.23477269126715
 11
623.09732643683719
 21
294.56810602460041
  0
LINE
  8
_0-b_細線3
  6
CONTINUOUS
 62
    7
 10
621.09732643683765
 20
263.23477269126715
 11
623.09732643683719
 21
263.23477269126715
  0
LINE
  8
_0-b_細線3
  6
CONTINUOUS
 62
    7
 10
621.09732643683765
 20
294.56810602460041
 11
621.09732643683765
 21
263.23477269126715
  0
LINE
  8
_0-b_細線3
  6
CONTINUOUS
 62
    7
 10
615.43065977017068
 20
294.56810602460041
 11
621.09732643683765
 21
294.56810602460041
  0
LINE
  8
_0-b_細線3
  6
CONTINUOUS
 62
    7
 10
615.43065977017068
 20
296.56810602460041
 11
615.43065977017068
 21
294.56810602460041
  0
LINE
  8
_0-b_細線3
  6
CONTINUOUS
 62
    7
 10
628.76399310350416
 20
296.56810602460041
 11
615.43065977017068
 21
296.56810602460041
  0
LINE
  8
_0-d_寸法3
  6
CONTINUOUS
 62
    7
 10
257.0973264368389
 20
301.56810602460041
 11
257.0973264368389
 21
411.56810435625584
  0
LINE
  8
_0-d_寸法3
  6
CONTINUOUS
 62
    7
 10
257.0973264368389
 20
406.56810435625584
 11
266.75658469972961
 21
409.15629480728109
  0
LINE
  8
_0-d_寸法3
  6
CONTINUOUS
 62
    7
 10
257.0973264368389
 20
406.56810435625584
 11
266.75658469972961
 21
403.97991390523066
  0
LINE
  8
_0-d_寸法3
  6
CONTINUOUS
 62
    7
 10
683.76399310350507
 20
301.56810602460041
 11
683.76399310350553
 21
411.56810435625584
  0
LINE
  8
_0-d_寸法3
  6
CONTINUOUS
 62
    7
 10
683.76399310350553
 20
406.56810435625584
 11
674.10473484061481
 21
403.97991390523066
  0
LINE
  8
_0-d_寸法3
  6
CONTINUOUS
 62
    7
 10
683.76399310350553
 20
406.56810435625584
 11
674.10473484061481
 21
409.15629480728114
  0
LINE
  8
_0-d_寸法3
  6
CONTINUOUS
 62
    7
 10
257.0973264368389
 20
406.56810435625584
 11
683.76399310350553
 21
406.56810435625584
  0
TEXT
  8
_0-d_寸法3
 62
    7
 10
459.18065977017199
 20
406.56810435625584
 40
15
 41
1
 50
0
  1
256
  0
LINE
  8
_0-d_寸法3
  6
CONTINUOUS
 62
    7
 10
307.0973264368389
 20
253.23477269126715
 11
307.0973264368389
 21
192.7567474570285
  0
LINE
  8
_0-d_寸法3
  6
CONTINUOUS
 62
    7
 10
307.0973264368389
 20
197.7567474570285
 11
316.75658469972961
 21
200.34493790805371
  0
LINE
  8
_0-d_寸法3
  6
CONTINUOUS
 62
    7
 10
307.0973264368389
 20
197.7567474570285
 11
316.75658469972961
 21
195.16855700600331
  0
LINE
  8
_0-d_寸法3
  6
CONTINUOUS
 62
    7
 10
633.76399310350462
 20
253.23477269126715
 11
633.76399310350462
 21
192.7567474570285
  0
LINE
  8
_0-d_寸法3
  6
CONTINUOUS
 62
    7
 10
633.76399310350462
 20
197.7567474570285
 11
624.1047348406139
 21
195.16855700600331
  0
LINE
  8
_0-d_寸法3
  6
CONTINUOUS
 62
    7
 10
633.76399310350462
 20
197.7567474570285
 11
624.1047348406139
 21
200.34493790805371
  0
LINE
  8
_0-d_寸法3
  6
CONTINUOUS
 62
    7
 10
307.0973264368389
 20
197.7567474570285
 11
633.76399310350462
 21
197.7567474570285
  0
TEXT
  8
_0-d_寸法3
 62
    7
 10
459.18065977017199
 20
197.7567474570285
 40
15
 41
1
 50
0
  1
196
  0
LINE
  8
_0-a_極細3
  6
CENTER1
 62
    7
 10
686.43074817132731
 20
279.9014393579339
 11
255.44333399229842
 21
279.9014393579339
  0
ARC
  8
_0-b_細線3
  6
CONTINUOUS
 62
    7
 10
353.76399310350502
 20
317.70421713571136
 40
46.136111111111113
 50
256.63227178393186
 51
283.36772821606712
  0
ARC
  8
_0-b_細線3
  6
CONTINUOUS
 62
    7
 10
353.76399310350502
 20
242.0986615801562
 40
46.136111111111113
 50
76.632271783932524
 51
103.36772821606777
  0
LINE
  8
_0-b_細線3
  6
CONTINUOUS
 62
    7
 10
348.76399310350479
 20
294.56810602460041
 11
348.76399310350479
 21
296.56810602460041
  0
LINE
  8
_0-b_細線3
  6
CONTINUOUS
 62
    7
 10
343.09732643683833
 20
294.56810602460041
 11
348.76399310350479
 21
294.56810602460041
  0
LINE
  8
_0-b_細線3
  6
CONTINUOUS
 62
    7
 10
343.09732643683833
 20
263.23477269126715
 11
343.09732643683833
 21
294.56810602460041
  0
LINE
  8
_0-b_細線3
  6
CONTINUOUS
 62
    7
 10
341.09732643683827
 20
263.23477269126715
 11
343.09732643683833
 21
263.23477269126715
  0
LINE
  8
_0-b_細線3
  6
CONTINUOUS
 62
    7
 10
341.09732643683827
 20
294.56810602460041
 11
341.09732643683827
 21
263.23477269126715
  0
LINE
  8
_0-b_細線3
  6
CONTINUOUS
 62
    7
 10
335.43065977017181
 20
294.56810602460041
 11
341.09732643683827
 21
294.56810602460041
  0
LINE
  8
_0-b_細線3
  6
CONTINUOUS
 62
    7
 10
335.43065977017181
 20
296.56810602460041
 11
335.43065977017181
 21
294.56810602460041
  0
LINE
  8
_0-b_細線3
  6
CONTINUOUS
 62
    7
 10
348.76399310350479
 20
296.56810602460041
 11
335.43065977017181
 21
296.56810602460041
  0
LINE
  8
_0-b_細線3
  6
CONTINUOUS
 62
    7
 10
465.43065977017199
 20
294.56810602460041
 11
465.43065977017199
 21
296.56810602460041
  0
LINE
  8
_0-b_細線3
  6
CONTINUOUS
 62
    7
 10
459.76399310350502
 20
294.56810602460041
 11
465.43065977017199
 21
294.56810602460041
  0
LINE
  8
_0-b_細線3
  6
CONTINUOUS
 62
    7
 10
459.76399310350502
 20
263.23477269126715
 11
459.76399310350502
 21
294.56810602460041
  0
LINE
  8
_0-b_細線3
  6
CONTINUOUS
 62
    7
 10
457.76399310350507
 20
263.23477269126715
 11
459.76399310350502
 21
263.23477269126715
  0
LINE
  8
_0-b_細線3
  6
CONTINUOUS
 62
    7
 10
457.76399310350507
 20
294.56810602460041
 11
457.76399310350507
 21
263.23477269126715
  0
LINE
  8
_0-b_細線3
  6
CONTINUOUS
 62
    7
 10
452.0973264368381
 20
294.56810602460041
 11
457.76399310350507
 21
294.56810602460041
  0
LINE
  8
_0-b_細線3
  6
CONTINUOUS
 62
    7
 10
452.0973264368381
 20
296.56810602460041
 11
452.0973264368381
 21
294.56810602460041
  0
LINE
  8
_0-b_細線3
  6
CONTINUOUS
 62
    7
 10
465.43065977017199
 20
296.56810602460041
 11
452.0973264368381
 21
296.56810602460041
  0
ARC
  8
_0-b_細線3
  6
CONTINUOUS
 62
    7
 10
517.09732643683856
 20
317.70421713571136
 40
46.136111111111113
 50
256.63227178393151
 51
283.36772821606712
  0
ARC
  8
_0-b_細線3
  6
CONTINUOUS
 62
    7
 10
517.09732643683856
 20
242.0986615801562
 40
46.136111111111113
 50
76.632271783932524
 51
103.36772821606755
  0
LINE
  8
_0-b_細線3
  6
CONTINUOUS
 62
    7
 10
535.43065977017204
 20
294.56810602460041
 11
535.43065977017204
 21
296.56810602460041
  0
LINE
  8
_0-b_細線3
  6
CONTINUOUS
 62
    7
 10
529.76399310350507
 20
294.56810602460041
 11
535.43065977017204
 21
294.56810602460041
  0
LINE
  8
_0-b_細線3
  6
CONTINUOUS
 62
    7
 10
529.76399310350507
 20
263.23477269126715
 11
529.76399310350507
 21
294.56810602460041
  0
LINE
  8
_0-b_細線3
  6
CONTINUOUS
 62
    7
 10
527.76399310350507
 20
263.23477269126715
 11
529.76399310350507
 21
263.23477269126715
  0
LINE
  8
_0-b_細線3
  6
CONTINUOUS
 62
    7
 10
527.76399310350507
 20
294.56810602460041
 11
527.76399310350507
 21
263.23477269126715
  0
LINE
  8
_0-b_細線3
  6
CONTINUOUS
 62
    7
 10
522.09732643683856
 20
294.56810602460041
 11
527.76399310350507
 21
294.56810602460041
  0
LINE
  8
_0-b_細線3
  6
CONTINUOUS
 62
    7
 10
522.09732643683856
 20
296.56810602460041
 11
522.09732643683856
 21
294.56810602460041
  0
LINE
  8
_0-b_細線3
  6
CONTINUOUS
 62
    7
 10
535.43065977017204
 20
296.56810602460041
 11
522.09732643683856
 21
296.56810602460041
  0
ARC
  8
_0-b_細線3
  6
CONTINUOUS
 62
    7
 10
493.76399310350592
 20
317.70421713571136
 40
46.136111111111113
 50
256.63227178393163
 51
283.36772821606712
  0
ARC
  8
_0-b_細線3
  6
CONTINUOUS
 62
    7
 10
493.76399310350592
 20
242.0986615801562
 40
46.136111111111113
 50
76.632271783932524
 51
103.36772821606749
  0
LINE
  8
_0-b_細線3
  6
CONTINUOUS
 62
    7
 10
512.09732643683947
 20
294.56810602460041
 11
512.09732643683947
 21
296.56810602460041
  0
LINE
  8
_0-b_細線3
  6
CONTINUOUS
 62
    7
 10
506.43065977017244
 20
294.56810602460041
 11
512.09732643683947
 21
294.56810602460041
  0
LINE
  8
_0-b_細線3
  6
CONTINUOUS
 62
    7
 10
506.43065977017244
 20
263.23477269126715
 11
506.43065977017244
 21
294.56810602460041
  0
LINE
  8
_0-b_細線3
  6
CONTINUOUS
 62
    7
 10
504.4306597701725
 20
263.23477269126715
 11
506.43065977017244
 21
263.23477269126715
  0
LINE
  8
_0-b_細線3
  6
CONTINUOUS
 62
    7
 10
504.4306597701725
 20
294.56810602460041
 11
504.4306597701725
 21
263.23477269126715
  0
LINE
  8
_0-b_細線3
  6
CONTINUOUS
 62
    7
 10
498.76399310350592
 20
294.56810602460041
 11
504.4306597701725
 21
294.56810602460041
  0
LINE
  8
_0-b_細線3
  6
CONTINUOUS
 62
    7
 10
498.76399310350592
 20
296.56810602460041
 11
498.76399310350592
 21
294.56810602460041
  0
LINE
  8
_0-b_細線3
  6
CONTINUOUS
 62
    7
 10
512.09732643683947
 20
296.56810602460041
 11
498.76399310350592
 21
296.56810602460041
  0
ARC
  8
_0-b_細線3
  6
CONTINUOUS
 62
    7
 10
470.43065977017335
 20
317.70421713571136
 40
46.136111111111113
 50
256.63227178393163
 51
283.36772821606712
  0
ARC
  8
_0-b_細線3
  6
CONTINUOUS
 62
    7
 10
470.43065977017335
 20
242.0986615801562
 40
46.136111111111113
 50
76.632271783932524
 51
103.36772821606803
  0
LINE
  8
_0-b_細線3
  6
CONTINUOUS
 62
    7
 10
488.76399310350683
 20
294.56810602460041
 11
488.76399310350683
 21
296.56810602460041
  0
LINE
  8
_0-b_細線3
  6
CONTINUOUS
 62
    7
 10
483.09732643683986
 20
294.56810602460041
 11
488.76399310350683
 21
294.56810602460041
  0
LINE
  8
_0-b_細線3
  6
CONTINUOUS
 62
    7
 10
483.09732643683986
 20
263.23477269126715
 11
483.09732643683986
 21
294.56810602460041
  0
LINE
  8
_0-b_細線3
  6
CONTINUOUS
 62
    7
 10
481.09732643683992
 20
263.23477269126715
 11
483.09732643683986
 21
263.23477269126715
  0
LINE
  8
_0-b_細線3
  6
CONTINUOUS
 62
    7
 10
481.09732643683992
 20
294.56810602460041
 11
481.09732643683992
 21
263.23477269126715
  0
LINE
  8
_0-b_細線3
  6
CONTINUOUS
 62
    7
 10
475.43065977017335
 20
294.56810602460041
 11
481.09732643683992
 21
294.56810602460041
  0
LINE
  8
_0-b_細線3
  6
CONTINUOUS
 62
    7
 10
475.43065977017335
 20
296.56810602460041
 11
475.43065977017335
 21
294.56810602460041
  0
LINE
  8
_0-b_細線3
  6
CONTINUOUS
 62
    7
 10
488.76399310350683
 20
296.56810602460041
 11
475.43065977017335
 21
296.56810602460041
  0
LINE
  8
_0-d_寸法3
  6
CONTINUOUS
 62
    7
 10
482.09732643684038
 20
306.56810602460041
 11
482.09732643684038
 21
348.23477269126761
  0
LINE
  8
_0-d_寸法3
  6
CONTINUOUS
 62
    7
 10
482.09732643684038
 20
343.23477269126761
 11
491.75658469973098
 21
345.82296314229279
  0
LINE
  8
_0-d_寸法3
  6
CONTINUOUS
 62
    7
 10
482.09732643684038
 20
343.23477269126761
 11
491.75658469973098
 21
340.64658224024242
  0
LINE
  8
_0-d_寸法3
  6
CONTINUOUS
 62
    7
 10
505.43065977017335
 20
306.56810602460041
 11
505.43065977017335
 21
348.23477269126761
  0
LINE
  8
_0-d_寸法3
  6
CONTINUOUS
 62
    7
 10
505.43065977017335
 20
343.23477269126761
 11
495.77140150728269
 21
340.64658224024242
  0
LINE
  8
_0-d_寸法3
  6
CONTINUOUS
 62
    7
 10
505.43065977017335
 20
343.23477269126761
 11
495.77140150728269
 21
345.82296314229291
  0
LINE
  8
_0-d_寸法3
  6
CONTINUOUS
 62
    7
 10
482.09732643684038
 20
343.23477269126761
 11
505.43065977017335
 21
343.23477269126761
  0
TEXT
  8
_0-d_寸法3
 62
    7
 10
486.26399310350683
 20
343.23477269126761
 40
15
 41
1
 50
0
  1
14
  0
LINE
  8
_0-d_寸法3
  6
CONTINUOUS
 62
    7
 10
505.43065977017335
 20
343.23477269126761
 11
515.08991803306401
 21
345.82296314229274
  0
LINE
  8
_0-d_寸法3
  6
CONTINUOUS
 62
    7
 10
505.43065977017335
 20
343.23477269126761
 11
515.08991803306401
 21
340.64658224024237
  0
LINE
  8
_0-d_寸法3
  6
CONTINUOUS
 62
    7
 10
528.76399310350689
 20
306.56810602460041
 11
528.76399310350689
 21
348.23477269126761
  0
LINE
  8
_0-d_寸法3
  6
CONTINUOUS
 62
    7
 10
528.76399310350689
 20
343.23477269126761
 11
519.10473484061617
 21
340.64658224024242
  0
LINE
  8
_0-d_寸法3
  6
CONTINUOUS
 62
    7
 10
528.76399310350689
 20
343.23477269126761
 11
519.10473484061617
 21
345.82296314229291
  0
LINE
  8
_0-d_寸法3
  6
CONTINUOUS
 62
    7
 10
505.43065977017335
 20
343.23477269126761
 11
528.76399310350689
 21
343.23477269126761
  0
TEXT
  8
_0-d_寸法3
 62
    7
 10
509.59732643684043
 20
343.23477269126761
 40
15
 41
1
 50
0
  1
14
  0
ARC
  8
_0-b_細線3
  6
CONTINUOUS
 62
    7
 10
377.09732643683788
 20
317.70421713571136
 40
46.136111111111113
 50
256.63227178393186
 51
283.36772821606712
  0
ARC
  8
_0-b_細線3
  6
CONTINUOUS
 62
    7
 10
377.09732643683788
 20
242.0986615801562
 40
46.136111111111113
 50
76.632271783932524
 51
103.36772821606777
  0
LINE
  8
_0-b_細線3
  6
CONTINUOUS
 62
    7
 10
372.09732643683759
 20
294.56810602460041
 11
372.09732643683759
 21
296.56810602460041
  0
LINE
  8
_0-b_細線3
  6
CONTINUOUS
 62
    7
 10
366.43065977017108
 20
294.56810602460041
 11
372.09732643683759
 21
294.56810602460041
  0
LINE
  8
_0-b_細線3
  6
CONTINUOUS
 62
    7
 10
366.43065977017108
 20
263.23477269126715
 11
366.43065977017108
 21
294.56810602460041
  0
LINE
  8
_0-b_細線3
  6
CONTINUOUS
 62
    7
 10
364.43065977017108
 20
263.23477269126715
 11
366.43065977017108
 21
263.23477269126715
  0
LINE
  8
_0-b_細線3
  6
CONTINUOUS
 62
    7
 10
364.43065977017108
 20
294.56810602460041
 11
364.43065977017108
 21
263.23477269126715
  0
LINE
  8
_0-b_細線3
  6
CONTINUOUS
 62
    7
 10
358.76399310350456
 20
294.56810602460041
 11
364.43065977017108
 21
294.56810602460041
  0
LINE
  8
_0-b_細線3
  6
CONTINUOUS
 62
    7
 10
358.76399310350456
 20
296.56810602460041
 11
358.76399310350456
 21
294.56810602460041
  0
LINE
  8
_0-b_細線3
  6
CONTINUOUS
 62
    7
 10
372.09732643683759
 20
296.56810602460041
 11
358.76399310350456
 21
296.56810602460041
  0
ARC
  8
_0-b_細線3
  6
CONTINUOUS
 62
    7
 10
400.43065977017068
 20
317.70421713571136
 40
46.136111111111113
 50
256.63227178393186
 51
283.36772821606712
  0
ARC
  8
_0-b_細線3
  6
CONTINUOUS
 62
    7
 10
400.43065977017068
 20
242.0986615801562
 40
46.136111111111113
 50
76.632271783932524
 51
103.36772821606777
  0
LINE
  8
_0-b_細線3
  6
CONTINUOUS
 62
    7
 10
395.43065977017045
 20
294.56810602460041
 11
395.43065977017045
 21
296.56810602460041
  0
LINE
  8
_0-b_細線3
  6
CONTINUOUS
 62
    7
 10
389.76399310350388
 20
294.56810602460041
 11
395.43065977017045
 21
294.56810602460041
  0
LINE
  8
_0-b_細線3
  6
CONTINUOUS
 62
    7
 10
389.76399310350388
 20
263.23477269126715
 11
389.76399310350388
 21
294.56810602460041
  0
LINE
  8
_0-b_細線3
  6
CONTINUOUS
 62
    7
 10
387.76399310350394
 20
263.23477269126715
 11
389.76399310350388
 21
263.23477269126715
  0
LINE
  8
_0-b_細線3
  6
CONTINUOUS
 62
    7
 10
387.76399310350394
 20
294.56810602460041
 11
387.76399310350394
 21
263.23477269126715
  0
LINE
  8
_0-b_細線3
  6
CONTINUOUS
 62
    7
 10
382.09732643683736
 20
294.56810602460041
 11
387.76399310350394
 21
294.56810602460041
  0
LINE
  8
_0-b_細線3
  6
CONTINUOUS
 62
    7
 10
382.09732643683736
 20
296.56810602460041
 11
382.09732643683736
 21
294.56810602460041
  0
LINE
  8
_0-b_細線3
  6
CONTINUOUS
 62
    7
 10
395.43065977017045
 20
296.56810602460041
 11
382.09732643683736
 21
296.56810602460041
  0
ARC
  8
_0-b_細線3
  6
CONTINUOUS
 62
    7
 10
423.76399310350325
 20
317.70421713571136
 40
46.136111111111113
 50
256.63227178393214
 51
283.36772821606769
  0
ARC
  8
_0-b_細線3
  6
CONTINUOUS
 62
    7
 10
423.76399310350325
 20
242.0986615801562
 40
46.136111111111113
 50
76.632271783931969
 51
103.36772821606749
  0
LINE
  8
_0-b_細線3
  6
CONTINUOUS
 62
    7
 10
418.76399310350325
 20
294.56810602460041
 11
418.76399310350325
 21
296.56810602460041
  0
LINE
  8
_0-b_細線3
  6
CONTINUOUS
 62
    7
 10
413.09732643683674
 20
294.56810602460041
 11
418.76399310350325
 21
294.56810602460041
  0
LINE
  8
_0-b_細線3
  6
CONTINUOUS
 62
    7
 10
413.09732643683674
 20
263.23477269126715
 11
413.09732643683674
 21
294.56810602460041
  0
LINE
  8
_0-b_細線3
  6
CONTINUOUS
 62
    7
 10
411.09732643683674
 20
263.23477269126715
 11
413.09732643683674
 21
263.23477269126715
  0
LINE
  8
_0-b_細線3
  6
CONTINUOUS
 62
    7
 10
411.09732643683674
 20
294.56810602460041
 11
411.09732643683674
 21
263.23477269126715
  0
LINE
  8
_0-b_細線3
  6
CONTINUOUS
 62
    7
 10
405.43065977017022
 20
294.56810602460041
 11
411.09732643683674
 21
294.56810602460041
  0
LINE
  8
_0-b_細線3
  6
CONTINUOUS
 62
    7
 10
405.43065977017022
 20
296.56810602460041
 11
405.43065977017022
 21
294.56810602460041
  0
LINE
  8
_0-b_細線3
  6
CONTINUOUS
 62
    7
 10
418.76399310350325
 20
296.56810602460041
 11
405.43065977017022
 21
296.56810602460041
  0
ARC
  8
_0-b_細線3
  6
CONTINUOUS
 62
    7
 10
447.09732643683623
 20
317.70421713571136
 40
46.136111111111113
 50
256.63227178393214
 51
283.36772821606712
  0
ARC
  8
_0-b_細線3
  6
CONTINUOUS
 62
    7
 10
447.09732643683623
 20
242.0986615801562
 40
46.136111111111113
 50
76.632271783932524
 51
103.36772821606749
  0
LINE
  8
_0-b_細線3
  6
CONTINUOUS
 62
    7
 10
442.09732643683623
 20
294.56810602460041
 11
442.09732643683623
 21
296.56810602460041
  0
LINE
  8
_0-b_細線3
  6
CONTINUOUS
 62
    7
 10
436.43065977016977
 20
294.56810602460041
 11
442.09732643683623
 21
294.56810602460041
  0
LINE
  8
_0-b_細線3
  6
CONTINUOUS
 62
    7
 10
436.43065977016977
 20
263.23477269126715
 11
436.43065977016977
 21
294.56810602460041
  0
LINE
  8
_0-b_細線3
  6
CONTINUOUS
 62
    7
 10
434.43065977016971
 20
263.23477269126715
 11
436.43065977016977
 21
263.23477269126715
  0
LINE
  8
_0-b_細線3
  6
CONTINUOUS
 62
    7
 10
434.43065977016971
 20
294.56810602460041
 11
434.43065977016971
 21
263.23477269126715
  0
LINE
  8
_0-b_細線3
  6
CONTINUOUS
 62
    7
 10
428.76399310350325
 20
294.56810602460041
 11
434.43065977016971
 21
294.56810602460041
  0
LINE
  8
_0-b_細線3
  6
CONTINUOUS
 62
    7
 10
428.76399310350325
 20
296.56810602460041
 11
428.76399310350325
 21
294.56810602460041
  0
LINE
  8
_0-b_細線3
  6
CONTINUOUS
 62
    7
 10
442.09732643683623
 20
296.56810602460041
 11
428.76399310350325
 21
296.56810602460041
  0
ARC
  8
_0-b_細線3
  6
CONTINUOUS
 62
    7
 10
540.43065977017113
 20
317.70421713571136
 40
46.136111111111113
 50
256.63227178393163
 51
283.36772821606712
  0
ARC
  8
_0-b_細線3
  6
CONTINUOUS
 62
    7
 10
540.43065977017113
 20
242.0986615801562
 40
46.136111111111113
 50
76.632271783932524
 51
103.36772821606749
  0
LINE
  8
_0-b_細線3
  6
CONTINUOUS
 62
    7
 10
558.76399310350462
 20
294.56810602460041
 11
558.76399310350462
 21
296.56810602460041
  0
LINE
  8
_0-b_細線3
  6
CONTINUOUS
 62
    7
 10
553.09732643683765
 20
294.56810602460041
 11
558.76399310350462
 21
294.56810602460041
  0
LINE
  8
_0-b_細線3
  6
CONTINUOUS
 62
    7
 10
553.09732643683765
 20
263.23477269126715
 11
553.09732643683765
 21
294.56810602460041
  0
LINE
  8
_0-b_細線3
  6
CONTINUOUS
 62
    7
 10
551.09732643683765
 20
263.23477269126715
 11
553.09732643683765
 21
263.23477269126715
  0
LINE
  8
_0-b_細線3
  6
CONTINUOUS
 62
    7
 10
551.09732643683765
 20
294.56810602460041
 11
551.09732643683765
 21
263.23477269126715
  0
LINE
  8
_0-b_細線3
  6
CONTINUOUS
 62
    7
 10
545.43065977017113
 20
294.56810602460041
 11
551.09732643683765
 21
294.56810602460041
  0
LINE
  8
_0-b_細線3
  6
CONTINUOUS
 62
    7
 10
545.43065977017113
 20
296.56810602460041
 11
545.43065977017113
 21
294.56810602460041
  0
LINE
  8
_0-b_細線3
  6
CONTINUOUS
 62
    7
 10
558.76399310350462
 20
296.56810602460041
 11
545.43065977017113
 21
296.56810602460041
  0
LINE
  8
_0-d_寸法3
  6
CONTINUOUS
 62
    7
 10
405.43065977016954
 20
306.56810602460041
 11
405.43065977016954
 21
348.23477269126761
  0
LINE
  8
_0-d_寸法3
  6
CONTINUOUS
 62
    7
 10
405.43065977016954
 20
343.23477269126761
 11
395.77140150727877
 21
340.64658224024242
  0
LINE
  8
_0-d_寸法3
  6
CONTINUOUS
 62
    7
 10
405.43065977016954
 20
343.23477269126761
 11
395.77140150727882
 21
345.82296314229291
  0
LINE
  8
_0-d_寸法3
  6
CONTINUOUS
 62
    7
 10
418.76399310350286
 20
306.56810602460041
 11
418.76399310350331
 21
348.23477269126761
  0
CIRCLE
  8
_0-d_寸法3
  6
CONTINUOUS
 62
    1
 10
418.76399310350325
 20
343.23477269126761
 40
1.5000000000000002
  0
LINE
  8
_0-d_寸法3
  6
CONTINUOUS
 62
    7
 10
380.43065977016954
 20
343.23477269126761
 11
418.76399310350325
 21
343.23477269126761
  0
TEXT
  8
_0-d_寸法3
 62
    7
 10
388.00664380479333
 20
343.23477269126761
 40
15
 41
1
 50
0
  1
8
  0
LINE
  8
_0-d_寸法3
  6
CONTINUOUS
 62
    7
 10
428.7639931035028
 20
306.56810602460041
 11
428.7639931035028
 21
348.23477269126761
  0
LINE
  8
_0-d_寸法3
  6
CONTINUOUS
 62
    7
 10
428.7639931035028
 20
343.23477269126761
 11
438.42325136639346
 21
345.82296314229274
  0
LINE
  8
_0-d_寸法3
  6
CONTINUOUS
 62
    7
 10
428.7639931035028
 20
343.23477269126761
 11
438.42325136639346
 21
340.64658224024237
  0
LINE
  8
_0-d_寸法3
  6
CONTINUOUS
 62
    7
 10
418.76399310350325
 20
343.23477269126761
 11
453.7639931035028
 21
343.23477269126761
  0
TEXT
  8
_0-d_寸法3
 62
    7
 10
435.05586191178821
 20
343.23477269126761
 40
15
 41
1
 50
0
  1
6
  0
ARC
  8
_0-b_細線3
  6
CONTINUOUS
 62
    7
 10
563.76399310350371
 20
317.70421713571136
 40
46.136111111111113
 50
256.63227178393163
 51
283.36772821606712
  0
ARC
  8
_0-b_細線3
  6
CONTINUOUS
 62
    7
 10
563.76399310350371
 20
242.0986615801562
 40
46.136111111111113
 50
76.632271783932524
 51
103.36772821606749
  0
LINE
  8
_0-b_細線3
  6
CONTINUOUS
 62
    7
 10
582.09732643683719
 20
294.56810602460041
 11
582.09732643683719
 21
296.56810602460041
  0
LINE
  8
_0-b_細線3
  6
CONTINUOUS
 62
    7
 10
576.43065977017022
 20
294.56810602460041
 11
582.09732643683719
 21
294.56810602460041
  0
LINE
  8
_0-b_細線3
  6
CONTINUOUS
 62
    7
 10
576.43065977017022
 20
263.23477269126715
 11
576.43065977017022
 21
294.56810602460041
  0
LINE
  8
_0-b_細線3
  6
CONTINUOUS
 62
    7
 10
574.43065977017022
 20
263.23477269126715
 11
576.43065977017022
 21
263.23477269126715
  0
LINE
  8
_0-b_細線3
  6
CONTINUOUS
 62
    7
 10
574.43065977017022
 20
294.56810602460041
 11
574.43065977017022
 21
263.23477269126715
  0
LINE
  8
_0-b_細線3
  6
CONTINUOUS
 62
    7
 10
568.76399310350371
 20
294.56810602460041
 11
574.43065977017022
 21
294.56810602460041
  0
LINE
  8
_0-b_細線3
  6
CONTINUOUS
 62
    7
 10
568.76399310350371
 20
296.56810602460041
 11
568.76399310350371
 21
294.56810602460041
  0
LINE
  8
_0-b_細線3
  6
CONTINUOUS
 62
    7
 10
582.09732643683719
 20
296.56810602460041
 11
568.76399310350371
 21
296.56810602460041
  0
ARC
  8
_0-b_細線3
  6
CONTINUOUS
 62
    7
 10
587.09732643683628
 20
317.70421713571136
 40
46.136111111111113
 50
256.63227178393163
 51
283.36772821606712
  0
ARC
  8
_0-b_細線3
  6
CONTINUOUS
 62
    7
 10
587.09732643683628
 20
242.0986615801562
 40
46.136111111111113
 50
76.632271783932524
 51
103.36772821606749
  0
LINE
  8
_0-b_細線3
  6
CONTINUOUS
 62
    7
 10
605.43065977016977
 20
294.56810602460041
 11
605.43065977016977
 21
296.56810602460041
  0
LINE
  8
_0-b_細線3
  6
CONTINUOUS
 62
    7
 10
599.7639931035028
 20
294.56810602460041
 11
605.43065977016977
 21
294.56810602460041
  0
LINE
  8
_0-b_細線3
  6
CONTINUOUS
 62
    7
 10
599.7639931035028
 20
263.23477269126715
 11
599.7639931035028
 21
294.56810602460041
  0
LINE
  8
_0-b_細線3
  6
CONTINUOUS
 62
    7
 10
597.7639931035028
 20
263.23477269126715
 11
599.7639931035028
 21
263.23477269126715
  0
LINE
  8
_0-b_細線3
  6
CONTINUOUS
 62
    7
 10
597.7639931035028
 20
294.56810602460041
 11
597.7639931035028
 21
263.23477269126715
  0
LINE
  8
_0-b_細線3
  6
CONTINUOUS
 62
    7
 10
592.09732643683628
 20
294.56810602460041
 11
597.7639931035028
 21
294.56810602460041
  0
LINE
  8
_0-b_細線3
  6
CONTINUOUS
 62
    7
 10
592.09732643683628
 20
296.56810602460041
 11
592.09732643683628
 21
294.56810602460041
  0
LINE
  8
_0-b_細線3
  6
CONTINUOUS
 62
    7
 10
605.43065977016977
 20
296.56810602460041
 11
592.09732643683628
 21
296.56810602460041
  0
LINE
  8
_0-d_寸法3
  6
CONTINUOUS
 62
    7
 10
464.59732643686721
 20
268.56169339576803
 11
449.1664961519964
 21
295.28867545213666
  0
LINE
  8
_0-d_寸法3
  6
CONTINUOUS
 62
    7
 10
451.6664961519964
 20
290.95854843321445
 11
449.07830570097121
 21
300.61780669610516
  0
LINE
  8
_0-d_寸法3
  6
CONTINUOUS
 62
    7
 10
451.6664961519964
 20
290.95854843321445
 11
454.25468660302158
 21
300.61780669610516
  0
LINE
  8
_0-d_寸法3
  6
CONTINUOUS
 62
    7
 10
464.59732643686721
 20
301.89502672911152
 11
449.1664961519964
 21
328.62200878548015
  0
LINE
  8
_0-d_寸法3
  6
CONTINUOUS
 62
    7
 10
451.6664961519964
 20
324.29188176655794
 11
454.25468660302158
 21
314.63262350366728
  0
LINE
  8
_0-d_寸法3
  6
CONTINUOUS
 62
    7
 10
451.6664961519964
 20
324.29188176655794
 11
449.07830570097121
 21
314.63262350366728
  0
LINE
  8
_0-d_寸法3
  6
CONTINUOUS
 62
    7
 10
451.6664961519964
 20
290.95854843321445
 11
451.6664961519964
 21
324.29188176655794
  0
TEXT
  8
_0-d_寸法3
 62
    7
 10
451.6664961519964
 20
300.76456652741331
 40
15
 41
1
 50
90
  1
20
  0
LINE
  8
_0-7_枠細線
  6
CONTINUOUS
 62
    5
 10
1139.4018171150183
 20
373.42884000293418
 11
1139.4018171150183
 21
453.42884000293418
  0
LINE
  8
_0-7_枠細線
  6
CONTINUOUS
 62
    5
 10
1229.4018171150183
 20
373.42884000293418
 11
1229.4018171150183
 21
453.42884000293418
  0
TEXT
  8
_0-7_枠細線
 62
    5
 10
1251.9018171150183
 20
430.92884000293418
 40
15
 41
1
 50
0
  1
蓋重量
  0
LINE
  8
_0-7_枠細線
  6
CONTINUOUS
 62
    5
 10
1319.4018171150183
 20
373.42884000293418
 11
1319.4018171150183
 21
453.42884000293418
  0
TEXT
  8
_0-7_枠細線
 62
    5
 10
1341.9018171150183
 20
430.92884000293418
 40
15
 41
1
 50
0
  1
枠重量
  0
LINE
  8
_0-7_枠細線
  6
CONTINUOUS
 62
    5
 10
1139.4018171150183
 20
423.42884000293418
 11
1409.4018171150183
 21
423.42884000293418
  0
LINE
  8
_0-7_枠細線
  6
CONTINUOUS
 62
    5
 10
1139.4018171150183
 20
453.42884000293418
 11
1409.4018171150183
 21
453.42884000293418
  0
LINE
  8
_0-7_枠細線
  6
CONTINUOUS
 62
    5
 10
1139.4018171150183
 20
373.42884000293418
 11
1409.4018171150183
 21
373.42884000293418
  0
LINE
  8
_0-7_枠細線
  6
CONTINUOUS
 62
    5
 10
1409.4018171150183
 20
373.42884000293418
 11
1409.4018171150183
 21
453.42884000293418
  0
TEXT
  8
_0-7_枠細線
 62
    5
 10
1154.4018171150183
 20
430.92884000293418
 40
15
 41
1
 50
0
  1
適用荷重
  0
TEXT
  8
_0-7_枠細線
 62
    5
 10
1161.9018171150183
 20
400.92884000293418
 40
15
 41
1
 50
0
  1
歩道用
  0
TEXT
  8
_0-7_枠細線
 62
    5
 10
1139.4018171150183
 20
380.92884000293418
 40
15
 41
1
 50
0
  1
（5.0kN/㎡）
  0
TEXT
  8
_0-7_枠細線
 62
    5
 10
1250.4018171150187
 20
392.17884000293418
 40
15
 41
0.8000000000000001
 50
0
  1
2.7kg/枚
  0
TEXT
  8
_0-7_枠細線
 62
    5
 10
1334.4018171150183
 20
392.17884000293418
 40
15
 41
0.8000000000000001
 50
0
  1
2.4kg/ｍ組
  0
LINE
  8
_0-1_計細線
  6
CONTINUOUS
 62
    3
 10
978.43374982800765
 20
717.68176632391726
 11
978.43374982800765
 21
711.68176632391737
  0
LINE
  8
_0-1_計細線
  6
CONTINUOUS
 62
    3
 10
978.43374982800765
 20
704.68176632391737
 11
978.43374982800765
 21
698.68176632391726
  0
LINE
  8
_0-1_計細線
  6
CONTINUOUS
 62
    3
 10
978.43374982800765
 20
691.68176632391737
 11
978.43374982800765
 21
685.68176632391726
  0
LINE
  8
_0-1_計細線
  6
CONTINUOUS
 62
    3
 10
978.43374982800765
 20
678.68176632391726
 11
978.43374982800765
 21
672.68176632391726
  0
LINE
  8
_0-1_計細線
  6
CONTINUOUS
 62
    3
 10
978.43374982800765
 20
665.68176632391726
 11
978.43374982800765
 21
659.68176632391737
  0
LINE
  8
_0-1_計細線
  6
CONTINUOUS
 62
    3
 10
978.43374982800765
 20
652.68176632391726
 11
978.43374982800765
 21
646.68176632391737
  0
LINE
  8
_0-0_計極細
  6
CENTER2
 62
    2
 10
284.53432974186694
 20
656.18176632391726
 11
1169.3550704826077
 21
656.18176632391726
  0
LINE
  8
_0-1_計細線
  6
CONTINUOUS
 62
    3
 10
1164.9337498280074
 20
784.18176632391737
 11
284.93374982800816
 21
784.18176632391737
  0
ARC
  8
_0-1_計細線
  6
CONTINUOUS
 62
    3
 10
1151.8712498280258
 20
776.68176632391919
 40
15.062499999984542
 50
330.13716564368326
 51
29.862834356304496
  0
ARC
  8
_0-1_計細線
  6
CONTINUOUS
 62
    3
 10
1177.9962498280258
 20
761.68176632391908
 40
15.062500000017272
 50
150.1371656437658
 51
209.86283435624543
  0
LINE
  8
_0-5_寸法線
  6
CONTINUOUS
 62
    7
 10
475.4337498280081
 20
794.18176632391589
 11
475.4337498280081
 21
874.18176632391737
  0
LINE
  8
_0-5_寸法線
  6
CONTINUOUS
 62
    7
 10
475.4337498280081
 20
869.18176632391737
 11
485.09300809089882
 21
871.76995677494244
  0
LINE
  8
_0-5_寸法線
  6
CONTINUOUS
 62
    7
 10
475.4337498280081
 20
869.18176632391737
 11
485.09300809089882
 21
866.59357587289207
  0
LINE
  8
_0-5_寸法線
  6
CONTINUOUS
 62
    7
 10
974.43374982800776
 20
794.18176632391589
 11
974.43374982800822
 21
874.18176632391737
  0
LINE
  8
_0-5_寸法線
  6
CONTINUOUS
 62
    7
 10
974.43374982800822
 20
869.18176632391737
 11
964.77449156511739
 21
866.59357587289207
  0
LINE
  8
_0-5_寸法線
  6
CONTINUOUS
 62
    7
 10
974.43374982800822
 20
869.18176632391737
 11
964.77449156511739
 21
871.76995677494244
  0
LINE
  8
_0-5_寸法線
  6
CONTINUOUS
 62
    7
 10
475.4337498280081
 20
869.18176632391737
 11
974.43374982800822
 21
869.18176632391737
  0
TEXT
  8
_0-5_寸法線
 62
    7
 10
713.6837498280081
 20
869.18176632391737
 40
15
 41
1
 50
0
  1
499
  0
LINE
  8
_0-5_寸法線
  6
CONTINUOUS
 62
    7
 10
475.43374982800771
 20
794.18176632391737
 11
475.43374982800771
 21
839.18176632391737
  0
LINE
  8
_0-5_寸法線
  6
CONTINUOUS
 62
    7
 10
475.43374982800771
 20
834.18176632391737
 11
485.09300809089837
 21
836.76995677494244
  0
LINE
  8
_0-5_寸法線
  6
CONTINUOUS
 62
    7
 10
475.43374982800771
 20
834.18176632391737
 11
485.09300809089837
 21
831.59357587289207
  0
LINE
  8
_0-5_寸法線
  6
CONTINUOUS
 62
    7
 10
574.93374982800765
 20
794.18176632391737
 11
574.93374982800765
 21
839.18176632391737
  0
LINE
  8
_0-5_寸法線
  6
CONTINUOUS
 62
    7
 10
574.93374982800765
 20
834.18176632391737
 11
565.27449156511693
 21
831.59357587289207
  0
LINE
  8
_0-5_寸法線
  6
CONTINUOUS
 62
    7
 10
574.93374982800765
 20
834.18176632391737
 11
565.27449156511693
 21
836.76995677494244
  0
LINE
  8
_0-5_寸法線
  6
CONTINUOUS
 62
    7
 10
475.43374982800771
 20
834.18176632391737
 11
574.93374982800765
 21
834.18176632391737
  0
TEXT
  8
_0-5_寸法線
 62
    7
 10
510.18374982800765
 20
834.18176632391737
 40
15
 41
1
 50
0
  1
99.5
  0
LINE
  8
_0-5_寸法線
  6
CONTINUOUS
 62
    7
 10
574.93374982800765
 20
834.18176632391737
 11
584.59300809089837
 21
836.76995677494244
  0
LINE
  8
_0-5_寸法線
  6
CONTINUOUS
 62
    7
 10
574.93374982800765
 20
834.18176632391737
 11
584.59300809089837
 21
831.59357587289207
  0
LINE
  8
_0-5_寸法線
  6
CONTINUOUS
 62
    7
 10
674.93374982800776
 20
794.18176632391737
 11
674.93374982800776
 21
839.18176632391737
  0
LINE
  8
_0-5_寸法線
  6
CONTINUOUS
 62
    7
 10
674.93374982800776
 20
834.18176632391737
 11
665.27449156511693
 21
831.59357587289207
  0
LINE
  8
_0-5_寸法線
  6
CONTINUOUS
 62
    7
 10
674.93374982800776
 20
834.18176632391737
 11
665.27449156511693
 21
836.76995677494244
  0
LINE
  8
_0-5_寸法線
  6
CONTINUOUS
 62
    7
 10
574.93374982800765
 20
834.18176632391737
 11
674.93374982800776
 21
834.18176632391737
  0
TEXT
  8
_0-5_寸法線
 62
    7
 10
613.6837498280081
 20
834.18176632391737
 40
15
 41
1
 50
0
  1
100
  0
LINE
  8
_0-5_寸法線
  6
CONTINUOUS
 62
    7
 10
674.93374982800776
 20
834.18176632391737
 11
684.59300809089837
 21
836.76995677494244
  0
LINE
  8
_0-5_寸法線
  6
CONTINUOUS
 62
    7
 10
674.93374982800776
 20
834.18176632391737
 11
684.59300809089837
 21
831.59357587289207
  0
LINE
  8
_0-5_寸法線
  6
CONTINUOUS
 62
    7
 10
774.93374982800776
 20
794.18176632391737
 11
774.93374982800776
 21
839.18176632391737
  0
LINE
  8
_0-5_寸法線
  6
CONTINUOUS
 62
    7
 10
774.93374982800776
 20
834.18176632391737
 11
765.27449156511693
 21
831.59357587289207
  0
LINE
  8
_0-5_寸法線
  6
CONTINUOUS
 62
    7
 10
774.93374982800776
 20
834.18176632391737
 11
765.27449156511693
 21
836.76995677494244
  0
LINE
  8
_0-5_寸法線
  6
CONTINUOUS
 62
    7
 10
674.93374982800776
 20
834.18176632391737
 11
774.93374982800776
 21
834.18176632391737
  0
TEXT
  8
_0-5_寸法線
 62
    7
 10
713.68374982800776
 20
834.18176632391737
 40
15
 41
1
 50
0
  1
100
  0
LINE
  8
_0-5_寸法線
  6
CONTINUOUS
 62
    7
 10
774.93374982800776
 20
834.18176632391737
 11
784.59300809089837
 21
836.76995677494244
  0
LINE
  8
_0-5_寸法線
  6
CONTINUOUS
 62
    7
 10
774.93374982800776
 20
834.18176632391737
 11
784.59300809089837
 21
831.59357587289207
  0
LINE
  8
_0-5_寸法線
  6
CONTINUOUS
 62
    7
 10
874.93374982800776
 20
794.18176632391737
 11
874.93374982800776
 21
839.18176632391737
  0
LINE
  8
_0-5_寸法線
  6
CONTINUOUS
 62
    7
 10
874.93374982800776
 20
834.18176632391737
 11
865.27449156511693
 21
831.59357587289207
  0
LINE
  8
_0-5_寸法線
  6
CONTINUOUS
 62
    7
 10
874.93374982800776
 20
834.18176632391737
 11
865.27449156511693
 21
836.76995677494244
  0
LINE
  8
_0-5_寸法線
  6
CONTINUOUS
 62
    7
 10
774.93374982800776
 20
834.18176632391737
 11
874.93374982800776
 21
834.18176632391737
  0
TEXT
  8
_0-5_寸法線
 62
    7
 10
813.68374982800776
 20
834.18176632391737
 40
15
 41
1
 50
0
  1
100
  0
LINE
  8
_0-5_寸法線
  6
CONTINUOUS
 62
    7
 10
874.93374982800776
 20
834.18176632391737
 11
884.59300809089837
 21
836.76995677494244
  0
LINE
  8
_0-5_寸法線
  6
CONTINUOUS
 62
    7
 10
874.93374982800776
 20
834.18176632391737
 11
884.59300809089837
 21
831.59357587289207
  0
LINE
  8
_0-5_寸法線
  6
CONTINUOUS
 62
    7
 10
974.43374982800822
 20
794.18176632391737
 11
974.43374982800822
 21
839.18176632391737
  0
LINE
  8
_0-5_寸法線
  6
CONTINUOUS
 62
    7
 10
974.43374982800822
 20
834.18176632391737
 11
964.77449156511739
 21
831.59357587289207
  0
LINE
  8
_0-5_寸法線
  6
CONTINUOUS
 62
    7
 10
974.43374982800822
 20
834.18176632391737
 11
964.77449156511739
 21
836.76995677494244
  0
LINE
  8
_0-5_寸法線
  6
CONTINUOUS
 62
    7
 10
874.93374982800776
 20
834.18176632391737
 11
974.43374982800822
 21
834.18176632391737
  0
TEXT
  8
_0-5_寸法線
 62
    7
 10
909.6837498280081
 20
834.18176632391737
 40
15
 41
1
 50
0
  1
99.5
  0
LINE
  8
_0-0_計極細
  6
CONTINUOUS
 62
    2
 10
1122.8921871042701
 20
656.18176632391726
 11
1122.9838351684464
 21
656.61905675608432
  0
LINE
  8
_0-0_計極細
  6
CONTINUOUS
 62
    2
 10
1122.9838351684464
 20
656.61905675608432
 11
1123.2562023459382
 21
657.91898361380777
  0
LINE
  8
_0-0_計極細
  6
CONTINUOUS
 62
    2
 10
1123.2562023459382
 20
657.91898361380777
 11
1123.7011939815238
 21
660.04594767841343
  0
LINE
  8
_0-0_計極細
  6
CONTINUOUS
 62
    2
 10
1123.7011939815238
 20
660.04594767841343
 11
1124.3042704956629
 21
662.94142333145078
  0
LINE
  8
_0-0_計極細
  6
CONTINUOUS
 62
    2
 10
1124.3042704956629
 20
662.94142333145078
 11
1125.0434002577913
 21
666.5252498163419
  0
LINE
  8
_0-0_計極細
  6
CONTINUOUS
 62
    2
 10
1125.0434002577913
 20
666.5252498163419
 11
1125.8884883726998
 21
670.69757004831422
  0
LINE
  8
_0-0_計極細
  6
CONTINUOUS
 62
    2
 10
1125.8884883726998
 20
670.69757004831422
 11
1126.8018523345211
 21
675.34148147764131
  0
LINE
  8
_0-0_計極細
  6
CONTINUOUS
 62
    2
 10
1126.8018523345211
 20
675.34148147764131
 11
1127.7401116895903
 21
680.32640704363371
  0
LINE
  8
_0-0_計極細
  6
CONTINUOUS
 62
    2
 10
1127.7401116895903
 20
680.32640704363371
 11
1128.6575212208622
 21
685.51211140192765
  0
LINE
  8
_0-0_計極細
  6
CONTINUOUS
 62
    2
 10
1128.6575212208622
 20
685.51211140192765
 11
1129.5103878986513
 21
690.75319604858601
  0
LINE
  8
_0-0_計極細
  6
CONTINUOUS
 62
    2
 10
1129.5103878986513
 20
690.75319604858601
 11
1130.261870164737
 21
695.90382792881542
  0
LINE
  8
_0-0_計極細
  6
CONTINUOUS
 62
    2
 10
1130.261870164737
 20
695.90382792881542
 11
1130.8862557832433
 21
700.82240918588286
  0
LINE
  8
_0-0_計極細
  6
CONTINUOUS
 62
    2
 10
1130.8862557832433
 20
700.82240918588286
 11
1131.3718126267345
 21
705.3758939107347
  0
LINE
  8
_0-0_計極細
  6
CONTINUOUS
 62
    2
 10
1131.3718126267345
 20
705.3758939107347
 11
1131.7215197809282
 21
709.44350417922578
  0
LINE
  8
_0-0_計極細
  6
CONTINUOUS
 62
    2
 10
1131.7215197809282
 20
709.44350417922578
 11
1131.9513769536779
 21
712.91968439091579
  0
LINE
  8
_0-0_計極細
  6
CONTINUOUS
 62
    2
 10
1131.9513769536779
 20
712.91968439091579
 11
1132.086476837012
 21
715.71624260503722
  0
LINE
  8
_0-0_計極細
  6
CONTINUOUS
 62
    2
 10
1132.086476837012
 20
715.71624260503722
 11
1132.1555003297206
 21
717.76373730438104
  0
LINE
  8
_0-0_計極細
  6
CONTINUOUS
 62
    2
 10
1132.1555003297206
 20
717.76373730438104
 11
1132.1846498342893
 21
719.01225460931732
  0
LINE
  8
_0-0_計極細
  6
CONTINUOUS
 62
    2
 10
1132.1846498342893
 20
719.01225460931732
 11
1132.1921871042696
 21
719.43176632391726
  0
LINE
  8
_0-0_計極細
  6
CONTINUOUS
 62
    2
 10
1132.1921871042696
 20
719.43176632391726
 11
1132.1985719615759
 21
719.85103445004984
  0
LINE
  8
_0-0_計極細
  6
CONTINUOUS
 62
    2
 10
1132.1985719615759
 20
719.85103445004984
 11
1132.2108090795268
 21
721.09597693979208
  0
LINE
  8
_0-0_計極細
  6
CONTINUOUS
 62
    2
 10
1132.2108090795268
 20
721.09597693979208
 11
1132.2095077853965
 21
723.12860690583818
  0
LINE
  8
_0-0_計極細
  6
CONTINUOUS
 62
    2
 10
1132.2095077853965
 20
723.12860690583818
 11
1132.1666183916593
 21
725.88754306303758
  0
LINE
  8
_0-0_計極細
  6
CONTINUOUS
 62
    2
 10
1132.1666183916593
 20
725.88754306303758
 11
1132.0509447377442
 21
729.29068752424268
  0
LINE
  8
_0-0_計極細
  6
CONTINUOUS
 62
    2
 10
1132.0509447377442
 20
729.29068752424268
 11
1131.8342795028834
 21
733.23858218620558
  0
LINE
  8
_0-0_計極細
  6
CONTINUOUS
 62
    2
 10
1131.8342795028834
 20
733.23858218620558
 11
1131.4969939424784
 21
737.61814056972526
  0
LINE
  8
_0-0_計極細
  6
CONTINUOUS
 62
    2
 10
1131.4969939424784
 20
737.61814056972526
 11
1131.0320645167233
 21
742.30647046965646
  0
LINE
  8
_0-0_計極細
  6
CONTINUOUS
 62
    2
 10
1131.0320645167233
 20
742.30647046965646
 11
1130.4468738037867
 21
747.17456630203765
  0
LINE
  8
_0-0_計極細
  6
CONTINUOUS
 62
    2
 10
1130.4468738037867
 20
747.17456630203765
 11
1129.7625980394646
 21
752.0907411484759
  0
LINE
  8
_0-0_計極細
  6
CONTINUOUS
 62
    2
 10
1129.7625980394646
 20
752.0907411484759
 11
1129.0114800613419
 21
756.92376450279301
  0
LINE
  8
_0-0_計極細
  6
CONTINUOUS
 62
    2
 10
1129.0114800613419
 20
756.92376450279301
 11
1128.2326768990238
 21
761.54575009379914
  0
LINE
  8
_0-0_計極細
  6
CONTINUOUS
 62
    2
 10
1128.2326768990238
 20
761.54575009379914
 11
1127.4675842202885
 21
765.83488177284323
  0
LINE
  8
_0-0_計極細
  6
CONTINUOUS
 62
    2
 10
1127.4675842202885
 20
765.83488177284323
 11
1126.7555380247127
 21
769.67806647132488
  0
LINE
  8
_0-0_計極細
  6
CONTINUOUS
 62
    2
 10
1126.7555380247127
 20
769.67806647132488
 11
1126.1305917814191
 21
772.97356465932899
  0
LINE
  8
_0-0_計極細
  6
CONTINUOUS
 62
    2
 10
1126.1305917814191
 20
772.97356465932899
 11
1125.619725756877
 21
775.63358337761258
  0
LINE
  8
_0-0_計極細
  6
CONTINUOUS
 62
    2
 10
1125.619725756877
 20
775.63358337761258
 11
1125.242456319869
 21
777.58674397839684
  0
LINE
  8
_0-0_計極細
  6
CONTINUOUS
 62
    2
 10
1125.242456319869
 20
777.58674397839684
 11
1125.0114757648973
 21
778.78027691535181
  0
LINE
  8
_0-0_計極細
  6
CONTINUOUS
 62
    2
 10
1125.0114757648973
 20
778.78027691535181
 11
1124.9337498280079
 21
779.18176632391737
  0
LINE
  8
_0-1_計細線
  6
CONTINUOUS
 62
    3
 10
978.43374982800765
 20
779.18176632391737
 11
978.43374982800765
 21
773.18176632391726
  0
LINE
  8
_0-1_計細線
  6
CONTINUOUS
 62
    3
 10
978.43374982800765
 20
766.18176632391726
 11
978.43374982800765
 21
760.18176632391726
  0
LINE
  8
_0-1_計細線
  6
CONTINUOUS
 62
    3
 10
978.43374982800765
 20
753.18176632391726
 11
978.43374982800765
 21
747.18176632391737
  0
LINE
  8
_0-1_計細線
  6
CONTINUOUS
 62
    3
 10
978.43374982800765
 20
740.18176632391726
 11
978.43374982800765
 21
734.18176632391737
  0
LINE
  8
_0-1_計細線
  6
CONTINUOUS
 62
    3
 10
978.43374982800765
 20
727.18176632391737
 11
978.43374982800765
 21
721.18176632391726
  0
LINE
  8
_0-1_計細線
  6
CONTINUOUS
 62
    3
 10
1164.9337498280074
 20
754.18176632391737
 11
1129.1774635965619
 21
754.18176632391737
  0
ARC
  8
_0-1_計細線
  6
CONTINUOUS
 62
    3
 10
297.99624982798974
 20
776.68176632391919
 40
15.062499999984542
 50
150.13716564369517
 51
209.86283435631648
  0
ARC
  8
_0-1_計細線
  6
CONTINUOUS
 62
    3
 10
271.87124982798969
 20
761.68176632391908
 40
15.062500000017272
 50
330.13716564375426
 51
29.862834356232998
  0
LINE
  8
_0-0_計極細
  6
CONTINUOUS
 62
    2
 10
326.97531255174567
 20
656.18176632391726
 11
326.88366448756932
 21
656.61905675608432
  0
LINE
  8
_0-0_計極細
  6
CONTINUOUS
 62
    2
 10
326.88366448756932
 20
656.61905675608432
 11
326.6112973100777
 21
657.91898361380777
  0
LINE
  8
_0-0_計極細
  6
CONTINUOUS
 62
    2
 10
326.6112973100777
 20
657.91898361380777
 11
326.16630567449187
 21
660.04594767841343
  0
LINE
  8
_0-0_計極細
  6
CONTINUOUS
 62
    2
 10
326.16630567449187
 20
660.04594767841343
 11
325.56322916035322
 21
662.94142333145078
  0
LINE
  8
_0-0_計極細
  6
CONTINUOUS
 62
    2
 10
325.56322916035322
 20
662.94142333145078
 11
324.82409939822446
 21
666.5252498163419
  0
LINE
  8
_0-0_計極細
  6
CONTINUOUS
 62
    2
 10
324.82409939822446
 20
666.5252498163419
 11
323.97901128331591
 21
670.69757004831422
  0
LINE
  8
_0-0_計極細
  6
CONTINUOUS
 62
    2
 10
323.97901128331591
 20
670.69757004831422
 11
323.06564732149462
 21
675.34148147764131
  0
LINE
  8
_0-0_計極細
  6
CONTINUOUS
 62
    2
 10
323.06564732149462
 20
675.34148147764131
 11
322.12738796642532
 21
680.32640704363371
  0
LINE
  8
_0-0_計極細
  6
CONTINUOUS
 62
    2
 10
322.12738796642532
 20
680.32640704363371
 11
321.20997843515335
 21
685.51211140192765
  0
LINE
  8
_0-0_計極細
  6
CONTINUOUS
 62
    2
 10
321.20997843515335
 20
685.51211140192765
 11
320.35711175736418
 21
690.75319604858601
  0
LINE
  8
_0-0_計極細
  6
CONTINUOUS
 62
    2
 10
320.35711175736418
 20
690.75319604858601
 11
319.60562949127853
 21
695.90382792881542
  0
LINE
  8
_0-0_計極細
  6
CONTINUOUS
 62
    2
 10
319.60562949127853
 20
695.90382792881542
 11
318.98124387277221
 21
700.82240918588286
  0
LINE
  8
_0-0_計極細
  6
CONTINUOUS
 62
    2
 10
318.98124387277221
 20
700.82240918588286
 11
318.4956870292811
 21
705.3758939107347
  0
LINE
  8
_0-0_計極細
  6
CONTINUOUS
 62
    2
 10
318.4956870292811
 20
705.3758939107347
 11
318.14597987508751
 21
709.44350417922578
  0
LINE
  8
_0-0_計極細
  6
CONTINUOUS
 62
    2
 10
318.14597987508751
 20
709.44350417922578
 11
317.91612270233742
 21
712.91968439091579
  0
LINE
  8
_0-0_計極細
  6
CONTINUOUS
 62
    2
 10
317.91612270233742
 20
712.91968439091579
 11
317.78102281900351
 21
715.71624260503722
  0
LINE
  8
_0-0_計極細
  6
CONTINUOUS
 62
    2
 10
317.78102281900351
 20
715.71624260503722
 11
317.71199932629514
 21
717.76373730438104
  0
LINE
  8
_0-0_計極細
  6
CONTINUOUS
 62
    2
 10
317.71199932629514
 20
717.76373730438104
 11
317.68284982172634
 21
719.01225460931732
  0
LINE
  8
_0-0_計極細
  6
CONTINUOUS
 62
    2
 10
317.68284982172634
 20
719.01225460931732
 11
317.67531255174572
 21
719.43176632391726
  0
LINE
  8
_0-0_計極細
  6
CONTINUOUS
 62
    2
 10
317.67531255174572
 20
719.43176632391726
 11
317.66892769443962
 21
719.85103445004984
  0
LINE
  8
_0-0_計極細
  6
CONTINUOUS
 62
    2
 10
317.66892769443962
 20
719.85103445004984
 11
317.65669057648847
 21
721.09597693979208
  0
LINE
  8
_0-0_計極細
  6
CONTINUOUS
 62
    2
 10
317.65669057648847
 20
721.09597693979208
 11
317.65799187061907
 21
723.12860690583818
  0
LINE
  8
_0-0_計極細
  6
CONTINUOUS
 62
    2
 10
317.65799187061907
 20
723.12860690583818
 11
317.7008812643561
 21
725.88754306303758
  0
LINE
  8
_0-0_計極細
  6
CONTINUOUS
 62
    2
 10
317.7008812643561
 20
725.88754306303758
 11
317.81655491827144
 21
729.29068752424268
  0
LINE
  8
_0-0_計極細
  6
CONTINUOUS
 62
    2
 10
317.81655491827144
 20
729.29068752424268
 11
318.03322015313211
 21
733.23858218620558
  0
LINE
  8
_0-0_計極細
  6
CONTINUOUS
 62
    2
 10
318.03322015313211
 20
733.23858218620558
 11
318.37050571353711
 21
737.61814056972526
  0
LINE
  8
_0-0_計極細
  6
CONTINUOUS
 62
    2
 10
318.37050571353711
 20
737.61814056972526
 11
318.83543513929231
 21
742.30647046965646
  0
LINE
  8
_0-0_計極細
  6
CONTINUOUS
 62
    2
 10
318.83543513929231
 20
742.30647046965646
 11
319.42062585222885
 21
747.17456630203765
  0
LINE
  8
_0-0_計極細
  6
CONTINUOUS
 62
    2
 10
319.42062585222885
 20
747.17456630203765
 11
320.10490161655093
 21
752.0907411484759
  0
LINE
  8
_0-0_計極細
  6
CONTINUOUS
 62
    2
 10
320.10490161655093
 20
752.0907411484759
 11
320.85601959467374
 21
756.92376450279301
  0
LINE
  8
_0-0_計極細
  6
CONTINUOUS
 62
    2
 10
320.85601959467374
 20
756.92376450279301
 11
321.63482275699198
 21
761.54575009379914
  0
LINE
  8
_0-0_計極細
  6
CONTINUOUS
 62
    2
 10
321.63482275699198
 20
761.54575009379914
 11
322.39991543572722
 21
765.83488177284323
  0
LINE
  8
_0-0_計極細
  6
CONTINUOUS
 62
    2
 10
322.39991543572722
 20
765.83488177284323
 11
323.11196163130273
 21
769.67806647132488
  0
LINE
  8
_0-0_計極細
  6
CONTINUOUS
 62
    2
 10
323.11196163130273
 20
769.67806647132488
 11
323.73690787459674
 21
772.97356465932899
  0
LINE
  8
_0-0_計極細
  6
CONTINUOUS
 62
    2
 10
323.73690787459674
 20
772.97356465932899
 11
324.24777389913845
 21
775.63358337761258
  0
LINE
  8
_0-0_計極細
  6
CONTINUOUS
 62
    2
 10
324.24777389913845
 20
775.63358337761258
 11
324.62504333614663
 21
777.58674397839684
  0
LINE
  8
_0-0_計極細
  6
CONTINUOUS
 62
    2
 10
324.62504333614663
 20
777.58674397839684
 11
324.85602389111818
 21
778.78027691535181
  0
LINE
  8
_0-0_計極細
  6
CONTINUOUS
 62
    2
 10
324.85602389111818
 20
778.78027691535181
 11
324.93374982800788
 21
779.18176632391737
  0
LINE
  8
_0-1_計細線
  6
CONTINUOUS
 62
    3
 10
1166.245842213536
 20
781.18176632391737
 11
283.62165744248
 21
781.18176632391737
  0
LINE
  8
_0-1_計細線
  6
CONTINUOUS
 62
    3
 10
1164.9337498280074
 20
528.18176632391726
 11
284.93374982800816
 21
528.18176632391726
  0
ARC
  8
_0-1_計細線
  6
CONTINUOUS
 62
    3
 10
1177.996249827997
 20
535.68176632391908
 40
15.06249999999028
 50
150.13716564371109
 51
209.86283435630014
  0
ARC
  8
_0-1_計細線
  6
CONTINUOUS
 62
    3
 10
1151.8712498280406
 20
550.68176632390771
 40
15.062499999975882
 50
330.13716564369304
 51
29.862834356369127
  0
LINE
  8
_0-5_寸法線
  6
CONTINUOUS
 62
    7
 10
789.91333543731969
 20
600.83756053718764
 11
794.40053098003489
 21
591.90083428192861
  0
LINE
  8
_0-5_寸法線
  6
CONTINUOUS
 62
    7
 10
789.91333543731969
 20
600.83756053718764
 11
789.3309976414298
 21
590.85453080210846
  0
LINE
  8
_0-5_寸法線
  6
CONTINUOUS
 62
    7
 10
789.91333543731969
 20
600.83756053718764
 11
813.27081855737356
 21
487.66624679621293
  0
LINE
  8
_0-5_寸法線
  6
CONTINUOUS
 62
    7
 10
813.27081855737356
 20
487.66624679621293
 11
947.70983077249355
 21
487.66624679621293
  0
TEXT
  8
_0-5_寸法線
 62
    7
 10
815.70983077249355
 20
487.66624679621293
 40
15
 41
0.8000000000000001
 50
0
  1
ステンレスグレーチング
  0
LINE
  8
_0-5_寸法線
  6
CONTINUOUS
 62
    7
 10
582.48907002557985
 20
529.39677801545042
 11
587.48907002557985
 21
520.736523977606
  0
LINE
  8
_0-5_寸法線
  6
CONTINUOUS
 62
    7
 10
582.48907002557985
 20
529.39677801545042
 11
582.48907002557985
 21
519.39677801545042
  0
LINE
  8
_0-5_寸法線
  6
CONTINUOUS
 62
    7
 10
582.48907002557985
 20
529.39677801545042
 11
593.67073216549602
 21
487.66624679621293
  0
LINE
  8
_0-5_寸法線
  6
CONTINUOUS
 62
    7
 10
593.67073216549602
 20
487.66624679621293
 11
701.72160537693014
 21
487.66624679621293
  0
TEXT
  8
_0-5_寸法線
 62
    7
 10
593.72160537693003
 20
487.66624679621293
 40
15
 41
0.8000000000000001
 50
0
  1
ＳＵＳアングル受枠
  0
LINE
  8
_0-0_計極細
  6
CONTINUOUS
 62
    2
 10
1124.9337498280076
 20
533.18176632391726
 11
1124.8421017638314
 21
533.61905675608432
  0
LINE
  8
_0-0_計極細
  6
CONTINUOUS
 62
    2
 10
1124.8421017638314
 20
533.61905675608432
 11
1124.5697345863396
 21
534.91898361380777
  0
LINE
  8
_0-0_計極細
  6
CONTINUOUS
 62
    2
 10
1124.5697345863396
 20
534.91898361380777
 11
1124.1247429507539
 21
537.04594767841331
  0
LINE
  8
_0-0_計極細
  6
CONTINUOUS
 62
    2
 10
1124.1247429507539
 20
537.04594767841331
 11
1123.5216664366153
 21
539.94142333145066
  0
LINE
  8
_0-0_計極細
  6
CONTINUOUS
 62
    2
 10
1123.5216664366153
 20
539.94142333145066
 11
1122.7825366744864
 21
543.5252498163419
  0
LINE
  8
_0-0_計極細
  6
CONTINUOUS
 62
    2
 10
1122.7825366744864
 20
543.5252498163419
 11
1121.9374485595779
 21
547.69757004831411
  0
LINE
  8
_0-0_計極細
  6
CONTINUOUS
 62
    2
 10
1121.9374485595779
 20
547.69757004831411
 11
1121.0240845977567
 21
552.34148147764131
  0
LINE
  8
_0-0_計極細
  6
CONTINUOUS
 62
    2
 10
1121.0240845977567
 20
552.34148147764131
 11
1120.0858252426874
 21
557.32640704363371
  0
LINE
  8
_0-0_計極細
  6
CONTINUOUS
 62
    2
 10
1120.0858252426874
 20
557.32640704363371
 11
1119.1684157114155
 21
562.51211140192754
  0
LINE
  8
_0-0_計極細
  6
CONTINUOUS
 62
    2
 10
1119.1684157114155
 20
562.51211140192754
 11
1118.3155490336264
 21
567.75319604858601
  0
LINE
  8
_0-0_計極細
  6
CONTINUOUS
 62
    2
 10
1118.3155490336264
 20
567.75319604858601
 11
1117.5640667675407
 21
572.90382792881542
  0
LINE
  8
_0-0_計極細
  6
CONTINUOUS
 62
    2
 10
1117.5640667675407
 20
572.90382792881542
 11
1116.9396811490344
 21
577.82240918588286
  0
LINE
  8
_0-0_計極細
  6
CONTINUOUS
 62
    2
 10
1116.9396811490344
 20
577.82240918588286
 11
1116.4541243055432
 21
582.3758939107347
  0
LINE
  8
_0-0_計極細
  6
CONTINUOUS
 62
    2
 10
1116.4541243055432
 20
582.3758939107347
 11
1116.1044171513499
 21
586.44350417922578
  0
LINE
  8
_0-0_計極細
  6
CONTINUOUS
 62
    2
 10
1116.1044171513499
 20
586.44350417922578
 11
1115.8745599785998
 21
589.91968439091579
  0
LINE
  8
_0-0_計極細
  6
CONTINUOUS
 62
    2
 10
1115.8745599785998
 20
589.91968439091579
 11
1115.7394600952657
 21
592.71624260503722
  0
LINE
  8
_0-0_計極細
  6
CONTINUOUS
 62
    2
 10
1115.7394600952657
 20
592.71624260503722
 11
1115.6704366025572
 21
594.76373730438104
  0
LINE
  8
_0-0_計極細
  6
CONTINUOUS
 62
    2
 10
1115.6704366025572
 20
594.76373730438104
 11
1115.6412870979884
 21
596.01225460931721
  0
LINE
  8
_0-0_計極細
  6
CONTINUOUS
 62
    2
 10
1115.6412870979884
 20
596.01225460931721
 11
1115.6337498280081
 21
596.43176632391726
  0
LINE
  8
_0-0_計極細
  6
CONTINUOUS
 62
    2
 10
1115.6337498280081
 20
596.43176632391726
 11
1115.6273649707018
 21
596.85103445004972
  0
LINE
  8
_0-0_計極細
  6
CONTINUOUS
 62
    2
 10
1115.6273649707018
 20
596.85103445004972
 11
1115.6151278527509
 21
598.09597693979208
  0
LINE
  8
_0-0_計極細
  6
CONTINUOUS
 62
    2
 10
1115.6151278527509
 20
598.09597693979208
 11
1115.6164291468813
 21
600.12860690583818
  0
LINE
  8
_0-0_計極細
  6
CONTINUOUS
 62
    2
 10
1115.6164291468813
 20
600.12860690583818
 11
1115.6593185406184
 21
602.88754306303758
  0
LINE
  8
_0-0_計極細
  6
CONTINUOUS
 62
    2
 10
1115.6593185406184
 20
602.88754306303758
 11
1115.7749921945335
 21
606.29068752424268
  0
LINE
  8
_0-0_計極細
  6
CONTINUOUS
 62
    2
 10
1115.7749921945335
 20
606.29068752424268
 11
1115.9916574293943
 21
610.23858218620558
  0
LINE
  8
_0-0_計極細
  6
CONTINUOUS
 62
    2
 10
1115.9916574293943
 20
610.23858218620558
 11
1116.3289429897993
 21
614.61814056972526
  0
LINE
  8
_0-0_計極細
  6
CONTINUOUS
 62
    2
 10
1116.3289429897993
 20
614.61814056972526
 11
1116.7938724155545
 21
619.30647046965635
  0
LINE
  8
_0-0_計極細
  6
CONTINUOUS
 62
    2
 10
1116.7938724155545
 20
619.30647046965635
 11
1117.379063128491
 21
624.17456630203765
  0
LINE
  8
_0-0_計極細
  6
CONTINUOUS
 62
    2
 10
1117.379063128491
 20
624.17456630203765
 11
1118.0633388928131
 21
629.0907411484759
  0
LINE
  8
_0-0_計極細
  6
CONTINUOUS
 62
    2
 10
1118.0633388928131
 20
629.0907411484759
 11
1118.8144568709358
 21
633.92376450279289
  0
LINE
  8
_0-0_計極細
  6
CONTINUOUS
 62
    2
 10
1118.8144568709358
 20
633.92376450279289
 11
1119.5932600332544
 21
638.54575009379903
  0
LINE
  8
_0-0_計極細
  6
CONTINUOUS
 62
    2
 10
1119.5932600332544
 20
638.54575009379903
 11
1120.3583527119893
 21
642.83488177284323
  0
LINE
  8
_0-0_計極細
  6
CONTINUOUS
 62
    2
 10
1120.3583527119893
 20
642.83488177284323
 11
1121.070398907565
 21
646.67806647132488
  0
LINE
  8
_0-0_計極細
  6
CONTINUOUS
 62
    2
 10
1121.070398907565
 20
646.67806647132488
 11
1121.6953451508587
 21
649.97356465932899
  0
LINE
  8
_0-0_計極細
  6
CONTINUOUS
 62
    2
 10
1121.6953451508587
 20
649.97356465932899
 11
1122.2062111754008
 21
652.63358337761247
  0
LINE
  8
_0-0_計極細
  6
CONTINUOUS
 62
    2
 10
1122.2062111754008
 20
652.63358337761247
 11
1122.5834806124087
 21
654.58674397839673
  0
LINE
  8
_0-0_計極細
  6
CONTINUOUS
 62
    2
 10
1122.5834806124087
 20
654.58674397839673
 11
1122.8144611673804
 21
655.78027691535169
  0
LINE
  8
_0-0_計極細
  6
CONTINUOUS
 62
    2
 10
1122.8144611673804
 20
655.78027691535169
 11
1122.8921871042699
 21
656.18176632391726
  0
LINE
  8
_0-1_計細線
  6
CONTINUOUS
 62
    3
 10
978.43374982800765
 20
639.68176632391737
 11
978.43374982800765
 21
637.18176632391737
  0
LINE
  8
_0-1_計細線
  6
CONTINUOUS
 62
    3
 10
978.43374982800765
 20
630.18176632391726
 11
978.43374982800765
 21
624.18176632391726
  0
LINE
  8
_0-1_計細線
  6
CONTINUOUS
 62
    3
 10
978.43374982800765
 20
617.18176632391737
 11
978.43374982800765
 21
611.18176632391726
  0
LINE
  8
_0-1_計細線
  6
CONTINUOUS
 62
    3
 10
978.43374982800765
 20
604.18176632391726
 11
978.43374982800765
 21
598.18176632391726
  0
LINE
  8
_0-1_計細線
  6
CONTINUOUS
 62
    3
 10
978.43374982800765
 20
591.18176632391726
 11
978.43374982800765
 21
585.18176632391726
  0
LINE
  8
_0-1_計細線
  6
CONTINUOUS
 62
    3
 10
978.43374982800765
 20
578.18176632391726
 11
978.43374982800765
 21
572.18176632391737
  0
LINE
  8
_0-1_計細線
  6
CONTINUOUS
 62
    3
 10
978.43374982800765
 20
565.18176632391726
 11
978.43374982800765
 21
559.18176632391726
  0
LINE
  8
_0-1_計細線
  6
CONTINUOUS
 62
    3
 10
978.43374982800765
 20
552.18176632391737
 11
978.43374982800765
 21
546.18176632391726
  0
LINE
  8
_0-1_計細線
  6
CONTINUOUS
 62
    3
 10
978.43374982800765
 20
539.18176632391726
 11
978.43374982800765
 21
533.18176632391726
  0
LINE
  8
_0-1_計細線
  6
CONTINUOUS
 62
    3
 10
1164.9337498280074
 20
558.18176632391726
 11
1119.8830942714155
 21
558.18176632391726
  0
ARC
  8
_0-1_計細線
  6
CONTINUOUS
 62
    3
 10
271.87124982801879
 20
535.68176632391908
 40
15.06249999999028
 50
330.13716564369918
 51
29.862834356288111
  0
ARC
  8
_0-1_計細線
  6
CONTINUOUS
 62
    3
 10
297.99624982797513
 20
550.68176632390771
 40
15.062499999975882
 50
150.13716564363008
 51
209.8628343563071
  0
LINE
  8
_0-0_計極細
  6
CONTINUOUS
 62
    2
 10
324.93374982800788
 20
533.18176632391726
 11
325.02539789218429
 21
533.61905675608432
  0
LINE
  8
_0-0_計極細
  6
CONTINUOUS
 62
    2
 10
325.02539789218429
 20
533.61905675608432
 11
325.29776506967585
 21
534.91898361380777
  0
LINE
  8
_0-0_計極細
  6
CONTINUOUS
 62
    2
 10
325.29776506967585
 20
534.91898361380777
 11
325.74275670526174
 21
537.04594767841331
  0
LINE
  8
_0-0_計極細
  6
CONTINUOUS
 62
    2
 10
325.74275670526174
 20
537.04594767841331
 11
326.34583321940045
 21
539.94142333145066
  0
LINE
  8
_0-0_計極細
  6
CONTINUOUS
 62
    2
 10
326.34583321940045
 20
539.94142333145066
 11
327.08496298152909
 21
543.5252498163419
  0
LINE
  8
_0-0_計極細
  6
CONTINUOUS
 62
    2
 10
327.08496298152909
 20
543.5252498163419
 11
327.93005109643764
 21
547.69757004831411
  0
LINE
  8
_0-0_計極細
  6
CONTINUOUS
 62
    2
 10
327.93005109643764
 20
547.69757004831411
 11
328.84341505825893
 21
552.34148147764131
  0
LINE
  8
_0-0_計極細
  6
CONTINUOUS
 62
    2
 10
328.84341505825893
 20
552.34148147764131
 11
329.78167441332823
 21
557.32640704363371
  0
LINE
  8
_0-0_計極細
  6
CONTINUOUS
 62
    2
 10
329.78167441332823
 20
557.32640704363371
 11
330.69908394460026
 21
562.51211140192754
  0
LINE
  8
_0-0_計極細
  6
CONTINUOUS
 62
    2
 10
330.69908394460026
 20
562.51211140192754
 11
331.55195062238937
 21
567.75319604858601
  0
LINE
  8
_0-0_計極細
  6
CONTINUOUS
 62
    2
 10
331.55195062238937
 20
567.75319604858601
 11
332.30343288847502
 21
572.90382792881542
  0
LINE
  8
_0-0_計極細
  6
CONTINUOUS
 62
    2
 10
332.30343288847502
 20
572.90382792881542
 11
332.92781850698134
 21
577.82240918588286
  0
LINE
  8
_0-0_計極細
  6
CONTINUOUS
 62
    2
 10
332.92781850698134
 20
577.82240918588286
 11
333.41337535047245
 21
582.3758939107347
  0
LINE
  8
_0-0_計極細
  6
CONTINUOUS
 62
    2
 10
333.41337535047245
 20
582.3758939107347
 11
333.76308250466604
 21
586.44350417922578
  0
LINE
  8
_0-0_計極細
  6
CONTINUOUS
 62
    2
 10
333.76308250466604
 20
586.44350417922578
 11
333.99293967741613
 21
589.91968439091579
  0
LINE
  8
_0-0_計極細
  6
CONTINUOUS
 62
    2
 10
333.99293967741613
 20
589.91968439091579
 11
334.12803956075004
 21
592.71624260503722
  0
LINE
  8
_0-0_計極細
  6
CONTINUOUS
 62
    2
 10
334.12803956075004
 20
592.71624260503722
 11
334.19706305345841
 21
594.76373730438104
  0
LINE
  8
_0-0_計極細
  6
CONTINUOUS
 62
    2
 10
334.19706305345841
 20
594.76373730438104
 11
334.22621255802721
 21
596.01225460931721
  0
LINE
  8
_0-0_計極細
  6
CONTINUOUS
 62
    2
 10
334.22621255802721
 20
596.01225460931721
 11
334.23374982800789
 21
596.43176632391726
  0
LINE
  8
_0-0_計極細
  6
CONTINUOUS
 62
    2
 10
334.23374982800789
 20
596.43176632391726
 11
334.24013468531393
 21
596.85103445004972
  0
LINE
  8
_0-0_計極細
  6
CONTINUOUS
 62
    2
 10
334.24013468531393
 20
596.85103445004972
 11
334.25237180326508
 21
598.09597693979208
  0
LINE
  8
_0-0_計極細
  6
CONTINUOUS
 62
    2
 10
334.25237180326508
 20
598.09597693979208
 11
334.25107050913448
 21
600.12860690583818
  0
LINE
  8
_0-0_計極細
  6
CONTINUOUS
 62
    2
 10
334.25107050913448
 20
600.12860690583818
 11
334.20818111539745
 21
602.88754306303758
  0
LINE
  8
_0-0_計極細
  6
CONTINUOUS
 62
    2
 10
334.20818111539745
 20
602.88754306303758
 11
334.09250746148211
 21
606.29068752424268
  0
LINE
  8
_0-0_計極細
  6
CONTINUOUS
 62
    2
 10
334.09250746148211
 20
606.29068752424268
 11
333.8758422266215
 21
610.23858218620558
  0
LINE
  8
_0-0_計極細
  6
CONTINUOUS
 62
    2
 10
333.8758422266215
 20
610.23858218620558
 11
333.53855666621649
 21
614.61814056972526
  0
LINE
  8
_0-0_計極細
  6
CONTINUOUS
 62
    2
 10
333.53855666621649
 20
614.61814056972526
 11
333.07362724046124
 21
619.30647046965635
  0
LINE
  8
_0-0_計極細
  6
CONTINUOUS
 62
    2
 10
333.07362724046124
 20
619.30647046965635
 11
332.48843652752475
 21
624.17456630203765
  0
LINE
  8
_0-0_計極細
  6
CONTINUOUS
 62
    2
 10
332.48843652752475
 20
624.17456630203765
 11
331.80416076320262
 21
629.0907411484759
  0
LINE
  8
_0-0_計極細
  6
CONTINUOUS
 62
    2
 10
331.80416076320262
 20
629.0907411484759
 11
331.05304278507981
 21
633.92376450279289
  0
LINE
  8
_0-0_計極細
  6
CONTINUOUS
 62
    2
 10
331.05304278507981
 20
633.92376450279289
 11
330.27423962276168
 21
638.54575009379903
  0
LINE
  8
_0-0_計極細
  6
CONTINUOUS
 62
    2
 10
330.27423962276168
 20
638.54575009379903
 11
329.50914694402638
 21
642.83488177284323
  0
LINE
  8
_0-0_計極細
  6
CONTINUOUS
 62
    2
 10
329.50914694402638
 20
642.83488177284323
 11
328.79710074845087
 21
646.67806647132488
  0
LINE
  8
_0-0_計極細
  6
CONTINUOUS
 62
    2
 10
328.79710074845087
 20
646.67806647132488
 11
328.17215450515681
 21
649.97356465932899
  0
LINE
  8
_0-0_計極細
  6
CONTINUOUS
 62
    2
 10
328.17215450515681
 20
649.97356465932899
 11
327.66128848061521
 21
652.63358337761247
  0
LINE
  8
_0-0_計極細
  6
CONTINUOUS
 62
    2
 10
327.66128848061521
 20
652.63358337761247
 11
327.28401904360703
 21
654.58674397839673
  0
LINE
  8
_0-0_計極細
  6
CONTINUOUS
 62
    2
 10
327.28401904360703
 20
654.58674397839673
 11
327.05303848863537
 21
655.78027691535169
  0
LINE
  8
_0-0_計極細
  6
CONTINUOUS
 62
    2
 10
327.05303848863537
 20
655.78027691535169
 11
326.97531255174567
 21
656.18176632391726
  0
LINE
  8
_0-1_計細線
  6
CONTINUOUS
 62
    3
 10
284.93374982800856
 20
558.18176632391726
 11
329.98440538460022
 21
558.18176632391726
  0
LINE
  8
_0-1_計細線
  6
CONTINUOUS
 62
    3
 10
286.24584221353331
 20
531.18176632391726
 11
1163.6216574424827
 21
531.18176632391726
  0
LINE
  8
_0-1_計細線
  6
CONTINUOUS
 62
    3
 10
471.43374982800816
 20
779.18176632391737
 11
474.4337498280081
 21
779.18176632391737
  0
LINE
  8
_0-1_計細線
  6
CONTINUOUS
 62
    3
 10
474.4337498280081
 20
779.18176632391737
 11
474.4337498280081
 21
533.18176632391726
  0
LINE
  8
_0-1_計細線
  6
CONTINUOUS
 62
    3
 10
474.4337498280081
 20
533.18176632391726
 11
471.43374982800816
 21
533.18176632391726
  0
LINE
  8
_0-1_計細線
  6
CONTINUOUS
 62
    3
 10
471.43374982800816
 20
533.18176632391726
 11
471.43374982800816
 21
779.18176632391737
  0
LINE
  8
_0-1_計細線
  6
CONTINUOUS
 62
    3
 10
978.43374982800765
 20
779.18176632391737
 11
975.43374982800765
 21
779.18176632391737
  0
LINE
  8
_0-1_計細線
  6
CONTINUOUS
 62
    3
 10
975.43374982800765
 20
779.18176632391737
 11
975.43374982800765
 21
533.18176632391726
  0
LINE
  8
_0-1_計細線
  6
CONTINUOUS
 62
    3
 10
975.43374982800765
 20
533.18176632391726
 11
978.43374982800765
 21
533.18176632391726
  0
LINE
  8
_0-1_計細線
  6
CONTINUOUS
 62
    3
 10
978.43374982800765
 20
533.18176632391726
 11
978.43374982800765
 21
779.18176632391737
  0
LINE
  8
_0-1_計細線
  6
CONTINUOUS
 62
    3
 10
974.43374982800776
 20
779.18176632391737
 11
971.43374982800765
 21
779.18176632391737
  0
LINE
  8
_0-1_計細線
  6
CONTINUOUS
 62
    3
 10
971.43374982800765
 20
779.18176632391737
 11
971.43374982800765
 21
533.18176632391726
  0
LINE
  8
_0-1_計細線
  6
CONTINUOUS
 62
    3
 10
971.43374982800765
 20
533.18176632391726
 11
974.43374982800776
 21
533.18176632391726
  0
LINE
  8
_0-1_計細線
  6
CONTINUOUS
 62
    3
 10
974.43374982800776
 20
533.18176632391726
 11
974.43374982800776
 21
779.18176632391737
  0
LINE
  8
_0-1_計細線
  6
CONTINUOUS
 62
    3
 10
478.43374982800765
 20
779.18176632391737
 11
475.43374982800771
 21
779.18176632391737
  0
LINE
  8
_0-1_計細線
  6
CONTINUOUS
 62
    3
 10
475.43374982800771
 20
779.18176632391737
 11
475.43374982800771
 21
533.18176632391726
  0
LINE
  8
_0-1_計細線
  6
CONTINUOUS
 62
    3
 10
475.43374982800771
 20
533.18176632391726
 11
478.43374982800765
 21
533.18176632391726
  0
LINE
  8
_0-1_計細線
  6
CONTINUOUS
 62
    3
 10
478.43374982800765
 20
533.18176632391726
 11
478.43374982800765
 21
779.18176632391737
  0
LINE
  8
_0-0_計極細
  6
CENTER2
 62
    2
 10
1074.9337498280076
 20
773.18176632391726
 11
1074.9337498280076
 21
539.18176632391726
  0
LINE
  8
_0-0_計極細
  6
CENTER2
 62
    2
 10
874.93374982800776
 20
773.18176632391726
 11
874.93374982800776
 21
539.18176632391726
  0
LINE
  8
_0-0_計極細
  6
CENTER2
 62
    2
 10
774.93374982800776
 20
773.18176632391726
 11
774.93374982800776
 21
539.18176632391726
  0
LINE
  8
_0-0_計極細
  6
CENTER2
 62
    2
 10
674.93374982800776
 20
773.18176632391726
 11
674.93374982800776
 21
539.18176632391726
  0
LINE
  8
_0-0_計極細
  6
CENTER2
 62
    2
 10
574.93374982800765
 20
773.18176632391726
 11
574.93374982800765
 21
539.18176632391726
  0
LINE
  8
_0-5_寸法線
  6
CONTINUOUS
 62
    7
 10
272.93374982800583
 20
528.18176632391589
 11
227.93374982800586
 21
528.18176632391589
  0
LINE
  8
_0-5_寸法線
  6
CONTINUOUS
 62
    7
 10
232.93374982800586
 20
528.18176632391589
 11
230.34555937698065
 21
537.84102458680661
  0
LINE
  8
_0-5_寸法線
  6
CONTINUOUS
 62
    7
 10
232.93374982800586
 20
528.18176632391589
 11
235.52194027903107
 21
537.84102458680661
  0
LINE
  8
_0-5_寸法線
  6
CONTINUOUS
 62
    7
 10
272.93374982800583
 20
558.18176632391726
 11
227.93374982800586
 21
558.1817663239176
  0
LINE
  8
_0-5_寸法線
  6
CONTINUOUS
 62
    7
 10
232.93374982800586
 20
558.1817663239176
 11
235.52194027903099
 21
548.52250806102677
  0
LINE
  8
_0-5_寸法線
  6
CONTINUOUS
 62
    7
 10
232.93374982800586
 20
558.1817663239176
 11
230.34555937698059
 21
548.52250806102677
  0
LINE
  8
_0-5_寸法線
  6
CONTINUOUS
 62
    7
 10
232.93374982800586
 20
528.18176632391589
 11
232.93374982800586
 21
558.1817663239176
  0
TEXT
  8
_0-5_寸法線
 62
    7
 10
232.93374982800586
 20
535.6817663239168
 40
15
 41
1
 50
90
  1
30
  0
LINE
  8
_0-5_寸法線
  6
CONTINUOUS
 62
    7
 10
232.93374982800586
 20
558.1817663239176
 11
230.34555937698065
 21
567.8410245868082
  0
LINE
  8
_0-5_寸法線
  6
CONTINUOUS
 62
    7
 10
232.93374982800586
 20
558.1817663239176
 11
235.52194027903107
 21
567.8410245868082
  0
LINE
  8
_0-5_寸法線
  6
CONTINUOUS
 62
    7
 10
272.93374982800583
 20
754.18176632391737
 11
227.93374982800586
 21
754.18176632391737
  0
LINE
  8
_0-5_寸法線
  6
CONTINUOUS
 62
    7
 10
232.93374982800586
 20
754.18176632391737
 11
235.52194027903099
 21
744.52250806102654
  0
LINE
  8
_0-5_寸法線
  6
CONTINUOUS
 62
    7
 10
232.93374982800586
 20
754.18176632391737
 11
230.34555937698059
 21
744.52250806102654
  0
LINE
  8
_0-5_寸法線
  6
CONTINUOUS
 62
    7
 10
232.93374982800586
 20
558.1817663239176
 11
232.93374982800586
 21
754.18176632391737
  0
TEXT
  8
_0-5_寸法線
 62
    7
 10
232.93374982800586
 20
644.93176632391749
 40
15
 41
1
 50
90
  1
196
  0
LINE
  8
_0-5_寸法線
  6
CONTINUOUS
 62
    7
 10
232.93374982800586
 20
754.18176632391737
 11
230.34555937698065
 21
763.84102458680798
  0
LINE
  8
_0-5_寸法線
  6
CONTINUOUS
 62
    7
 10
232.93374982800586
 20
754.18176632391737
 11
235.52194027903107
 21
763.84102458680798
  0
LINE
  8
_0-5_寸法線
  6
CONTINUOUS
 62
    7
 10
272.93374982800583
 20
784.18176632391589
 11
227.93374982800586
 21
784.18176632391589
  0
LINE
  8
_0-5_寸法線
  6
CONTINUOUS
 62
    7
 10
232.93374982800586
 20
784.18176632391589
 11
235.52194027903099
 21
774.52250806102529
  0
LINE
  8
_0-5_寸法線
  6
CONTINUOUS
 62
    7
 10
232.93374982800586
 20
784.18176632391589
 11
230.34555937698059
 21
774.52250806102529
  0
LINE
  8
_0-5_寸法線
  6
CONTINUOUS
 62
    7
 10
232.93374982800586
 20
754.18176632391737
 11
232.93374982800586
 21
784.18176632391589
  0
TEXT
  8
_0-5_寸法線
 62
    7
 10
232.93374982800586
 20
761.68176632391669
 40
15
 41
1
 50
90
  1
30
  0
LINE
  8
_0-5_寸法線
  6
CONTINUOUS
 62
    7
 10
1176.9337498280104
 20
528.18176632391589
 11
1256.9337498280104
 21
528.18176632391567
  0
LINE
  8
_0-5_寸法線
  6
CONTINUOUS
 62
    7
 10
1251.9337498280104
 20
528.18176632391567
 11
1249.3455593769852
 21
537.84102458680638
  0
LINE
  8
_0-5_寸法線
  6
CONTINUOUS
 62
    7
 10
1251.9337498280104
 20
528.18176632391567
 11
1254.5219402790356
 21
537.84102458680638
  0
LINE
  8
_0-5_寸法線
  6
CONTINUOUS
 62
    7
 10
1176.9337498280104
 20
784.18176632391589
 11
1256.9337498280104
 21
784.18176632391578
  0
LINE
  8
_0-5_寸法線
  6
CONTINUOUS
 62
    7
 10
1251.9337498280104
 20
784.18176632391578
 11
1254.5219402790356
 21
774.52250806102495
  0
LINE
  8
_0-5_寸法線
  6
CONTINUOUS
 62
    7
 10
1251.9337498280104
 20
784.18176632391578
 11
1249.3455593769852
 21
774.52250806102495
  0
LINE
  8
_0-5_寸法線
  6
CONTINUOUS
 62
    7
 10
1251.9337498280104
 20
528.18176632391567
 11
1251.9337498280104
 21
784.18176632391578
  0
TEXT
  8
_0-5_寸法線
 62
    7
 10
1251.9337498280104
 20
644.93176632391555
 40
15
 41
1
 50
90
  1
256
  0
LINE
  8
_0-0_計極細
  6
CENTER2
 62
    2
 10
374.93374982800788
 20
773.18176632391726
 11
374.93374982800788
 21
539.18176632391726
  0
LINE
  8
_0-1_計細線
  6
CONTINUOUS
 62
    3
 10
478.43374982800765
 20
779.18176632391737
 11
478.43374982800765
 21
771.18176632391749
  0
LINE
  8
_0-1_計細線
  6
CONTINUOUS
 62
    3
 10
478.43374982800765
 20
771.18176632391749
 11
971.43374982800765
 21
771.18176632391749
  0
LINE
  8
_0-1_計細線
  6
CONTINUOUS
 62
    3
 10
971.43374982800765
 20
771.18176632391749
 11
971.43374982800765
 21
779.18176632391737
  0
LINE
  8
_0-1_計細線
  6
CONTINUOUS
 62
    3
 10
971.43374982800765
 20
779.18176632391737
 11
478.43374982800765
 21
779.18176632391737
  0
LINE
  8
_0-1_計細線
  6
CONTINUOUS
 62
    3
 10
478.43374982800765
 20
765.18176632391726
 11
478.43374982800765
 21
757.18176632391749
  0
LINE
  8
_0-1_計細線
  6
CONTINUOUS
 62
    3
 10
478.43374982800765
 20
757.18176632391749
 11
971.43374982800765
 21
757.18176632391749
  0
LINE
  8
_0-1_計細線
  6
CONTINUOUS
 62
    3
 10
971.43374982800765
 20
757.18176632391749
 11
971.43374982800765
 21
765.18176632391726
  0
LINE
  8
_0-1_計細線
  6
CONTINUOUS
 62
    3
 10
971.43374982800765
 20
765.18176632391726
 11
478.43374982800765
 21
765.18176632391726
  0
LINE
  8
_0-1_計細線
  6
CONTINUOUS
 62
    3
 10
478.43374982800765
 20
751.18176632391749
 11
478.43374982800765
 21
743.18176632391794
  0
LINE
  8
_0-1_計細線
  6
CONTINUOUS
 62
    3
 10
478.43374982800765
 20
743.18176632391794
 11
971.43374982800765
 21
743.18176632391794
  0
LINE
  8
_0-1_計細線
  6
CONTINUOUS
 62
    3
 10
971.43374982800765
 20
743.18176632391794
 11
971.43374982800765
 21
751.18176632391749
  0
LINE
  8
_0-1_計細線
  6
CONTINUOUS
 62
    3
 10
971.43374982800765
 20
751.18176632391749
 11
478.43374982800765
 21
751.18176632391749
  0
LINE
  8
_0-1_計細線
  6
CONTINUOUS
 62
    3
 10
478.43374982800765
 20
737.18176632391749
 11
478.43374982800765
 21
729.18176632391783
  0
LINE
  8
_0-1_計細線
  6
CONTINUOUS
 62
    3
 10
478.43374982800765
 20
729.18176632391783
 11
971.43374982800765
 21
729.18176632391783
  0
LINE
  8
_0-1_計細線
  6
CONTINUOUS
 62
    3
 10
971.43374982800765
 20
729.18176632391783
 11
971.43374982800765
 21
737.18176632391749
  0
LINE
  8
_0-1_計細線
  6
CONTINUOUS
 62
    3
 10
971.43374982800765
 20
737.18176632391749
 11
478.43374982800765
 21
737.18176632391749
  0
LINE
  8
_0-1_計細線
  6
CONTINUOUS
 62
    3
 10
478.43374982800765
 20
723.1817663239176
 11
478.43374982800765
 21
715.18176632391771
  0
LINE
  8
_0-1_計細線
  6
CONTINUOUS
 62
    3
 10
478.43374982800765
 20
715.18176632391771
 11
971.43374982800765
 21
715.18176632391771
  0
LINE
  8
_0-1_計細線
  6
CONTINUOUS
 62
    3
 10
971.43374982800765
 20
715.18176632391771
 11
971.43374982800765
 21
723.1817663239176
  0
LINE
  8
_0-1_計細線
  6
CONTINUOUS
 62
    3
 10
971.43374982800765
 20
723.1817663239176
 11
478.43374982800765
 21
723.1817663239176
  0
LINE
  8
_0-1_計細線
  6
CONTINUOUS
 62
    3
 10
478.43374982800765
 20
709.18176632391737
 11
478.43374982800765
 21
701.18176632391749
  0
LINE
  8
_0-1_計細線
  6
CONTINUOUS
 62
    3
 10
478.43374982800765
 20
701.18176632391749
 11
971.43374982800765
 21
701.18176632391749
  0
LINE
  8
_0-1_計細線
  6
CONTINUOUS
 62
    3
 10
971.43374982800765
 20
701.18176632391749
 11
971.43374982800765
 21
709.18176632391737
  0
LINE
  8
_0-1_計細線
  6
CONTINUOUS
 62
    3
 10
971.43374982800765
 20
709.18176632391737
 11
478.43374982800765
 21
709.18176632391737
  0
LINE
  8
_0-1_計細線
  6
CONTINUOUS
 62
    3
 10
478.43374982800765
 20
695.18176632391726
 11
478.43374982800765
 21
687.18176632391749
  0
LINE
  8
_0-1_計細線
  6
CONTINUOUS
 62
    3
 10
478.43374982800765
 20
687.18176632391749
 11
971.43374982800765
 21
687.18176632391749
  0
LINE
  8
_0-1_計細線
  6
CONTINUOUS
 62
    3
 10
971.43374982800765
 20
687.18176632391749
 11
971.43374982800765
 21
695.18176632391726
  0
LINE
  8
_0-1_計細線
  6
CONTINUOUS
 62
    3
 10
971.43374982800765
 20
695.18176632391726
 11
478.43374982800765
 21
695.18176632391726
  0
LINE
  8
_0-0_計極細
  6
CONTINUOUS
 62
    2
 10
577.43374982800765
 20
771.18176632391749
 11
577.43374982800765
 21
765.18176632391726
  0
LINE
  8
_0-0_計極細
  6
CONTINUOUS
 62
    2
 10
572.43374982800765
 20
765.18176632391703
 11
572.43374982800765
 21
771.18176632391749
  0
LINE
  8
_0-0_計極細
  6
CONTINUOUS
 62
    2
 10
577.43374982800765
 20
757.18176632391749
 11
577.43374982800765
 21
751.18176632391715
  0
LINE
  8
_0-0_計極細
  6
CONTINUOUS
 62
    2
 10
572.43374982800765
 20
751.18176632391715
 11
572.43374982800765
 21
757.18176632391749
  0
LINE
  8
_0-0_計極細
  6
CONTINUOUS
 62
    2
 10
577.43374982800765
 20
743.1817663239176
 11
577.43374982800765
 21
737.18176632391703
  0
LINE
  8
_0-0_計極細
  6
CONTINUOUS
 62
    2
 10
572.43374982800765
 20
737.18176632391703
 11
572.43374982800765
 21
743.1817663239176
  0
LINE
  8
_0-0_計極細
  6
CONTINUOUS
 62
    2
 10
577.43374982800765
 20
729.18176632391703
 11
577.43374982800765
 21
723.1817663239168
  0
LINE
  8
_0-0_計極細
  6
CONTINUOUS
 62
    2
 10
572.43374982800765
 20
723.18176632391658
 11
572.43374982800765
 21
729.18176632391703
  0
LINE
  8
_0-0_計極細
  6
CONTINUOUS
 62
    2
 10
577.43374982800765
 20
715.18176632391703
 11
577.43374982800765
 21
709.1817663239168
  0
LINE
  8
_0-0_計極細
  6
CONTINUOUS
 62
    2
 10
572.43374982800765
 20
709.18176632391669
 11
572.43374982800765
 21
715.18176632391703
  0
LINE
  8
_0-0_計極細
  6
CONTINUOUS
 62
    2
 10
577.43374982800765
 20
701.18176632391715
 11
577.43374982800765
 21
695.18176632391692
  0
LINE
  8
_0-0_計極細
  6
CONTINUOUS
 62
    2
 10
572.43374982800765
 20
695.18176632391658
 11
572.43374982800765
 21
701.18176632391715
  0
LINE
  8
_0-0_計極細
  6
CONTINUOUS
 62
    2
 10
677.43374982800776
 20
771.18176632391749
 11
677.43374982800776
 21
765.18176632391726
  0
LINE
  8
_0-0_計極細
  6
CONTINUOUS
 62
    2
 10
672.43374982800776
 20
765.18176632391703
 11
672.43374982800776
 21
771.18176632391749
  0
LINE
  8
_0-0_計極細
  6
CONTINUOUS
 62
    2
 10
677.43374982800776
 20
757.18176632391749
 11
677.43374982800776
 21
751.18176632391715
  0
LINE
  8
_0-0_計極細
  6
CONTINUOUS
 62
    2
 10
672.43374982800776
 20
751.18176632391715
 11
672.43374982800776
 21
757.18176632391749
  0
LINE
  8
_0-0_計極細
  6
CONTINUOUS
 62
    2
 10
677.43374982800776
 20
743.1817663239176
 11
677.43374982800776
 21
737.18176632391703
  0
LINE
  8
_0-0_計極細
  6
CONTINUOUS
 62
    2
 10
672.43374982800776
 20
737.18176632391703
 11
672.43374982800776
 21
743.1817663239176
  0
LINE
  8
_0-0_計極細
  6
CONTINUOUS
 62
    2
 10
677.43374982800776
 20
729.18176632391703
 11
677.43374982800776
 21
723.1817663239168
  0
LINE
  8
_0-0_計極細
  6
CONTINUOUS
 62
    2
 10
672.43374982800776
 20
723.18176632391658
 11
672.43374982800776
 21
729.18176632391703
  0
LINE
  8
_0-0_計極細
  6
CONTINUOUS
 62
    2
 10
677.43374982800776
 20
715.18176632391703
 11
677.43374982800776
 21
709.1817663239168
  0
LINE
  8
_0-0_計極細
  6
CONTINUOUS
 62
    2
 10
672.43374982800776
 20
709.18176632391669
 11
672.43374982800776
 21
715.18176632391703
  0
LINE
  8
_0-0_計極細
  6
CONTINUOUS
 62
    2
 10
677.43374982800776
 20
701.18176632391715
 11
677.43374982800776
 21
695.18176632391692
  0
LINE
  8
_0-0_計極細
  6
CONTINUOUS
 62
    2
 10
672.43374982800776
 20
695.18176632391658
 11
672.43374982800776
 21
701.18176632391715
  0
LINE
  8
_0-0_計極細
  6
CONTINUOUS
 62
    2
 10
777.43374982800776
 20
771.18176632391749
 11
777.43374982800776
 21
765.18176632391726
  0
LINE
  8
_0-0_計極細
  6
CONTINUOUS
 62
    2
 10
772.43374982800776
 20
765.18176632391703
 11
772.43374982800776
 21
771.18176632391749
  0
LINE
  8
_0-0_計極細
  6
CONTINUOUS
 62
    2
 10
777.43374982800776
 20
757.18176632391749
 11
777.43374982800776
 21
751.18176632391715
  0
LINE
  8
_0-0_計極細
  6
CONTINUOUS
 62
    2
 10
772.43374982800776
 20
751.18176632391715
 11
772.43374982800776
 21
757.18176632391749
  0
LINE
  8
_0-0_計極細
  6
CONTINUOUS
 62
    2
 10
777.43374982800776
 20
743.1817663239176
 11
777.43374982800776
 21
737.18176632391703
  0
LINE
  8
_0-0_計極細
  6
CONTINUOUS
 62
    2
 10
772.43374982800776
 20
737.18176632391703
 11
772.43374982800776
 21
743.1817663239176
  0
LINE
  8
_0-0_計極細
  6
CONTINUOUS
 62
    2
 10
777.43374982800776
 20
729.18176632391703
 11
777.43374982800776
 21
723.1817663239168
  0
LINE
  8
_0-0_計極細
  6
CONTINUOUS
 62
    2
 10
772.43374982800776
 20
723.18176632391658
 11
772.43374982800776
 21
729.18176632391703
  0
LINE
  8
_0-0_計極細
  6
CONTINUOUS
 62
    2
 10
777.43374982800776
 20
715.18176632391703
 11
777.43374982800776
 21
709.1817663239168
  0
LINE
  8
_0-0_計極細
  6
CONTINUOUS
 62
    2
 10
772.43374982800776
 20
709.18176632391669
 11
772.43374982800776
 21
715.18176632391703
  0
LINE
  8
_0-0_計極細
  6
CONTINUOUS
 62
    2
 10
777.43374982800776
 20
701.18176632391715
 11
777.43374982800776
 21
695.18176632391692
  0
LINE
  8
_0-0_計極細
  6
CONTINUOUS
 62
    2
 10
772.43374982800776
 20
695.18176632391658
 11
772.43374982800776
 21
701.18176632391715
  0
LINE
  8
_0-0_計極細
  6
CONTINUOUS
 62
    2
 10
877.43374982800776
 20
771.18176632391749
 11
877.43374982800776
 21
765.18176632391726
  0
LINE
  8
_0-0_計極細
  6
CONTINUOUS
 62
    2
 10
872.43374982800776
 20
765.18176632391703
 11
872.43374982800776
 21
771.18176632391749
  0
LINE
  8
_0-0_計極細
  6
CONTINUOUS
 62
    2
 10
877.43374982800776
 20
757.18176632391749
 11
877.43374982800776
 21
751.18176632391715
  0
LINE
  8
_0-0_計極細
  6
CONTINUOUS
 62
    2
 10
872.43374982800776
 20
751.18176632391715
 11
872.43374982800776
 21
757.18176632391749
  0
LINE
  8
_0-0_計極細
  6
CONTINUOUS
 62
    2
 10
877.43374982800776
 20
743.1817663239176
 11
877.43374982800776
 21
737.18176632391703
  0
LINE
  8
_0-0_計極細
  6
CONTINUOUS
 62
    2
 10
872.43374982800776
 20
737.18176632391703
 11
872.43374982800776
 21
743.1817663239176
  0
LINE
  8
_0-0_計極細
  6
CONTINUOUS
 62
    2
 10
877.43374982800776
 20
729.18176632391703
 11
877.43374982800776
 21
723.1817663239168
  0
LINE
  8
_0-0_計極細
  6
CONTINUOUS
 62
    2
 10
872.43374982800776
 20
723.18176632391658
 11
872.43374982800776
 21
729.18176632391703
  0
LINE
  8
_0-0_計極細
  6
CONTINUOUS
 62
    2
 10
877.43374982800776
 20
715.18176632391703
 11
877.43374982800776
 21
709.1817663239168
  0
LINE
  8
_0-0_計極細
  6
CONTINUOUS
 62
    2
 10
872.43374982800776
 20
709.18176632391669
 11
872.43374982800776
 21
715.18176632391703
  0
LINE
  8
_0-0_計極細
  6
CONTINUOUS
 62
    2
 10
877.43374982800776
 20
701.18176632391715
 11
877.43374982800776
 21
695.18176632391692
  0
LINE
  8
_0-0_計極細
  6
CONTINUOUS
 62
    2
 10
872.43374982800776
 20
695.18176632391658
 11
872.43374982800776
 21
701.18176632391715
  0
LINE
  8
_0-1_計細線
  6
CONTINUOUS
 62
    3
 10
478.43374982800765
 20
681.18176632391726
 11
478.43374982800765
 21
673.1817663239176
  0
LINE
  8
_0-1_計細線
  6
CONTINUOUS
 62
    3
 10
478.43374982800765
 20
673.1817663239176
 11
971.43374982800765
 21
673.1817663239176
  0
LINE
  8
_0-1_計細線
  6
CONTINUOUS
 62
    3
 10
971.43374982800765
 20
673.1817663239176
 11
971.43374982800765
 21
681.18176632391726
  0
LINE
  8
_0-1_計細線
  6
CONTINUOUS
 62
    3
 10
971.43374982800765
 20
681.18176632391726
 11
478.43374982800765
 21
681.18176632391726
  0
LINE
  8
_0-0_計極細
  6
CONTINUOUS
 62
    2
 10
577.43374982800765
 20
687.18176632391703
 11
577.43374982800765
 21
681.1817663239168
  0
LINE
  8
_0-0_計極細
  6
CONTINUOUS
 62
    2
 10
572.43374982800765
 20
681.18176632391669
 11
572.43374982800765
 21
687.18176632391703
  0
LINE
  8
_0-0_計極細
  6
CONTINUOUS
 62
    2
 10
677.43374982800776
 20
687.18176632391703
 11
677.43374982800776
 21
681.1817663239168
  0
LINE
  8
_0-0_計極細
  6
CONTINUOUS
 62
    2
 10
672.43374982800776
 20
681.18176632391669
 11
672.43374982800776
 21
687.18176632391703
  0
LINE
  8
_0-0_計極細
  6
CONTINUOUS
 62
    2
 10
777.43374982800776
 20
687.18176632391703
 11
777.43374982800776
 21
681.1817663239168
  0
LINE
  8
_0-0_計極細
  6
CONTINUOUS
 62
    2
 10
772.43374982800776
 20
681.18176632391669
 11
772.43374982800776
 21
687.18176632391703
  0
LINE
  8
_0-0_計極細
  6
CONTINUOUS
 62
    2
 10
877.43374982800776
 20
687.18176632391703
 11
877.43374982800776
 21
681.1817663239168
  0
LINE
  8
_0-0_計極細
  6
CONTINUOUS
 62
    2
 10
872.43374982800776
 20
681.18176632391669
 11
872.43374982800776
 21
687.18176632391703
  0
LINE
  8
_0-1_計細線
  6
CONTINUOUS
 62
    3
 10
478.43374982800765
 20
667.18176632391737
 11
478.43374982800765
 21
659.18176632391749
  0
LINE
  8
_0-1_計細線
  6
CONTINUOUS
 62
    3
 10
478.43374982800765
 20
659.18176632391749
 11
971.43374982800765
 21
659.18176632391749
  0
LINE
  8
_0-1_計細線
  6
CONTINUOUS
 62
    3
 10
971.43374982800765
 20
659.18176632391749
 11
971.43374982800765
 21
667.18176632391737
  0
LINE
  8
_0-1_計細線
  6
CONTINUOUS
 62
    3
 10
971.43374982800765
 20
667.18176632391737
 11
478.43374982800765
 21
667.18176632391737
  0
LINE
  8
_0-0_計極細
  6
CONTINUOUS
 62
    2
 10
577.43374982800765
 20
673.18176632391715
 11
577.43374982800765
 21
667.18176632391692
  0
LINE
  8
_0-0_計極細
  6
CONTINUOUS
 62
    2
 10
572.43374982800765
 20
667.18176632391658
 11
572.43374982800765
 21
673.18176632391715
  0
LINE
  8
_0-0_計極細
  6
CONTINUOUS
 62
    2
 10
677.43374982800776
 20
673.18176632391715
 11
677.43374982800776
 21
667.18176632391692
  0
LINE
  8
_0-0_計極細
  6
CONTINUOUS
 62
    2
 10
672.43374982800776
 20
667.18176632391658
 11
672.43374982800776
 21
673.18176632391715
  0
LINE
  8
_0-0_計極細
  6
CONTINUOUS
 62
    2
 10
777.43374982800776
 20
673.18176632391715
 11
777.43374982800776
 21
667.18176632391692
  0
LINE
  8
_0-0_計極細
  6
CONTINUOUS
 62
    2
 10
772.43374982800776
 20
667.18176632391658
 11
772.43374982800776
 21
673.18176632391715
  0
LINE
  8
_0-0_計極細
  6
CONTINUOUS
 62
    2
 10
877.43374982800776
 20
673.18176632391715
 11
877.43374982800776
 21
667.18176632391692
  0
LINE
  8
_0-0_計極細
  6
CONTINUOUS
 62
    2
 10
872.43374982800776
 20
667.18176632391658
 11
872.43374982800776
 21
673.18176632391715
  0
LINE
  8
_0-1_計細線
  6
CONTINUOUS
 62
    3
 10
478.43374982800765
 20
653.18176632391726
 11
478.43374982800765
 21
645.1817663239176
  0
LINE
  8
_0-1_計細線
  6
CONTINUOUS
 62
    3
 10
478.43374982800765
 20
645.1817663239176
 11
971.43374982800765
 21
645.1817663239176
  0
LINE
  8
_0-1_計細線
  6
CONTINUOUS
 62
    3
 10
971.43374982800765
 20
645.1817663239176
 11
971.43374982800765
 21
653.18176632391726
  0
LINE
  8
_0-1_計細線
  6
CONTINUOUS
 62
    3
 10
971.43374982800765
 20
653.18176632391726
 11
478.43374982800765
 21
653.18176632391726
  0
LINE
  8
_0-0_計極細
  6
CONTINUOUS
 62
    2
 10
577.43374982800765
 20
659.18176632391703
 11
577.43374982800765
 21
653.1817663239168
  0
LINE
  8
_0-0_計極細
  6
CONTINUOUS
 62
    2
 10
572.43374982800765
 20
653.18176632391658
 11
572.43374982800765
 21
659.18176632391703
  0
LINE
  8
_0-0_計極細
  6
CONTINUOUS
 62
    2
 10
677.43374982800776
 20
659.18176632391703
 11
677.43374982800776
 21
653.1817663239168
  0
LINE
  8
_0-0_計極細
  6
CONTINUOUS
 62
    2
 10
672.43374982800776
 20
653.18176632391658
 11
672.43374982800776
 21
659.18176632391703
  0
LINE
  8
_0-0_計極細
  6
CONTINUOUS
 62
    2
 10
777.43374982800776
 20
659.18176632391703
 11
777.43374982800776
 21
653.1817663239168
  0
LINE
  8
_0-0_計極細
  6
CONTINUOUS
 62
    2
 10
772.43374982800776
 20
653.18176632391658
 11
772.43374982800776
 21
659.18176632391703
  0
LINE
  8
_0-0_計極細
  6
CONTINUOUS
 62
    2
 10
877.43374982800776
 20
659.18176632391703
 11
877.43374982800776
 21
653.1817663239168
  0
LINE
  8
_0-0_計極細
  6
CONTINUOUS
 62
    2
 10
872.43374982800776
 20
653.18176632391658
 11
872.43374982800776
 21
659.18176632391703
  0
LINE
  8
_0-1_計細線
  6
CONTINUOUS
 62
    3
 10
478.43374982800765
 20
639.18176632391726
 11
478.43374982800765
 21
631.18176632391749
  0
LINE
  8
_0-1_計細線
  6
CONTINUOUS
 62
    3
 10
478.43374982800765
 20
631.18176632391749
 11
971.43374982800765
 21
631.18176632391749
  0
LINE
  8
_0-1_計細線
  6
CONTINUOUS
 62
    3
 10
971.43374982800765
 20
631.18176632391749
 11
971.43374982800765
 21
639.18176632391726
  0
LINE
  8
_0-1_計細線
  6
CONTINUOUS
 62
    3
 10
971.43374982800765
 20
639.18176632391726
 11
478.43374982800765
 21
639.18176632391726
  0
LINE
  8
_0-0_計極細
  6
CONTINUOUS
 62
    2
 10
577.43374982800765
 20
645.18176632391703
 11
577.43374982800765
 21
639.1817663239168
  0
LINE
  8
_0-0_計極細
  6
CONTINUOUS
 62
    2
 10
572.43374982800765
 20
639.18176632391669
 11
572.43374982800765
 21
645.18176632391703
  0
LINE
  8
_0-0_計極細
  6
CONTINUOUS
 62
    2
 10
677.43374982800776
 20
645.18176632391703
 11
677.43374982800776
 21
639.1817663239168
  0
LINE
  8
_0-0_計極細
  6
CONTINUOUS
 62
    2
 10
672.43374982800776
 20
639.18176632391669
 11
672.43374982800776
 21
645.18176632391703
  0
LINE
  8
_0-0_計極細
  6
CONTINUOUS
 62
    2
 10
777.43374982800776
 20
645.18176632391703
 11
777.43374982800776
 21
639.1817663239168
  0
LINE
  8
_0-0_計極細
  6
CONTINUOUS
 62
    2
 10
772.43374982800776
 20
639.18176632391669
 11
772.43374982800776
 21
645.18176632391703
  0
LINE
  8
_0-0_計極細
  6
CONTINUOUS
 62
    2
 10
877.43374982800776
 20
645.18176632391703
 11
877.43374982800776
 21
639.1817663239168
  0
LINE
  8
_0-0_計極細
  6
CONTINUOUS
 62
    2
 10
872.43374982800776
 20
639.18176632391669
 11
872.43374982800776
 21
645.18176632391703
  0
LINE
  8
_0-1_計細線
  6
CONTINUOUS
 62
    3
 10
478.43374982800765
 20
625.18176632391726
 11
478.43374982800765
 21
617.18176632391749
  0
LINE
  8
_0-1_計細線
  6
CONTINUOUS
 62
    3
 10
478.43374982800765
 20
617.18176632391749
 11
971.43374982800765
 21
617.18176632391749
  0
LINE
  8
_0-1_計細線
  6
CONTINUOUS
 62
    3
 10
971.43374982800765
 20
617.18176632391749
 11
971.43374982800765
 21
625.18176632391726
  0
LINE
  8
_0-1_計細線
  6
CONTINUOUS
 62
    3
 10
971.43374982800765
 20
625.18176632391726
 11
478.43374982800765
 21
625.18176632391726
  0
LINE
  8
_0-0_計極細
  6
CONTINUOUS
 62
    2
 10
577.43374982800765
 20
631.18176632391715
 11
577.43374982800765
 21
625.18176632391692
  0
LINE
  8
_0-0_計極細
  6
CONTINUOUS
 62
    2
 10
572.43374982800765
 20
625.18176632391658
 11
572.43374982800765
 21
631.18176632391715
  0
LINE
  8
_0-0_計極細
  6
CONTINUOUS
 62
    2
 10
677.43374982800776
 20
631.18176632391715
 11
677.43374982800776
 21
625.18176632391692
  0
LINE
  8
_0-0_計極細
  6
CONTINUOUS
 62
    2
 10
672.43374982800776
 20
625.18176632391658
 11
672.43374982800776
 21
631.18176632391715
  0
LINE
  8
_0-0_計極細
  6
CONTINUOUS
 62
    2
 10
777.43374982800776
 20
631.18176632391715
 11
777.43374982800776
 21
625.18176632391692
  0
LINE
  8
_0-0_計極細
  6
CONTINUOUS
 62
    2
 10
772.43374982800776
 20
625.18176632391658
 11
772.43374982800776
 21
631.18176632391715
  0
LINE
  8
_0-0_計極細
  6
CONTINUOUS
 62
    2
 10
877.43374982800776
 20
631.18176632391715
 11
877.43374982800776
 21
625.18176632391692
  0
LINE
  8
_0-0_計極細
  6
CONTINUOUS
 62
    2
 10
872.43374982800776
 20
625.18176632391658
 11
872.43374982800776
 21
631.18176632391715
  0
LINE
  8
_0-1_計細線
  6
CONTINUOUS
 62
    3
 10
478.43374982800765
 20
611.18176632391726
 11
478.43374982800765
 21
603.1817663239176
  0
LINE
  8
_0-1_計細線
  6
CONTINUOUS
 62
    3
 10
478.43374982800765
 20
603.1817663239176
 11
971.43374982800765
 21
603.1817663239176
  0
LINE
  8
_0-1_計細線
  6
CONTINUOUS
 62
    3
 10
971.43374982800765
 20
603.1817663239176
 11
971.43374982800765
 21
611.18176632391726
  0
LINE
  8
_0-1_計細線
  6
CONTINUOUS
 62
    3
 10
971.43374982800765
 20
611.18176632391726
 11
478.43374982800765
 21
611.18176632391726
  0
LINE
  8
_0-0_計極細
  6
CONTINUOUS
 62
    2
 10
577.43374982800765
 20
617.18176632391703
 11
577.43374982800765
 21
611.1817663239168
  0
LINE
  8
_0-0_計極細
  6
CONTINUOUS
 62
    2
 10
572.43374982800765
 20
611.18176632391658
 11
572.43374982800765
 21
617.18176632391703
  0
LINE
  8
_0-0_計極細
  6
CONTINUOUS
 62
    2
 10
677.43374982800776
 20
617.18176632391703
 11
677.43374982800776
 21
611.1817663239168
  0
LINE
  8
_0-0_計極細
  6
CONTINUOUS
 62
    2
 10
672.43374982800776
 20
611.18176632391658
 11
672.43374982800776
 21
617.18176632391703
  0
LINE
  8
_0-0_計極細
  6
CONTINUOUS
 62
    2
 10
777.43374982800776
 20
617.18176632391703
 11
777.43374982800776
 21
611.1817663239168
  0
LINE
  8
_0-0_計極細
  6
CONTINUOUS
 62
    2
 10
772.43374982800776
 20
611.18176632391658
 11
772.43374982800776
 21
617.18176632391703
  0
LINE
  8
_0-0_計極細
  6
CONTINUOUS
 62
    2
 10
877.43374982800776
 20
617.18176632391703
 11
877.43374982800776
 21
611.1817663239168
  0
LINE
  8
_0-0_計極細
  6
CONTINUOUS
 62
    2
 10
872.43374982800776
 20
611.18176632391658
 11
872.43374982800776
 21
617.18176632391703
  0
LINE
  8
_0-1_計細線
  6
CONTINUOUS
 62
    3
 10
478.43374982800765
 20
597.18176632391737
 11
478.43374982800765
 21
589.18176632391749
  0
LINE
  8
_0-1_計細線
  6
CONTINUOUS
 62
    3
 10
478.43374982800765
 20
589.18176632391749
 11
971.43374982800765
 21
589.18176632391749
  0
LINE
  8
_0-1_計細線
  6
CONTINUOUS
 62
    3
 10
971.43374982800765
 20
589.18176632391749
 11
971.43374982800765
 21
597.18176632391737
  0
LINE
  8
_0-1_計細線
  6
CONTINUOUS
 62
    3
 10
971.43374982800765
 20
597.18176632391737
 11
478.43374982800765
 21
597.18176632391737
  0
LINE
  8
_0-0_計極細
  6
CONTINUOUS
 62
    2
 10
577.43374982800765
 20
603.18176632391703
 11
577.43374982800765
 21
597.1817663239168
  0
LINE
  8
_0-0_計極細
  6
CONTINUOUS
 62
    2
 10
572.43374982800765
 20
597.18176632391658
 11
572.43374982800765
 21
603.18176632391703
  0
LINE
  8
_0-0_計極細
  6
CONTINUOUS
 62
    2
 10
677.43374982800776
 20
603.18176632391703
 11
677.43374982800776
 21
597.1817663239168
  0
LINE
  8
_0-0_計極細
  6
CONTINUOUS
 62
    2
 10
672.43374982800776
 20
597.18176632391658
 11
672.43374982800776
 21
603.18176632391703
  0
LINE
  8
_0-0_計極細
  6
CONTINUOUS
 62
    2
 10
777.43374982800776
 20
603.18176632391703
 11
777.43374982800776
 21
597.1817663239168
  0
LINE
  8
_0-0_計極細
  6
CONTINUOUS
 62
    2
 10
772.43374982800776
 20
597.18176632391658
 11
772.43374982800776
 21
603.18176632391703
  0
LINE
  8
_0-0_計極細
  6
CONTINUOUS
 62
    2
 10
877.43374982800776
 20
603.18176632391703
 11
877.43374982800776
 21
597.1817663239168
  0
LINE
  8
_0-0_計極細
  6
CONTINUOUS
 62
    2
 10
872.43374982800776
 20
597.18176632391658
 11
872.43374982800776
 21
603.18176632391703
  0
LINE
  8
_0-1_計細線
  6
CONTINUOUS
 62
    3
 10
478.43374982800765
 20
583.18176632391726
 11
478.43374982800765
 21
575.18176632391749
  0
LINE
  8
_0-1_計細線
  6
CONTINUOUS
 62
    3
 10
478.43374982800765
 20
575.18176632391749
 11
971.43374982800765
 21
575.18176632391749
  0
LINE
  8
_0-1_計細線
  6
CONTINUOUS
 62
    3
 10
971.43374982800765
 20
575.18176632391749
 11
971.43374982800765
 21
583.18176632391726
  0
LINE
  8
_0-1_計細線
  6
CONTINUOUS
 62
    3
 10
971.43374982800765
 20
583.18176632391726
 11
478.43374982800765
 21
583.18176632391726
  0
LINE
  8
_0-0_計極細
  6
CONTINUOUS
 62
    2
 10
577.43374982800765
 20
589.18176632391703
 11
577.43374982800765
 21
583.1817663239168
  0
LINE
  8
_0-0_計極細
  6
CONTINUOUS
 62
    2
 10
572.43374982800765
 20
583.18176632391658
 11
572.43374982800765
 21
589.18176632391703
  0
LINE
  8
_0-0_計極細
  6
CONTINUOUS
 62
    2
 10
677.43374982800776
 20
589.18176632391703
 11
677.43374982800776
 21
583.1817663239168
  0
LINE
  8
_0-0_計極細
  6
CONTINUOUS
 62
    2
 10
672.43374982800776
 20
583.18176632391658
 11
672.43374982800776
 21
589.18176632391703
  0
LINE
  8
_0-0_計極細
  6
CONTINUOUS
 62
    2
 10
777.43374982800776
 20
589.18176632391703
 11
777.43374982800776
 21
583.1817663239168
  0
LINE
  8
_0-0_計極細
  6
CONTINUOUS
 62
    2
 10
772.43374982800776
 20
583.18176632391658
 11
772.43374982800776
 21
589.18176632391703
  0
LINE
  8
_0-0_計極細
  6
CONTINUOUS
 62
    2
 10
877.43374982800776
 20
589.18176632391703
 11
877.43374982800776
 21
583.1817663239168
  0
LINE
  8
_0-0_計極細
  6
CONTINUOUS
 62
    2
 10
872.43374982800776
 20
583.18176632391658
 11
872.43374982800776
 21
589.18176632391703
  0
LINE
  8
_0-0_計極細
  6
CONTINUOUS
 62
    2
 10
377.43374982800765
 20
771.18176632391749
 11
377.43374982800765
 21
765.18176632391726
  0
LINE
  8
_0-0_計極細
  6
CONTINUOUS
 62
    2
 10
372.43374982800765
 20
765.18176632391703
 11
372.43374982800765
 21
771.18176632391749
  0
LINE
  8
_0-0_計極細
  6
CONTINUOUS
 62
    2
 10
377.43374982800765
 20
757.18176632391749
 11
377.43374982800765
 21
751.18176632391715
  0
LINE
  8
_0-0_計極細
  6
CONTINUOUS
 62
    2
 10
372.43374982800765
 20
751.18176632391715
 11
372.43374982800765
 21
757.18176632391749
  0
LINE
  8
_0-0_計極細
  6
CONTINUOUS
 62
    2
 10
377.43374982800765
 20
743.1817663239176
 11
377.43374982800765
 21
737.18176632391703
  0
LINE
  8
_0-0_計極細
  6
CONTINUOUS
 62
    2
 10
372.43374982800765
 20
737.18176632391703
 11
372.43374982800765
 21
743.1817663239176
  0
LINE
  8
_0-0_計極細
  6
CONTINUOUS
 62
    2
 10
377.43374982800765
 20
729.18176632391703
 11
377.43374982800765
 21
723.1817663239168
  0
LINE
  8
_0-0_計極細
  6
CONTINUOUS
 62
    2
 10
372.43374982800765
 20
723.18176632391658
 11
372.43374982800765
 21
729.18176632391703
  0
LINE
  8
_0-0_計極細
  6
CONTINUOUS
 62
    2
 10
377.43374982800765
 20
715.18176632391703
 11
377.43374982800765
 21
709.1817663239168
  0
LINE
  8
_0-0_計極細
  6
CONTINUOUS
 62
    2
 10
372.43374982800765
 20
709.18176632391669
 11
372.43374982800765
 21
715.18176632391703
  0
LINE
  8
_0-0_計極細
  6
CONTINUOUS
 62
    2
 10
377.43374982800765
 20
701.18176632391715
 11
377.43374982800765
 21
695.18176632391692
  0
LINE
  8
_0-0_計極細
  6
CONTINUOUS
 62
    2
 10
372.43374982800765
 20
695.18176632391658
 11
372.43374982800765
 21
701.18176632391715
  0
LINE
  8
_0-0_計極細
  6
CONTINUOUS
 62
    2
 10
377.43374982800765
 20
687.18176632391703
 11
377.43374982800765
 21
681.1817663239168
  0
LINE
  8
_0-0_計極細
  6
CONTINUOUS
 62
    2
 10
372.43374982800765
 20
681.18176632391669
 11
372.43374982800765
 21
687.18176632391703
  0
LINE
  8
_0-0_計極細
  6
CONTINUOUS
 62
    2
 10
377.43374982800765
 20
673.18176632391715
 11
377.43374982800765
 21
667.18176632391692
  0
LINE
  8
_0-0_計極細
  6
CONTINUOUS
 62
    2
 10
372.43374982800765
 20
667.18176632391658
 11
372.43374982800765
 21
673.18176632391715
  0
LINE
  8
_0-0_計極細
  6
CONTINUOUS
 62
    2
 10
377.43374982800765
 20
659.18176632391703
 11
377.43374982800765
 21
653.1817663239168
  0
LINE
  8
_0-0_計極細
  6
CONTINUOUS
 62
    2
 10
372.43374982800765
 20
653.18176632391658
 11
372.43374982800765
 21
659.18176632391703
  0
LINE
  8
_0-0_計極細
  6
CONTINUOUS
 62
    2
 10
377.43374982800765
 20
645.18176632391703
 11
377.43374982800765
 21
639.1817663239168
  0
LINE
  8
_0-0_計極細
  6
CONTINUOUS
 62
    2
 10
372.43374982800765
 20
639.18176632391669
 11
372.43374982800765
 21
645.18176632391703
  0
LINE
  8
_0-1_計細線
  6
CONTINUOUS
 62
    3
 10
324.93374982800765
 20
779.18176632391737
 11
471.43374982800816
 21
779.18176632391737
  0
LINE
  8
_0-0_計極細
  6
CONTINUOUS
 62
    2
 10
377.43374982800765
 20
631.18176632391715
 11
377.43374982800765
 21
625.18176632391692
  0
LINE
  8
_0-0_計極細
  6
CONTINUOUS
 62
    2
 10
372.43374982800765
 20
625.18176632391658
 11
372.43374982800765
 21
631.18176632391715
  0
LINE
  8
_0-0_計極細
  6
CONTINUOUS
 62
    2
 10
377.43374982800765
 20
617.18176632391703
 11
377.43374982800765
 21
611.1817663239168
  0
LINE
  8
_0-0_計極細
  6
CONTINUOUS
 62
    2
 10
372.43374982800765
 20
611.18176632391658
 11
372.43374982800765
 21
617.18176632391703
  0
LINE
  8
_0-0_計極細
  6
CONTINUOUS
 62
    2
 10
377.43374982800765
 20
603.18176632391703
 11
377.43374982800765
 21
597.1817663239168
  0
LINE
  8
_0-0_計極細
  6
CONTINUOUS
 62
    2
 10
372.43374982800765
 20
597.18176632391658
 11
372.43374982800765
 21
603.18176632391703
  0
LINE
  8
_0-0_計極細
  6
CONTINUOUS
 62
    2
 10
377.43374982800765
 20
589.18176632391703
 11
377.43374982800765
 21
583.1817663239168
  0
LINE
  8
_0-0_計極細
  6
CONTINUOUS
 62
    2
 10
372.43374982800765
 20
583.18176632391658
 11
372.43374982800765
 21
589.18176632391703
  0
LINE
  8
_0-1_計細線
  6
CONTINUOUS
 62
    3
 10
471.43374982800816
 20
701.18176632391749
 11
318.75727153543698
 21
701.18176632391749
  0
LINE
  8
_0-0_計極細
  6
CONTINUOUS
 62
    2
 10
1077.4337498280076
 20
771.18176632391783
 11
1077.4337498280076
 21
765.1817663239176
  0
LINE
  8
_0-0_計極細
  6
CONTINUOUS
 62
    2
 10
1072.4337498280076
 20
765.18176632391726
 11
1072.4337498280076
 21
771.18176632391783
  0
LINE
  8
_0-0_計極細
  6
CONTINUOUS
 62
    2
 10
1077.4337498280076
 20
757.18176632391771
 11
1077.4337498280076
 21
751.18176632391726
  0
LINE
  8
_0-0_計極細
  6
CONTINUOUS
 62
    2
 10
1072.4337498280076
 20
751.18176632391726
 11
1072.4337498280076
 21
757.18176632391771
  0
LINE
  8
_0-0_計極細
  6
CONTINUOUS
 62
    2
 10
1077.4337498280076
 20
743.18176632391771
 11
1077.4337498280076
 21
737.18176632391737
  0
LINE
  8
_0-0_計極細
  6
CONTINUOUS
 62
    2
 10
1072.4337498280076
 20
737.18176632391737
 11
1072.4337498280076
 21
743.18176632391771
  0
LINE
  8
_0-0_計極細
  6
CONTINUOUS
 62
    2
 10
1077.4337498280076
 20
729.18176632391737
 11
1077.4337498280076
 21
723.18176632391715
  0
LINE
  8
_0-0_計極細
  6
CONTINUOUS
 62
    2
 10
1072.4337498280076
 20
723.1817663239168
 11
1072.4337498280076
 21
729.18176632391737
  0
LINE
  8
_0-0_計極細
  6
CONTINUOUS
 62
    2
 10
1077.4337498280076
 20
715.18176632391726
 11
1077.4337498280076
 21
709.18176632391703
  0
LINE
  8
_0-0_計極細
  6
CONTINUOUS
 62
    2
 10
1072.4337498280076
 20
709.1817663239168
 11
1072.4337498280076
 21
715.18176632391726
  0
LINE
  8
_0-0_計極細
  6
CONTINUOUS
 62
    2
 10
1077.4337498280076
 20
701.18176632391726
 11
1077.4337498280076
 21
695.18176632391703
  0
LINE
  8
_0-0_計極細
  6
CONTINUOUS
 62
    2
 10
1072.4337498280076
 20
695.18176632391692
 11
1072.4337498280076
 21
701.18176632391726
  0
LINE
  8
_0-0_計極細
  6
CONTINUOUS
 62
    2
 10
1077.4337498280076
 20
687.18176632391737
 11
1077.4337498280076
 21
681.18176632391715
  0
LINE
  8
_0-0_計極細
  6
CONTINUOUS
 62
    2
 10
1072.4337498280076
 20
681.1817663239168
 11
1072.4337498280076
 21
687.18176632391737
  0
LINE
  8
_0-0_計極細
  6
CONTINUOUS
 62
    2
 10
1077.4337498280076
 20
673.18176632391726
 11
1077.4337498280076
 21
667.18176632391703
  0
LINE
  8
_0-0_計極細
  6
CONTINUOUS
 62
    2
 10
1072.4337498280076
 20
667.18176632391692
 11
1072.4337498280076
 21
673.18176632391726
  0
LINE
  8
_0-0_計極細
  6
CONTINUOUS
 62
    2
 10
1077.4337498280076
 20
659.18176632391737
 11
1077.4337498280076
 21
653.18176632391715
  0
LINE
  8
_0-0_計極細
  6
CONTINUOUS
 62
    2
 10
1072.4337498280076
 20
653.1817663239168
 11
1072.4337498280076
 21
659.18176632391737
  0
LINE
  8
_0-0_計極細
  6
CONTINUOUS
 62
    2
 10
1077.4337498280076
 20
645.18176632391726
 11
1077.4337498280076
 21
639.18176632391703
  0
LINE
  8
_0-0_計極細
  6
CONTINUOUS
 62
    2
 10
1072.4337498280076
 20
639.1817663239168
 11
1072.4337498280076
 21
645.18176632391726
  0
LINE
  8
_0-1_計細線
  6
CONTINUOUS
 62
    3
 10
1124.9337498280076
 20
779.18176632391749
 11
978.43374982800765
 21
779.18176632391749
  0
LINE
  8
_0-0_計極細
  6
CONTINUOUS
 62
    2
 10
1077.4337498280076
 20
631.18176632391726
 11
1077.4337498280076
 21
625.18176632391703
  0
LINE
  8
_0-0_計極細
  6
CONTINUOUS
 62
    2
 10
1072.4337498280076
 20
625.18176632391692
 11
1072.4337498280076
 21
631.18176632391726
  0
LINE
  8
_0-0_計極細
  6
CONTINUOUS
 62
    2
 10
1077.4337498280076
 20
617.18176632391737
 11
1077.4337498280076
 21
611.18176632391715
  0
LINE
  8
_0-0_計極細
  6
CONTINUOUS
 62
    2
 10
1072.4337498280076
 20
611.1817663239168
 11
1072.4337498280076
 21
617.18176632391737
  0
LINE
  8
_0-0_計極細
  6
CONTINUOUS
 62
    2
 10
1077.4337498280076
 20
603.18176632391726
 11
1077.4337498280076
 21
597.18176632391703
  0
LINE
  8
_0-0_計極細
  6
CONTINUOUS
 62
    2
 10
1072.4337498280076
 20
597.1817663239168
 11
1072.4337498280076
 21
603.18176632391726
  0
LINE
  8
_0-0_計極細
  6
CONTINUOUS
 62
    2
 10
1077.4337498280076
 20
589.18176632391726
 11
1077.4337498280076
 21
583.18176632391703
  0
LINE
  8
_0-0_計極細
  6
CONTINUOUS
 62
    2
 10
1072.4337498280076
 20
583.1817663239168
 11
1072.4337498280076
 21
589.18176632391726
  0
LINE
  8
_0-1_計細線
  6
CONTINUOUS
 62
    3
 10
478.43374982800765
 20
569.18176632391726
 11
478.43374982800765
 21
561.18176632391749
  0
LINE
  8
_0-1_計細線
  6
CONTINUOUS
 62
    3
 10
478.43374982800765
 20
561.18176632391749
 11
971.43374982800765
 21
561.18176632391749
  0
LINE
  8
_0-1_計細線
  6
CONTINUOUS
 62
    3
 10
971.43374982800765
 20
561.18176632391749
 11
971.43374982800765
 21
569.18176632391726
  0
LINE
  8
_0-1_計細線
  6
CONTINUOUS
 62
    3
 10
971.43374982800765
 20
569.18176632391726
 11
478.43374982800765
 21
569.18176632391726
  0
LINE
  8
_0-0_計極細
  6
CONTINUOUS
 62
    2
 10
577.43374982800765
 20
575.18176632391703
 11
577.43374982800765
 21
569.1817663239168
  0
LINE
  8
_0-0_計極細
  6
CONTINUOUS
 62
    2
 10
572.43374982800765
 20
569.18176632391669
 11
572.43374982800765
 21
575.18176632391703
  0
LINE
  8
_0-0_計極細
  6
CONTINUOUS
 62
    2
 10
677.43374982800776
 20
575.18176632391703
 11
677.43374982800776
 21
569.1817663239168
  0
LINE
  8
_0-0_計極細
  6
CONTINUOUS
 62
    2
 10
672.43374982800776
 20
569.18176632391669
 11
672.43374982800776
 21
575.18176632391703
  0
LINE
  8
_0-0_計極細
  6
CONTINUOUS
 62
    2
 10
777.43374982800776
 20
575.18176632391703
 11
777.43374982800776
 21
569.1817663239168
  0
LINE
  8
_0-0_計極細
  6
CONTINUOUS
 62
    2
 10
772.43374982800776
 20
569.18176632391669
 11
772.43374982800776
 21
575.18176632391703
  0
LINE
  8
_0-0_計極細
  6
CONTINUOUS
 62
    2
 10
877.43374982800776
 20
575.18176632391703
 11
877.43374982800776
 21
569.1817663239168
  0
LINE
  8
_0-0_計極細
  6
CONTINUOUS
 62
    2
 10
872.43374982800776
 20
569.18176632391669
 11
872.43374982800776
 21
575.18176632391703
  0
LINE
  8
_0-1_計細線
  6
CONTINUOUS
 62
    3
 10
478.43374982800765
 20
555.18176632391726
 11
478.43374982800765
 21
547.18176632391749
  0
LINE
  8
_0-1_計細線
  6
CONTINUOUS
 62
    3
 10
478.43374982800765
 20
547.18176632391749
 11
971.43374982800765
 21
547.18176632391749
  0
LINE
  8
_0-1_計細線
  6
CONTINUOUS
 62
    3
 10
971.43374982800765
 20
547.18176632391749
 11
971.43374982800765
 21
555.18176632391726
  0
LINE
  8
_0-1_計細線
  6
CONTINUOUS
 62
    3
 10
971.43374982800765
 20
555.18176632391726
 11
478.43374982800765
 21
555.18176632391726
  0
LINE
  8
_0-0_計極細
  6
CONTINUOUS
 62
    2
 10
577.43374982800765
 20
561.18176632391715
 11
577.43374982800765
 21
555.18176632391692
  0
LINE
  8
_0-0_計極細
  6
CONTINUOUS
 62
    2
 10
572.43374982800765
 20
555.18176632391658
 11
572.43374982800765
 21
561.18176632391715
  0
LINE
  8
_0-0_計極細
  6
CONTINUOUS
 62
    2
 10
677.43374982800776
 20
561.18176632391715
 11
677.43374982800776
 21
555.18176632391692
  0
LINE
  8
_0-0_計極細
  6
CONTINUOUS
 62
    2
 10
672.43374982800776
 20
555.18176632391658
 11
672.43374982800776
 21
561.18176632391715
  0
LINE
  8
_0-0_計極細
  6
CONTINUOUS
 62
    2
 10
777.43374982800776
 20
561.18176632391715
 11
777.43374982800776
 21
555.18176632391692
  0
LINE
  8
_0-0_計極細
  6
CONTINUOUS
 62
    2
 10
772.43374982800776
 20
555.18176632391658
 11
772.43374982800776
 21
561.18176632391715
  0
LINE
  8
_0-0_計極細
  6
CONTINUOUS
 62
    2
 10
877.43374982800776
 20
561.18176632391715
 11
877.43374982800776
 21
555.18176632391692
  0
LINE
  8
_0-0_計極細
  6
CONTINUOUS
 62
    2
 10
872.43374982800776
 20
555.18176632391658
 11
872.43374982800776
 21
561.18176632391715
  0
LINE
  8
_0-1_計細線
  6
CONTINUOUS
 62
    3
 10
478.43374982800765
 20
541.18176632391726
 11
478.43374982800765
 21
533.1817663239176
  0
LINE
  8
_0-1_計細線
  6
CONTINUOUS
 62
    3
 10
478.43374982800765
 20
533.1817663239176
 11
971.43374982800765
 21
533.1817663239176
  0
LINE
  8
_0-1_計細線
  6
CONTINUOUS
 62
    3
 10
971.43374982800765
 20
533.1817663239176
 11
971.43374982800765
 21
541.18176632391726
  0
LINE
  8
_0-1_計細線
  6
CONTINUOUS
 62
    3
 10
971.43374982800765
 20
541.18176632391726
 11
478.43374982800765
 21
541.18176632391726
  0
LINE
  8
_0-0_計極細
  6
CONTINUOUS
 62
    2
 10
577.43374982800765
 20
547.18176632391703
 11
577.43374982800765
 21
541.1817663239168
  0
LINE
  8
_0-0_計極細
  6
CONTINUOUS
 62
    2
 10
572.43374982800765
 20
541.18176632391658
 11
572.43374982800765
 21
547.18176632391703
  0
LINE
  8
_0-0_計極細
  6
CONTINUOUS
 62
    2
 10
677.43374982800776
 20
547.18176632391703
 11
677.43374982800776
 21
541.1817663239168
  0
LINE
  8
_0-0_計極細
  6
CONTINUOUS
 62
    2
 10
672.43374982800776
 20
541.18176632391658
 11
672.43374982800776
 21
547.18176632391703
  0
LINE
  8
_0-0_計極細
  6
CONTINUOUS
 62
    2
 10
777.43374982800776
 20
547.18176632391703
 11
777.43374982800776
 21
541.1817663239168
  0
LINE
  8
_0-0_計極細
  6
CONTINUOUS
 62
    2
 10
772.43374982800776
 20
541.18176632391658
 11
772.43374982800776
 21
547.18176632391703
  0
LINE
  8
_0-0_計極細
  6
CONTINUOUS
 62
    2
 10
877.43374982800776
 20
547.18176632391703
 11
877.43374982800776
 21
541.1817663239168
  0
LINE
  8
_0-0_計極細
  6
CONTINUOUS
 62
    2
 10
872.43374982800776
 20
541.18176632391658
 11
872.43374982800776
 21
547.18176632391703
  0
LINE
  8
_0-0_計極細
  6
CONTINUOUS
 62
    2
 10
377.43374982800765
 20
575.18176632391703
 11
377.43374982800765
 21
569.1817663239168
  0
LINE
  8
_0-0_計極細
  6
CONTINUOUS
 62
    2
 10
372.43374982800765
 20
569.18176632391669
 11
372.43374982800765
 21
575.18176632391703
  0
LINE
  8
_0-0_計極細
  6
CONTINUOUS
 62
    2
 10
377.43374982800765
 20
561.18176632391715
 11
377.43374982800765
 21
555.18176632391692
  0
LINE
  8
_0-0_計極細
  6
CONTINUOUS
 62
    2
 10
372.43374982800765
 20
555.18176632391658
 11
372.43374982800765
 21
561.18176632391715
  0
LINE
  8
_0-0_計極細
  6
CONTINUOUS
 62
    2
 10
377.43374982800765
 20
547.18176632391703
 11
377.43374982800765
 21
541.1817663239168
  0
LINE
  8
_0-0_計極細
  6
CONTINUOUS
 62
    2
 10
372.43374982800765
 20
541.18176632391658
 11
372.43374982800765
 21
547.18176632391703
  0
LINE
  8
_0-1_計細線
  6
CONTINUOUS
 62
    3
 10
471.43374982800816
 20
533.1817663239176
 11
324.89539082007263
 21
533.1817663239176
  0
LINE
  8
_0-0_計極細
  6
CONTINUOUS
 62
    2
 10
1077.4337498280076
 20
575.18176632391726
 11
1077.4337498280076
 21
569.18176632391703
  0
LINE
  8
_0-0_計極細
  6
CONTINUOUS
 62
    2
 10
1072.4337498280076
 20
569.1817663239168
 11
1072.4337498280076
 21
575.18176632391726
  0
LINE
  8
_0-0_計極細
  6
CONTINUOUS
 62
    2
 10
1077.4337498280076
 20
561.18176632391726
 11
1077.4337498280076
 21
555.18176632391703
  0
LINE
  8
_0-0_計極細
  6
CONTINUOUS
 62
    2
 10
1072.4337498280076
 20
555.18176632391692
 11
1072.4337498280076
 21
561.18176632391726
  0
LINE
  8
_0-0_計極細
  6
CONTINUOUS
 62
    2
 10
1077.4337498280076
 20
547.18176632391737
 11
1077.4337498280076
 21
541.18176632391715
  0
LINE
  8
_0-0_計極細
  6
CONTINUOUS
 62
    2
 10
1072.4337498280076
 20
541.1817663239168
 11
1072.4337498280076
 21
547.18176632391737
  0
LINE
  8
_0-1_計細線
  6
CONTINUOUS
 62
    3
 10
978.43374982800765
 20
533.18176632391771
 11
1124.9988901343397
 21
533.18176632391771
  0
LINE
  8
_0-1_計細線
  6
CONTINUOUS
 62
    3
 10
471.43374982800816
 20
771.18176632391749
 11
323.39711778078572
 21
771.18176632391749
  0
LINE
  8
_0-1_計細線
  6
CONTINUOUS
 62
    3
 10
322.28341310244991
 20
765.18176632391726
 11
471.43374982800816
 21
765.18176632391726
  0
LINE
  8
_0-1_計細線
  6
CONTINUOUS
 62
    3
 10
471.43374982800816
 20
757.18176632391749
 11
320.89949282283948
 21
757.18176632391749
  0
LINE
  8
_0-1_計細線
  6
CONTINUOUS
 62
    3
 10
284.93374982800856
 20
754.18176632391737
 11
320.42987554836083
 21
754.18176632391737
  0
LINE
  8
_0-1_計細線
  6
CONTINUOUS
 62
    3
 10
319.97838263334688
 20
751.18176632391749
 11
471.43374982800816
 21
751.18176632391749
  0
LINE
  8
_0-1_計細線
  6
CONTINUOUS
 62
    3
 10
471.43374982800816
 20
743.18176632391794
 11
318.94065389886947
 21
743.18176632391794
  0
LINE
  8
_0-1_計細線
  6
CONTINUOUS
 62
    3
 10
318.3368989616331
 20
737.18176632391749
 11
471.43374982800816
 21
737.18176632391749
  0
LINE
  8
_0-1_計細線
  6
CONTINUOUS
 62
    3
 10
471.43374982800816
 20
729.18176632391783
 11
317.81285266191003
 21
729.18176632391783
  0
LINE
  8
_0-1_計細線
  6
CONTINUOUS
 62
    3
 10
317.65881826712962
 20
723.1817663239176
 11
471.43374982800816
 21
723.1817663239176
  0
LINE
  8
_0-1_計細線
  6
CONTINUOUS
 62
    3
 10
471.43374982800816
 20
715.18176632391771
 11
317.80684301572228
 21
715.18176632391771
  0
LINE
  8
_0-1_計細線
  6
CONTINUOUS
 62
    3
 10
318.16848242436919
 20
709.18176632391737
 11
471.43374982800816
 21
709.18176632391737
  0
LINE
  8
_0-1_計細線
  6
CONTINUOUS
 62
    3
 10
319.71097899085839
 20
695.18176632391726
 11
471.43374982800816
 21
695.18176632391726
  0
LINE
  8
_0-1_計細線
  6
CONTINUOUS
 62
    3
 10
471.43374982800816
 20
687.18176632391749
 11
320.93828027678069
 21
687.18176632391749
  0
LINE
  8
_0-1_計細線
  6
CONTINUOUS
 62
    3
 10
471.43374982800816
 20
673.1817663239176
 11
323.4904198476786
 21
673.1817663239176
  0
LINE
  8
_0-1_計細線
  6
CONTINUOUS
 62
    3
 10
321.97606527192215
 20
681.18176632391726
 11
471.43374982800816
 21
681.18176632391726
  0
LINE
  8
_0-1_計細線
  6
CONTINUOUS
 62
    3
 10
324.6911243946422
 20
667.18176632391737
 11
471.43374982800816
 21
667.18176632391737
  0
LINE
  8
_0-1_計細線
  6
CONTINUOUS
 62
    3
 10
471.43374982800816
 20
659.18176632391749
 11
326.34710490884595
 21
659.18176632391749
  0
LINE
  8
_0-1_計細線
  6
CONTINUOUS
 62
    3
 10
327.55540232284261
 20
653.18176632391726
 11
471.43374982800816
 21
653.18176632391726
  0
LINE
  8
_0-1_計細線
  6
CONTINUOUS
 62
    3
 10
471.43374982800816
 20
645.1817663239176
 11
329.07432781688226
 21
645.1817663239176
  0
LINE
  8
_0-1_計細線
  6
CONTINUOUS
 62
    3
 10
330.16078743764979
 20
639.18176632391726
 11
471.43374982800816
 21
639.18176632391726
  0
LINE
  8
_0-1_計細線
  6
CONTINUOUS
 62
    3
 10
471.43374982800816
 20
631.18176632391749
 11
331.47918683139261
 21
631.18176632391749
  0
LINE
  8
_0-1_計細線
  6
CONTINUOUS
 62
    3
 10
332.34824571122454
 20
625.18176632391726
 11
471.43374982800816
 21
625.18176632391726
  0
LINE
  8
_0-1_計細線
  6
CONTINUOUS
 62
    3
 10
471.43374982800816
 20
617.18176632391749
 11
333.28432859882605
 21
617.18176632391749
  0
LINE
  8
_0-1_計細線
  6
CONTINUOUS
 62
    3
 10
333.80320422009328
 20
611.18176632391726
 11
471.43374982800816
 21
611.18176632391726
  0
LINE
  8
_0-1_計細線
  6
CONTINUOUS
 62
    3
 10
471.43374982800816
 20
603.1817663239176
 11
334.19818039987086
 21
603.1817663239176
  0
LINE
  8
_0-1_計細線
  6
CONTINUOUS
 62
    3
 10
334.24338560251209
 20
597.18176632391737
 11
471.43374982800816
 21
597.18176632391737
  0
LINE
  8
_0-1_計細線
  6
CONTINUOUS
 62
    3
 10
471.43374982800816
 20
589.18176632391749
 11
333.94414595837043
 21
589.18176632391749
  0
LINE
  8
_0-1_計細線
  6
CONTINUOUS
 62
    3
 10
333.48265911407202
 20
583.18176632391726
 11
471.43374982800816
 21
583.18176632391726
  0
LINE
  8
_0-1_計細線
  6
CONTINUOUS
 62
    3
 10
471.43374982800816
 20
575.18176632391749
 11
332.59260407410943
 21
575.18176632391749
  0
LINE
  8
_0-1_計細線
  6
CONTINUOUS
 62
    3
 10
331.76038043308677
 20
569.18176632391726
 11
471.43374982800816
 21
569.18176632391726
  0
LINE
  8
_0-1_計細線
  6
CONTINUOUS
 62
    3
 10
471.43374982800816
 20
561.18176632391749
 11
330.46373091054329
 21
561.18176632391749
  0
LINE
  8
_0-1_計細線
  6
CONTINUOUS
 62
    3
 10
329.37801157184799
 20
555.18176632391726
 11
471.43374982800816
 21
555.18176632391726
  0
LINE
  8
_0-1_計細線
  6
CONTINUOUS
 62
    3
 10
471.43374982800816
 20
547.18176632391749
 11
327.82557694946945
 21
547.18176632391749
  0
LINE
  8
_0-1_計細線
  6
CONTINUOUS
 62
    3
 10
326.60164203850604
 20
541.18176632391726
 11
471.43374982800816
 21
541.18176632391726
  0
LINE
  8
_0-1_計細線
  6
CONTINUOUS
 62
    3
 10
978.43374982800765
 20
771.18176632391783
 11
1126.4703818752298
 21
771.18176632391783
  0
LINE
  8
_0-1_計細線
  6
CONTINUOUS
 62
    3
 10
1127.5840865535658
 20
765.1817663239176
 11
978.43374982800765
 21
765.1817663239176
  0
LINE
  8
_0-1_計細線
  6
CONTINUOUS
 62
    3
 10
978.43374982800765
 20
757.18176632391771
 11
1128.9680068331766
 21
757.18176632391771
  0
LINE
  8
_0-1_計細線
  6
CONTINUOUS
 62
    3
 10
1129.8891170226689
 20
751.18176632391783
 11
978.43374982800765
 21
751.18176632391783
  0
LINE
  8
_0-1_計細線
  6
CONTINUOUS
 62
    3
 10
978.43374982800765
 20
743.18176632391828
 11
1130.9268457571463
 21
743.18176632391828
  0
LINE
  8
_0-1_計細線
  6
CONTINUOUS
 62
    3
 10
1131.5306006943822
 20
737.18176632391771
 11
978.43374982800765
 21
737.18176632391771
  0
LINE
  8
_0-1_計細線
  6
CONTINUOUS
 62
    3
 10
978.43374982800765
 20
729.18176632391794
 11
1132.054646994106
 21
729.18176632391794
  0
LINE
  8
_0-1_計細線
  6
CONTINUOUS
 62
    3
 10
1132.2086813888861
 20
723.18176632391771
 11
978.43374982800765
 21
723.18176632391771
  0
LINE
  8
_0-1_計細線
  6
CONTINUOUS
 62
    3
 10
978.43374982800765
 20
715.18176632391805
 11
1132.0606566402932
 21
715.18176632391805
  0
LINE
  8
_0-1_計細線
  6
CONTINUOUS
 62
    3
 10
1131.6990172316471
 20
709.18176632391749
 11
978.43374982800765
 21
709.18176632391749
  0
LINE
  8
_0-1_計細線
  6
CONTINUOUS
 62
    3
 10
978.43374982800765
 20
701.18176632391783
 11
1130.9245755159702
 21
701.18176632391783
  0
LINE
  8
_0-1_計細線
  6
CONTINUOUS
 62
    3
 10
1130.1565206651569
 20
695.1817663239176
 11
978.43374982800765
 21
695.1817663239176
  0
LINE
  8
_0-1_計細線
  6
CONTINUOUS
 62
    3
 10
978.43374982800765
 20
687.18176632391771
 11
1128.9292193792353
 21
687.18176632391771
  0
LINE
  8
_0-1_計細線
  6
CONTINUOUS
 62
    3
 10
1127.8914343840936
 20
681.18176632391749
 11
978.43374982800765
 21
681.18176632391749
  0
LINE
  8
_0-1_計細線
  6
CONTINUOUS
 62
    3
 10
978.43374982800765
 20
673.18176632391771
 11
1126.3770798083372
 21
673.18176632391771
  0
LINE
  8
_0-1_計細線
  6
CONTINUOUS
 62
    3
 10
1125.1763752613736
 20
667.18176632391749
 11
978.43374982800765
 21
667.18176632391749
  0
LINE
  8
_0-1_計細線
  6
CONTINUOUS
 62
    3
 10
978.43374982800765
 20
659.18176632391783
 11
1123.5203947471696
 21
659.18176632391783
  0
LINE
  8
_0-1_計細線
  6
CONTINUOUS
 62
    3
 10
1122.3120973331731
 20
653.1817663239176
 11
978.43374982800765
 21
653.1817663239176
  0
LINE
  8
_0-1_計細線
  6
CONTINUOUS
 62
    3
 10
978.43374982800765
 20
645.18176632391771
 11
1120.7931718391339
 21
645.18176632391771
  0
LINE
  8
_0-1_計細線
  6
CONTINUOUS
 62
    3
 10
1119.7067122183666
 20
639.18176632391749
 11
978.43374982800765
 21
639.18176632391749
  0
LINE
  8
_0-1_計細線
  6
CONTINUOUS
 62
    3
 10
978.43374982800765
 20
631.18176632391771
 11
1118.3883128246227
 21
631.18176632391771
  0
LINE
  8
_0-1_計細線
  6
CONTINUOUS
 62
    3
 10
1117.519253944791
 20
625.18176632391749
 11
978.43374982800765
 21
625.18176632391749
  0
LINE
  8
_0-1_計細線
  6
CONTINUOUS
 62
    3
 10
978.43374982800765
 20
617.18176632391771
 11
1116.5831710571895
 21
617.18176632391771
  0
LINE
  8
_0-1_計細線
  6
CONTINUOUS
 62
    3
 10
978.43374982800765
 20
603.18176632391771
 11
1115.6693192561454
 21
603.18176632391771
  0
LINE
  8
_0-1_計細線
  6
CONTINUOUS
 62
    3
 10
1116.064295435923
 20
611.18176632391749
 11
978.43374982800765
 21
611.18176632391749
  0
LINE
  8
_0-1_計細線
  6
CONTINUOUS
 62
    3
 10
1115.6241140535037
 20
597.18176632391749
 11
978.43374982800765
 21
597.18176632391749
  0
LINE
  8
_0-1_計細線
  6
CONTINUOUS
 62
    3
 10
978.43374982800765
 20
589.18176632391783
 11
1115.9233536976456
 21
589.18176632391783
  0
LINE
  8
_0-1_計細線
  6
CONTINUOUS
 62
    3
 10
1116.3848405419437
 20
583.1817663239176
 11
978.43374982800765
 21
583.1817663239176
  0
LINE
  8
_0-1_計細線
  6
CONTINUOUS
 62
    3
 10
978.43374982800765
 20
575.18176632391771
 11
1117.2748955819063
 21
575.18176632391771
  0
LINE
  8
_0-1_計細線
  6
CONTINUOUS
 62
    3
 10
1118.1071192229292
 20
569.18176632391749
 11
978.43374982800765
 21
569.18176632391749
  0
LINE
  8
_0-1_計細線
  6
CONTINUOUS
 62
    3
 10
978.43374982800765
 20
561.18176632391771
 11
1119.4037687454722
 21
561.18176632391771
  0
LINE
  8
_0-1_計細線
  6
CONTINUOUS
 62
    3
 10
1120.4894880841678
 20
555.18176632391749
 11
978.43374982800765
 21
555.18176632391749
  0
LINE
  8
_0-1_計細線
  6
CONTINUOUS
 62
    3
 10
978.43374982800765
 20
547.18176632391771
 11
1122.0419227065461
 21
547.18176632391771
  0
LINE
  8
_0-1_計細線
  6
CONTINUOUS
 62
    3
 10
1123.2658576175093
 20
541.18176632391749
 11
978.43374982800765
 21
541.18176632391749
  0
TEXT
  8
_0-5_寸法線
 62
    7
 10
593.67073222294925
 20
472.66624679621293
 40
15
 41
0.8000000000000001
 50
0
  1
ＧＳＬ－２０
  0
TEXT
  8
_0-5_寸法線
 62
    7
 10
813.27081855737356
 20
472.66624679621293
 40
15
 41
0.8000000000000001
 50
0
  1
ＧＳＴ－２０Ｗ２４６
  0
TEXT
  8
_0-7_枠細線
 62
    5
 10
965.50000000000011
 20
110
 40
20
 41
0.6
 50
0
  1
ＧＳＴ－２０Ｗ２４６
  0
TEXT
  8
_0-7_枠細線
 62
    5
 10
965.49999999999966
 20
70
 40
20.000000000000004
 41
0.5999999999999997
 50
0
  1
表面形状については記号表参照のこと
  0
LINE
  8
_0-7_枠細線
  6
CONTINUOUS
 62
    5
 10
1409.4018171150183
 20
328.47321710336234
 11
1409.4018171150183
 21
223.47321710336274
  0
TEXT
  8
_0-7_枠細線
 62
    5
 10
1318.4018171150192
 20
308.47321710336234
 40
15.000000000000002
 41
0.8
 50
0
  1
ノンスリップ
  0
TEXT
  8
_0-7_枠細線
 62
    5
 10
1330.4018171150185
 20
283.47321710336234
 40
15.000000000000002
 41
0.8
 50
0
  1
品番－Ｄ
  0
LINE
  8
_0-7_枠細線
  6
CONTINUOUS
 62
    5
 10
1299.4018171150178
 20
328.47321710336234
 11
1299.4018171150178
 21
223.47321710336274
  0
TEXT
  8
_0-7_枠細線
 62
    5
 10
1220.4018171150178
 20
308.4732171033624
 40
15.000000000000002
 41
0.8
 50
0
  1
プレーン
  0
TEXT
  8
_0-7_枠細線
 62
    5
 10
1220.4018171150185
 20
283.47321710336234
 40
15.000000000000002
 41
0.8
 50
0
  1
品番－Ｆ
  0
TEXT
  8
_0-7_枠細線
 62
    5
 10
1140.4018171150183
 20
308.47321710336234
 40
15.000000000000002
 41
0.8
 50
0
  1
タ イ プ
  0
LINE
  8
_0-7_枠細線
  6
CONTINUOUS
 62
    5
 10
1139.4018171150174
 20
278.47321710336234
 11
1409.4018171150183
 21
278.47321710336234
  0
LINE
  8
_0-7_枠細線
  6
CONTINUOUS
 62
    5
 10
1139.4018171150174
 20
303.47321710336234
 11
1409.4018171150183
 21
303.47321710336234
  0
LINE
  8
_0-7_枠細線
  6
CONTINUOUS
 62
    5
 10
1139.4018171150174
 20
328.47321710336234
 11
1409.4018171150183
 21
328.47321710336234
  0
LINE
  8
_0-7_枠細線
  6
CONTINUOUS
 62
    5
 10
1139.4018171150174
 20
223.47321710336274
 11
1409.4018171150183
 21
223.47321710336274
  0
LINE
  8
_0-7_枠細線
  6
CONTINUOUS
 62
    5
 10
1189.4018171150183
 20
328.47321710336234
 11
1189.4018171150183
 21
223.47321710336274
  0
LINE
  8
_0-7_枠細線
  6
CONTINUOUS
 62
    5
 10
1139.4018171150174
 20
328.47321710336234
 11
1139.4018171150174
 21
223.47321710336274
  0
TEXT
  8
_0-7_枠細線
 62
    5
 10
1140.4018171150183
 20
243.47321710336257
 40
15.000000000000002
 41
0.8
 50
0
  1
表面形状
  0
TEXT
  8
_0-7_枠細線
 62
    5
 10
1147.1760284558286
 20
330.9732171033624
 40
17.500000000000004
 41
0.7999999999999996
 50
0
  1
記号表
  0
TEXT
  8
_0-7_枠細線
 62
    5
 10
1140.4018171150183
 20
283.47321710336246
 40
15.000000000000002
 41
0.8
 50
0
  1
記　　号
  0
ARC
  8
_0-7_枠細線
  6
CONTINUOUS
 62
    5
 10
1282.9664605906703
 20
242.85777402966897
 40
12.026499332130607
 50
317.5616290000047
 51
42.438370999994966
  0
ARC
  8
_0-7_枠細線
  6
CONTINUOUS
 62
    5
 10
1300.7176602555628
 20
259.08866002804609
 40
12.026499332130607
 50
137.56162900000001
 51
222.43837100000297
  0
ARC
  8
_0-7_枠細線
  6
CONTINUOUS
 62
    5
 10
1188.0859738141417
 20
242.85777402966897
 40
12.026499332130607
 50
317.5616290000047
 51
42.438370999994966
  0
ARC
  8
_0-7_枠細線
  6
CONTINUOUS
 62
    5
 10
1205.8371734790342
 20
259.08866002804609
 40
12.026499332130607
 50
137.56162900000001
 51
222.43837100000297
  0
LINE
  8
_0-7_枠細線
  6
CONTINUOUS
 62
    5
 10
1194.4553061852557
 20
262.97321702885733
 11
1289.3357929617841
 21
262.97321702885733
  0
LINE
  8
_0-7_枠細線
  6
CONTINUOUS
 62
    5
 10
1294.3483278844485
 20
238.97321702885733
 11
1199.4678411079201
 21
238.97321702885733
  0
ARC
  8
_0-7_枠細線
  6
CONTINUOUS
 62
    5
 10
1392.966460590671
 20
242.85777402966897
 40
12.026499332130607
 50
317.5616290000047
 51
42.438370999994966
  0
ARC
  8
_0-7_枠細線
  6
CONTINUOUS
 62
    5
 10
1410.7176602555635
 20
259.08866002804609
 40
12.026499332130607
 50
137.56162900000001
 51
222.43837100000297
  0
ARC
  8
_0-7_枠細線
  6
CONTINUOUS
 62
    5
 10
1298.0859738141421
 20
242.85777402966897
 40
12.026499332130607
 50
317.5616290000047
 51
42.438370999994966
  0
ARC
  8
_0-7_枠細線
  6
CONTINUOUS
 62
    5
 10
1315.8371734790348
 20
259.08866002804609
 40
12.026499332130607
 50
137.56162900000001
 51
222.43837100000297
  0
LINE
  8
_0-7_枠細線
  6
CONTINUOUS
 62
    5
 10
1304.4553061852562
 20
262.97321702885733
 11
1399.3357929617846
 21
262.97321702885733
  0
LINE
  8
_0-7_枠細線
  6
CONTINUOUS
 62
    5
 10
1404.3483278844492
 20
238.97321702885733
 11
1309.4678411079208
 21
238.97321702885733
  0
LINE
  8
_0-7_枠細線
  6
CONTINUOUS
 62
    5
 10
1310.0055655050667
 20
244.4577803132122
 11
1315.4901287894213
 21
238.9732170288575
  0
LINE
  8
_0-7_枠細線
  6
CONTINUOUS
 62
    5
 10
1304.3960893257238
 20
262.79517855391305
 11
1328.218050850779
 21
238.97321702885748
  0
LINE
  8
_0-7_枠細線
  6
CONTINUOUS
 62
    5
 10
1316.9459729121372
 20
262.97321702885756
 11
1340.9459729121368
 21
238.97321702885748
  0
LINE
  8
_0-7_枠細線
  6
CONTINUOUS
 62
    5
 10
1329.6738949734947
 20
262.97321702885745
 11
1353.6738949734945
 21
238.97321702885748
  0
LINE
  8
_0-7_枠細線
  6
CONTINUOUS
 62
    5
 10
1342.4018170348527
 20
262.97321702885745
 11
1366.4018170348525
 21
238.97321702885745
  0
LINE
  8
_0-7_枠細線
  6
CONTINUOUS
 62
    5
 10
1355.1297390962102
 20
262.97321702885739
 11
1379.12973909621
 21
238.97321702885739
  0
LINE
  8
_0-7_枠細線
  6
CONTINUOUS
 62
    5
 10
1367.8576611575681
 20
262.97321702885739
 11
1391.8576611575677
 21
238.97321702885739
  0
LINE
  8
_0-7_枠細線
  6
CONTINUOUS
 62
    5
 10
1380.5855832189261
 20
262.97321702885739
 11
1404.4075447439814
 21
239.15125550380145
  0
LINE
  8
_0-7_枠細線
  6
CONTINUOUS
 62
    5
 10
1393.3135052802836
 20
262.97321702885733
 11
1398.7980685646389
 21
257.48865374450207
  0
LINE
  8
_0-7_枠細線
  6
CONTINUOUS
 62
    5
 10
1393.3135052802843
 20
238.97321702885739
 11
1403.3188705607763
 21
248.97858230934932
  0
LINE
  8
_0-7_枠細線
  6
CONTINUOUS
 62
    5
 10
1380.5855832189263
 20
238.97321702885739
 11
1398.8365633238182
 21
257.22419713374904
  0
LINE
  8
_0-7_枠細線
  6
CONTINUOUS
 62
    5
 10
1367.8576611575684
 20
238.97321702885745
 11
1391.8576611575686
 21
262.97321702885733
  0
LINE
  8
_0-7_枠細線
  6
CONTINUOUS
 62
    5
 10
1355.1297390962109
 20
238.97321702885748
 11
1379.1297390962106
 21
262.97321702885739
  0
LINE
  8
_0-7_枠細線
  6
CONTINUOUS
 62
    5
 10
1342.4018170348527
 20
238.97321702885748
 11
1366.4018170348527
 21
262.97321702885739
  0
LINE
  8
_0-7_枠細線
  6
CONTINUOUS
 62
    5
 10
1329.673894973495
 20
238.97321702885748
 11
1353.673894973495
 21
262.97321702885739
  0
LINE
  8
_0-7_枠細線
  6
CONTINUOUS
 62
    5
 10
1316.9459729121374
 20
238.9732170288575
 11
1340.9459729121372
 21
262.97321702885745
  0
LINE
  8
_0-7_枠細線
  6
CONTINUOUS
 62
    5
 10
1309.9670707458877
 20
244.72223692396568
 11
1328.2180508507793
 21
262.97321702885745
  0
LINE
  8
_0-7_枠細線
  6
CONTINUOUS
 62
    5
 10
1305.4847635089297
 20
252.96785174836555
 11
1315.4901287894218
 21
262.97321702885756
  0
LINE
  8
_0-9_枠極太
  6
CONTINUOUS
 62
    5
 10
60
 20
60
 11
60
 21
960
  0
LINE
  8
_0-9_枠極太
  6
CONTINUOUS
 62
    5
 10
60
 20
960
 11
1425
 21
960
  0
LINE
  8
_0-9_枠極太
  6
CONTINUOUS
 62
    5
 10
1425
 20
960
 11
1425
 21
60
  0
LINE
  8
_0-9_枠極太
  6
CONTINUOUS
 62
    5
 10
1425
 20
60
 11
60
 21
60
  0
LINE
  8
_0-a_極細3
  6
CONTINUOUS
 62
    7
 10
687.5973264368389
 20
251.56810602460041
 11
683.76399310350553
 21
251.56810602460041
  0
LINE
  8
_0-a_極細3
  6
CONTINUOUS
 62
    7
 10
687.5973264368389
 20
254.9014393579339
 11
683.76399310350553
 21
254.9014393579339
  0
LINE
  8
_0-a_極細3
  6
CONTINUOUS
 62
    7
 10
687.5973264368389
 20
248.23477269126715
 11
683.76399310350553
 21
248.23477269126715
  0
LINE
  8
_0-a_極細3
  6
CONTINUOUS
 62
    7
 10
687.5973264368389
 20
258.23477269126715
 11
683.76399310350553
 21
258.23477269126715
  0
LINE
  8
_0-a_極細3
  6
CONTINUOUS
 62
    7
 10
683.76399310350553
 20
224.9014393579339
 11
687.5973264368389
 21
224.9014393579339
  0
LINE
  8
_0-a_極細3
  6
CONTINUOUS
 62
    7
 10
687.5973264368389
 20
274.9014393579339
 11
683.76399310350553
 21
274.9014393579339
  0
LINE
  8
_0-b_細線3
  6
CONTINUOUS
 62
    7
 10
683.76399310350553
 20
278.23477269126715
 11
683.76399310350553
 21
219.9014393579339
  0
LINE
  8
_0-b_細線3
  6
CONTINUOUS
 62
    7
 10
683.76399310350553
 20
219.9014393579339
 11
687.5973264368389
 21
219.9014393579339
  0
LINE
  8
_0-b_細線3
  6
CONTINUOUS
 62
    7
 10
687.5973264368389
 20
219.9014393579339
 11
687.5973264368389
 21
278.23477269126715
  0
LINE
  8
_0-b_細線3
  6
CONTINUOUS
 62
    7
 10
687.5973264368389
 20
278.23477269126715
 11
683.76399310350553
 21
278.23477269126715
  0
LINE
  8
_0-7_枠細線
  6
CONTINUOUS
 62
    5
 10
706.68319453007837
 20
255.9635226874212
 11
699.18319453007837
 21
270.96352268742118
  0
LINE
  8
_0-7_枠細線
  6
CONTINUOUS
 62
    5
 10
691.68319453007837
 20
255.9635226874212
 11
706.68319453007837
 21
255.9635226874212
  0
LINE
  8
_0-7_枠細線
  6
CONTINUOUS
 62
    5
 10
699.18319453007837
 20
270.96352268742118
 11
691.68319453007837
 21
255.9635226874212
  0
TEXT
  8
_0-7_枠細線
 62
    5
 10
694.04834579822648
 20
255.65652044204063
 40
12.5
 41
0.8
 50
0
  1
１
  0
LINE
  8
_0-a_極細3
  6
CONTINUOUS
 62
    7
 10
253.26399310350567
 20
251.56810602460041
 11
257.0973264368389
 21
251.56810602460041
  0
LINE
  8
_0-a_極細3
  6
CONTINUOUS
 62
    7
 10
253.26399310350567
 20
254.9014393579339
 11
257.0973264368389
 21
254.9014393579339
  0
LINE
  8
_0-a_極細3
  6
CONTINUOUS
 62
    7
 10
253.26399310350567
 20
248.23477269126715
 11
257.0973264368389
 21
248.23477269126715
  0
LINE
  8
_0-a_極細3
  6
CONTINUOUS
 62
    7
 10
253.26399310350567
 20
258.23477269126715
 11
257.0973264368389
 21
258.23477269126715
  0
LINE
  8
_0-a_極細3
  6
CONTINUOUS
 62
    7
 10
257.0973264368389
 20
224.9014393579339
 11
253.26399310350567
 21
224.9014393579339
  0
LINE
  8
_0-a_極細3
  6
CONTINUOUS
 62
    7
 10
253.26399310350567
 20
274.9014393579339
 11
257.0973264368389
 21
274.9014393579339
  0
LINE
  8
_0-b_細線3
  6
CONTINUOUS
 62
    7
 10
257.0973264368389
 20
278.23477269126715
 11
257.0973264368389
 21
219.9014393579339
  0
LINE
  8
_0-b_細線3
  6
CONTINUOUS
 62
    7
 10
257.0973264368389
 20
219.9014393579339
 11
253.26399310350567
 21
219.9014393579339
  0
LINE
  8
_0-b_細線3
  6
CONTINUOUS
 62
    7
 10
253.26399310350567
 20
219.9014393579339
 11
253.26399310350567
 21
278.23477269126715
  0
LINE
  8
_0-b_細線3
  6
CONTINUOUS
 62
    7
 10
253.26399310350567
 20
278.23477269126715
 11
257.0973264368389
 21
278.23477269126715
  0
LINE
  8
_0-7_枠細線
  6
CONTINUOUS
 62
    5
 10
1425
 20
907.5
 11
890
 21
907.5
  0
LINE
  8
_0-7_枠細線
  6
CONTINUOUS
 62
    5
 10
915
 20
908.94233397174708
 11
907.5
 21
923.94233397174708
  0
LINE
  8
_0-7_枠細線
  6
CONTINUOUS
 62
    5
 10
900
 20
908.94233397174708
 11
915
 21
908.94233397174708
  0
LINE
  8
_0-7_枠細線
  6
CONTINUOUS
 62
    5
 10
907.5
 20
923.94233397174708
 11
900
 21
908.94233397174708
  0
TEXT
  8
_0-7_枠細線
 62
    5
 10
902.36515126814822
 20
908.63533172636653
 40
12.5
 41
0.8
 50
0
  1
１
  0
TEXT
  8
_0-7_枠細線
 62
    5
 10
1180
 20
910
 40
12.5
 41
0.7199999999999999
 50
0
  1
２０１９．０９．０１
  0
TEXT
  8
_0-7_枠細線
 62
    5
 10
938.85037037037023
 20
910
 40
12.500000000000002
 41
1
 50
0
  1
アンカー材質･厚み変更
  0
LINE
  8
_0-7_枠細線
  6
CONTINUOUS
 62
    5
 10
890
 20
907.5
 11
890
 21
959.99999999999909
  0
LINE
  8
_0-7_枠細線
  6
CONTINUOUS
 62
    5
 10
925
 20
907.5
 11
925
 21
959.99999999999943
  0
LINE
  8
_0-7_枠細線
  6
CONTINUOUS
 62
    5
 10
1175
 20
907.5
 11
1175
 21
959.99999999999943
  0
LINE
  8
_0-7_枠細線
  6
CONTINUOUS
 62
    5
 10
1275
 20
907.5
 11
1275
 21
959.99999999999943
  0
TEXT
  8
_0-7_枠細線
 62
    5
 10
419.07083963787471
 20
121.56774102292232
 40
25
 41
0.8
 50
0
  1
断面詳細図
  0
TEXT
  8
_0-7_枠細線
 62
    5
 10
542.54647605370917
 20
123.54070090313542
 40
20
 41
0.6
 50
0
  1
Ｓ＝１：３
  0
LINE
  8
_0-5_寸法線
  6
CONTINUOUS
 62
    7
 10
1176.9337498280104
 20
528.18176632391589
 11
1221.9337498280104
 21
528.18176632391567
  0
LINE
  8
_0-5_寸法線
  6
CONTINUOUS
 62
    7
 10
1216.9337498280104
 20
528.18176632391567
 11
1219.5219402790356
 21
518.52250806102495
  0
LINE
  8
_0-5_寸法線
  6
CONTINUOUS
 62
    7
 10
1216.9337498280104
 20
528.18176632391567
 11
1214.3455593769852
 21
518.52250806102495
  0
LINE
  8
_0-5_寸法線
  6
CONTINUOUS
 62
    7
 10
1176.9337498280104
 20
531.18176632391726
 11
1221.9337498280104
 21
531.18176632391726
  0
CIRCLE
  8
_0-5_寸法線
  6
CONTINUOUS
 62
    1
 10
1216.9337498280104
 20
531.18176632391726
 40
1.5000000000000002
  0
LINE
  8
_0-5_寸法線
  6
CONTINUOUS
 62
    7
 10
1216.9337498280104
 20
503.18176632391567
 11
1216.9337498280104
 21
531.18176632391726
  0
TEXT
  8
_0-5_寸法線
 62
    7
 10
1216.9337498280104
 20
506.98123528189166
 40
15
 41
1
 50
90
  1
3
  0
LINE
  8
_0-5_寸法線
  6
CONTINUOUS
 62
    7
 10
1176.9337498280104
 20
533.18176632391703
 11
1221.9337498280104
 21
533.18176632391703
  0
LINE
  8
_0-5_寸法線
  6
CONTINUOUS
 62
    7
 10
1216.9337498280104
 20
531.18176632391726
 11
1216.9337498280104
 21
533.18176632391703
  0
TEXT
  8
_0-5_寸法線
 62
    7
 10
1235.4686432149329
 20
531.18176632391726
 40
15
 41
1
 50
90
  1
2
  0
LINE
  8
_0-5_寸法線
  6
CONTINUOUS
 62
    7
 10
1216.9337498280104
 20
533.18176632391703
 11
1214.3455593769852
 21
542.84102458680775
  0
LINE
  8
_0-5_寸法線
  6
CONTINUOUS
 62
    7
 10
1216.9337498280104
 20
533.18176632391703
 11
1219.5219402790356
 21
542.84102458680775
  0
LINE
  8
_0-5_寸法線
  6
CONTINUOUS
 62
    7
 10
1176.9337498280104
 20
779.18176632391703
 11
1221.9337498280104
 21
779.18176632391703
  0
LINE
  8
_0-5_寸法線
  6
CONTINUOUS
 62
    7
 10
1216.9337498280104
 20
779.18176632391703
 11
1219.5219402790356
 21
769.52250806102643
  0
LINE
  8
_0-5_寸法線
  6
CONTINUOUS
 62
    7
 10
1216.9337498280104
 20
779.18176632391703
 11
1214.3455593769852
 21
769.52250806102643
  0
LINE
  8
_0-5_寸法線
  6
CONTINUOUS
 62
    7
 10
1216.9337498280104
 20
533.18176632391703
 11
1216.9337498280104
 21
779.18176632391703
  0
TEXT
  8
_0-5_寸法線
 62
    7
 10
1216.9337498280104
 20
644.9317663239168
 40
15
 41
1
 50
90
  1
246
  0
LINE
  8
_0-5_寸法線
  6
CONTINUOUS
 62
    7
 10
1176.9337498280104
 20
781.18176632391737
 11
1221.9337498280104
 21
781.18176632391715
  0
CIRCLE
  8
_0-5_寸法線
  6
CONTINUOUS
 62
    1
 10
1216.9337498280104
 20
781.18176632391715
 40
1.5000000000000002
  0
LINE
  8
_0-5_寸法線
  6
CONTINUOUS
 62
    7
 10
1216.9337498280104
 20
779.18176632391703
 11
1216.9337498280104
 21
781.18176632391715
  0
TEXT
  8
_0-5_寸法線
 62
    7
 10
1235.535436127544
 20
773.68176632391737
 40
15
 41
1
 50
90
  1
2
  0
LINE
  8
_0-5_寸法線
  6
CONTINUOUS
 62
    7
 10
1176.9337498280104
 20
784.18176632391589
 11
1221.9337498280104
 21
784.18176632391578
  0
LINE
  8
_0-5_寸法線
  6
CONTINUOUS
 62
    7
 10
1216.9337498280104
 20
784.18176632391578
 11
1214.3455593769852
 21
793.8410245868065
  0
LINE
  8
_0-5_寸法線
  6
CONTINUOUS
 62
    7
 10
1216.9337498280104
 20
784.18176632391578
 11
1219.5219402790356
 21
793.8410245868065
  0
LINE
  8
_0-5_寸法線
  6
CONTINUOUS
 62
    7
 10
1216.9337498280104
 20
781.18176632391715
 11
1216.9337498280104
 21
809.18176632391578
  0
TEXT
  8
_0-5_寸法線
 62
    7
 10
1216.9337498280104
 20
797.56910908161262
 40
15
 41
1
 50
90
  1
3
  0
LINE
  8
_0-d_寸法3
  6
CONTINUOUS
 62
    7
 10
257.0973264368389
 20
371.56810435625584
 11
247.43806817394827
 21
368.97991390523066
  0
LINE
  8
_0-d_寸法3
  6
CONTINUOUS
 62
    7
 10
257.0973264368389
 20
371.56810435625584
 11
247.43806817394827
 21
374.15629480728109
  0
LINE
  8
_0-d_寸法3
  6
CONTINUOUS
 62
    7
 10
262.0973264368389
 20
300.73477269126693
 11
262.0973264368389
 21
376.56810435625584
  0
CIRCLE
  8
_0-d_寸法3
  6
CONTINUOUS
 62
    1
 10
262.0973264368389
 20
371.56810435625584
 40
1.5000000000000002
  0
LINE
  8
_0-d_寸法3
  6
CONTINUOUS
 62
    7
 10
232.09732643683893
 20
371.56810435625584
 11
262.0973264368389
 21
371.56810435625584
  0
TEXT
  8
_0-d_寸法3
 62
    7
 10
235.95265849291579
 20
371.56810435625584
 40
15
 41
1
 50
0
  1
3
  0
LINE
  8
_0-d_寸法3
  6
CONTINUOUS
 62
    7
 10
265.43065977017204
 20
298.23477102292259
 11
265.4306597701725
 21
376.56810435625584
  0
LINE
  8
_0-d_寸法3
  6
CONTINUOUS
 62
    7
 10
262.0973264368389
 20
371.56810435625584
 11
265.4306597701725
 21
371.56810435625584
  0
TEXT
  8
_0-d_寸法3
 62
    7
 10
260.01399310350553
 20
371.56810435625584
 40
15
 41
1
 50
0
  1
2
  0
LINE
  8
_0-d_寸法3
  6
CONTINUOUS
 62
    7
 10
265.4306597701725
 20
371.56810435625584
 11
275.08991803306316
 21
374.15629480728109
  0
LINE
  8
_0-d_寸法3
  6
CONTINUOUS
 62
    7
 10
265.4306597701725
 20
371.56810435625584
 11
275.08991803306316
 21
368.97991390523066
  0
LINE
  8
_0-d_寸法3
  6
CONTINUOUS
 62
    7
 10
675.43065977017204
 20
298.23477102292259
 11
675.43065977017204
 21
376.56810435625584
  0
LINE
  8
_0-d_寸法3
  6
CONTINUOUS
 62
    7
 10
675.43065977017204
 20
371.56810435625584
 11
665.77140150728144
 21
368.97991390523066
  0
LINE
  8
_0-d_寸法3
  6
CONTINUOUS
 62
    7
 10
675.43065977017204
 20
371.56810435625584
 11
665.77140150728144
 21
374.15629480728109
  0
LINE
  8
_0-d_寸法3
  6
CONTINUOUS
 62
    7
 10
265.4306597701725
 20
371.56810435625584
 11
675.43065977017204
 21
371.56810435625584
  0
TEXT
  8
_0-d_寸法3
 62
    7
 10
459.18065977017199
 20
371.56810435625584
 40
15
 41
1
 50
0
  1
246
  0
LINE
  8
_0-d_寸法3
  6
CONTINUOUS
 62
    7
 10
678.76399310350507
 20
300.73477269126693
 11
678.76399310350553
 21
376.56810435625584
  0
CIRCLE
  8
_0-d_寸法3
  6
CONTINUOUS
 62
    1
 10
678.76399310350553
 20
371.56810435625584
 40
1.5000000000000002
  0
LINE
  8
_0-d_寸法3
  6
CONTINUOUS
 62
    7
 10
675.43065977017204
 20
371.56810435625584
 11
678.76399310350553
 21
371.56810435625584
  0
TEXT
  8
_0-d_寸法3
 62
    7
 10
673.34732643683867
 20
371.56810435625584
 40
15
 41
1
 50
0
  1
2
  0
LINE
  8
_0-d_寸法3
  6
CONTINUOUS
 62
    7
 10
683.76399310350553
 20
371.56810435625584
 11
693.42325136639624
 21
374.15629480728103
  0
LINE
  8
_0-d_寸法3
  6
CONTINUOUS
 62
    7
 10
683.76399310350553
 20
371.56810435625584
 11
693.42325136639624
 21
368.9799139052306
  0
LINE
  8
_0-d_寸法3
  6
CONTINUOUS
 62
    7
 10
678.76399310350553
 20
371.56810435625584
 11
708.76399310350553
 21
371.56810435625584
  0
TEXT
  8
_0-d_寸法3
 62
    7
 10
697.93056146823892
 20
371.56810435625584
 40
15
 41
1
 50
0
  1
3
  0
ENDSEC
  0
EOF
