  0
SECTION
  2
HEADER
  9
$ACADVER
  1
AC1009
  9
$INSBASE
 10
0
 20
0
 30
0
  9
$EXTMIN
 10
0
 20
0
  9
$EXTMAX
 10
1485
 20
1050
  9
$LIMMIN
 10
0
 20
0
  9
$LIMMAX
 10
1485
 20
1050
  9
$LTSCALE
 40
5
  0
ENDSEC
  0
SECTION
  2
TABLES
  0
TABLE
  2
LTYPE
 70
     9
  0
LTYPE
  2
CONTINUOUS
 70
    64
  3
実線
 72
    65
 73
     0
 40
0.0
  0
LTYPE
  2
DASHED1
 70
    64
  3
--  --  --  --  --  --  --  --  
 72
    65
 73
     2
 40
2.5
 49
1.25
 49
-1.25
  0
LTYPE
  2
DASHED2
 70
    64
  3
----    ----    ----    ----    
 72
    65
 73
     2
 40
5.0
 49
2.5
 49
-2.5
  0
LTYPE
  2
DASHED3
 70
    64
  3
------  ------  ------  ------  
 72
    65
 73
     2
 40
5.0
 49
3.75
 49
-1.25
  0
LTYPE
  2
CENTER1
 70
    64
  3
----- - ----- - ----- - ----- - 
 72
    65
 73
     4
 40
10.0
 49
6.25
 49
-1.25
 49
1.25
 49
-1.25
  0
LTYPE
  2
CENTER2
 70
    64
  3
----------  --  ----------  --  
 72
    65
 73
     4
 40
20.0
 49
12.5
 49
-2.5
 49
2.5
 49
-2.5
  0
LTYPE
  2
PHANTOM1
 70
    64
  3
--- - - --- - - --- - - --- - - 
 72
    65
 73
     6
 40
10.0
 49
3.25
 49
-1.25
 49
1.25
 49
-1.25
 49
1.25
 49
-1.25
  0
LTYPE
  2
PHANTOM2
 70
    64
  3
--------  -  -  --------  -  -  
 72
    65
 73
     6
 40
20.0
 49
10.0
 49
-2.5
 49
1.25
 49
-2.5
 49
1.25
 49
-2.5
  0
LTYPE
  2
DOT
 70
    64
  3
-   -   -   -   -   -   -   -   
 72
    65
 73
     2
 40
2.5
 49
0.625
 49
-1.875
  0
LTYPE
  2
DUMMY
 70
    64
  3
ダミー
 72
    65
 73
     0
 40
0.0
  0
LTYPE
  2
RAND1
 70
    64
  3
ランダム線1
 72
    65
 73
     4
 40
10.0
 49
1.0
 49
-2.0
 49
3.0
 49
-4.0
  0
LTYPE
  2
RAND2
 70
    64
  3
ランダム線2
 72
    65
 73
     4
 40
14.0
 49
2.0
 49
-3.0
 49
4.0
 49
-5.0
  0
LTYPE
  2
RAND3
 70
    64
  3
ランダム線3
 72
    65
 73
     4
 40
18.0
 49
3.0
 49
-4.0
 49
5.0
 49
-6.0
  0
LTYPE
  2
RAND4
 70
    64
  3
ランダム線4
 72
    65
 73
     4
 40
22.0
 49
4.0
 49
-5.0
 49
6.0
 49
-7.0
  0
LTYPE
  2
RAND5
 70
    64
  3
ランダム線5
 72
    65
 73
     4
 40
26.0
 49
5.0
 49
-6.0
 49
7.0
 49
-8.0
  0
LTYPE
  2
LONG1
 70
    64
  3
----------  --  ----------  --  
 72
    65
 73
     4
 40
40.0
 49
32.5
 49
-2.5
 49
2.5
 49
-2.5
  0
LTYPE
  2
LONG2
 70
    64
  3
--------  -  -  --------  -  -  
 72
    65
 73
     6
 40
40.0
 49
30.0
 49
-2.5
 49
1.25
 49
-2.5
 49
1.25
 49
-2.5
  0
LTYPE
  2
LONG3
 70
    64
  3
+++++++++++++++..+++++++++++++++
 72
    65
 73
     2
 40
40.0
 49
37.5
 49
-2.5
  0
LTYPE
  2
LONG4
 70
    64
  3
+++++++++++++++..+++++++++++++++
 72
    65
 73
     2
 40
80.0
 49
75.0
 49
-5.0
  0
LTYPE
  2
LONG5
 70
    64
  3
----------  --  ----------  --  
 72
    65
 73
     4
 40
60.0
 49
37.5
 49
-7.5
 49
7.5
 49
-7.5
  0
LTYPE
  2
dashed
 70
   64
  3
-------   -------------   ------
 72
   65
 73
    2
 40
7.5
 49
6
 49
-1.5
  0
LTYPE
  2
dashed_spaced
 70
   64
  3
----        --------        ----
 72
   65
 73
    2
 40
12
 49
6
 49
-6
  0
LTYPE
  2
long_dashed_dotted
 70
   64
  3
------------- --- --------------
 72
   65
 73
    4
 40
15.25
 49
12
 49
-1.5
 49
0.25
 49
-1.5
  0
LTYPE
  2
long_dashed_double-dotted
 70
   64
  3
----------- --- --- ------------
 72
   65
 73
    6
 40
17
 49
12
 49
-1.5
 49
0.25
 49
-1.5
 49
0.25
 49
-1.5
  0
LTYPE
  2
long_dashed_triplicate-dotted
 70
   64
  3
--------- --- --- --- ----------
 72
   65
 73
    8
 40
18.75
 49
12
 49
-1.5
 49
0.25
 49
-1.5
 49
0.25
 49
-1.5
 49
0.25
 49
-1.5
  0
LTYPE
  2
dotted
 70
   64
  3
   -       -       -       -    
 72
   65
 73
    2
 40
1.75
 49
0.25
 49
-1.5
  0
LTYPE
  2
chain
 70
   64
  3
-------------- -- --------------
 72
   65
 73
    4
 40
18.5
 49
12
 49
-1.5
 49
3.5
 49
-1.5
  0
LTYPE
  2
chain_double_dash
 70
   64
  3
------------ -- -- -------------
 72
   65
 73
    6
 40
23.5
 49
12
 49
-1.5
 49
3.5
 49
-1.5
 49
3.5
 49
-1.5
  0
LTYPE
  2
dashed_dotted
 70
   64
  3
-----------     -     ----------
 72
   65
 73
    4
 40
9.25
 49
6
 49
-1.5
 49
0.25
 49
-1.5
  0
LTYPE
  2
double-dashed_dotted
 70
   64
  3
------   -----------   -   -----
 72
   65
 73
    6
 40
16.75
 49
6
 49
-1.5
 49
6
 49
-1.5
 49
0.25
 49
-1.5
  0
LTYPE
  2
dashed_double-dotted
 70
   64
  3
---------    -    -    ---------
 72
   65
 73
    6
 40
11
 49
6
 49
-1.5
 49
0.25
 49
-1.5
 49
0.25
 49
-1.5
  0
LTYPE
  2
double-dashed_double-dotted
 70
   64
  3
-----   ---------   -   -   ----
 72
   65
 73
    8
 40
18.5
 49
6
 49
-1.5
 49
6
 49
-1.5
 49
0.25
 49
-1.5
 49
0.25
 49
-1.5
  0
LTYPE
  2
dashed_triplicate-dotted
 70
   64
  3
-------    -    -    -    ------
 72
   65
 73
    8
 40
12.75
 49
6
 49
-1.5
 49
0.25
 49
-1.5
 49
0.25
 49
-1.5
 49
0.25
 49
-1.5
  0
LTYPE
  2
double-dashed_triplicate-dotted
 70
   64
  3
-----  ---------  -  -  -  -----
 72
   65
 73
   10
 40
20.25
 49
6
 49
-1.5
 49
6
 49
-1.5
 49
0.25
 49
-1.5
 49
0.25
 49
-1.5
 49
0.25
 49
-1.5
  0
LTYPE
  2
undefined
 70
   64
  3
--------------------------------
 72
   65
 73
    0
 40
0
  0
ENDTAB
  0
TABLE
  2
STYLE
  5
3
100
AcDbSymbolTable
 70
     1
  0
STYLE
  5
10
100
AcDbSymbolTableRecord
100
AcDbTextStyleTableRecord
  2
STANDARD
 70
     0
 40
0.0
 41
1.0
 50
0.0
 71
     0
 42
0.2
  3
txt
  4
bigfont.shx
  0
STYLE
  5
26
100
AcDbSymbolTableRecord
100
AcDbTextStyleTableRecord
  2
TATEGAKI
 70
    68
 40
0.0
 41
1.0
 50
0.0
 71
     0
 42
1.0
  3
txt
  4
bigfont.shx
  0
ENDTAB
  0
TABLE
  2
LAYER
 70
   10
  0
LAYER
  2
_0-0_計極細
 70
   64
 62
    7
  6
CONTINUOUS
  0
LAYER
  2
_0-1_計細線
 70
   64
 62
    7
  6
CONTINUOUS
  0
LAYER
  2
_0-5_寸法線
 70
   64
 62
    7
  6
CONTINUOUS
  0
LAYER
  2
_0-7_枠細線
 70
   64
 62
    7
  6
CONTINUOUS
  0
LAYER
  2
_0-8_枠中線
 70
   64
 62
    7
  6
CONTINUOUS
  0
LAYER
  2
_0-9_枠極太
 70
   64
 62
    7
  6
CONTINUOUS
  0
LAYER
  2
_0-a_極細3
 70
   64
 62
    7
  6
CONTINUOUS
  0
LAYER
  2
_0-b_細線3
 70
   64
 62
    7
  6
CONTINUOUS
  0
LAYER
  2
_0-d_寸法3
 70
   64
 62
    7
  6
CONTINUOUS
  0
LAYER
  2
ADD_LINE
 70
   64
 62
    7
  6
CONTINUOUS
  0
ENDTAB
  0
ENDSEC
  0
SECTION
  2
BLOCKS
  0
ENDSEC
  0
SECTION
  2
ENTITIES
  0
LINE
  8
_0-7_枠細線
  6
CONTINUOUS
 62
    5
 10
1425
 20
942.5
 11
890
 21
942.5
  0
TEXT
  8
_0-7_枠細線
 62
    5
 10
895
 20
945
 40
12.5
 41
1
 50
0
  1
記号
  0
TEXT
  8
_0-7_枠細線
 62
    5
 10
996.875
 20
945
 40
12.5
 41
1
 50
0
  1
訂　 正　 記　 事
  0
TEXT
  8
_0-7_枠細線
 62
    5
 10
1181.25
 20
945
 40
12.5
 41
1
 50
0
  1
訂 正 年 月 日
  0
TEXT
  8
_0-7_枠細線
 62
    5
 10
1306.25
 20
945
 40
12.5
 41
1
 50
0
  1
備　　　　　考
  0
LINE
  8
_0-7_枠細線
  6
CONTINUOUS
 62
    5
 10
1185
 20
180
 11
1185
 21
100
  0
TEXT
  8
_0-7_枠細線
 62
    5
 10
937.5
 20
97.5
 40
17.5
 41
1
 50
0
  1
備考
  7
TATEGAKI
  0
TEXT
  8
_0-7_枠細線
 62
    5
 10
937.5
 20
137.5
 40
17.5
 41
1
 50
0
  1
品番
  7
TATEGAKI
  0
TEXT
  8
_0-7_枠細線
 62
    5
 10
937.5
 20
177.5
 40
17.5
 41
1
 50
0
  1
品名
  7
TATEGAKI
  0
LINE
  8
_0-7_枠細線
  6
CONTINUOUS
 62
    5
 10
1185
 20
140
 11
925
 21
140
  0
LINE
  8
_0-7_枠細線
  6
CONTINUOUS
 62
    5
 10
950
 20
180
 11
950
 21
60
  0
LINE
  8
_0-8_枠中線
  6
CONTINUOUS
 62
    5
 10
1425
 20
180
 11
925
 21
180
  0
LINE
  8
_0-8_枠中線
  6
CONTINUOUS
 62
    5
 10
925
 20
180
 11
925
 21
60
  0
LINE
  8
_0-7_枠細線
  6
CONTINUOUS
 62
    5
 10
1245
 20
180
 11
1245
 21
60
  0
TEXT
  8
_0-7_枠細線
 62
    5
 10
1192.5
 20
160
 40
15
 41
1
 50
0
  1
縮　尺
  0
TEXT
  8
_0-7_枠細線
 62
    5
 10
1194
 20
117.5
 40
20
 41
0.7000000000000001
 50
0
  1
１：５
  0
LINE
  8
_0-7_枠細線
  6
CONTINUOUS
 62
    5
 10
1185
 20
155
 11
1245
 21
155
  0
LINE
  8
_0-7_枠細線
  6
CONTINUOUS
 62
    5
 10
1245
 20
100
 11
925
 21
100
  0
LINE
  8
_0-7_枠細線
  6
CONTINUOUS
 62
    5
 10
1425
 20
90
 11
1245
 21
90
  0
LINE
  8
_0-7_枠細線
  6
CONTINUOUS
 62
    5
 10
1245
 20
120
 11
1425
 21
120
  0
LINE
  8
_0-7_枠細線
  6
CONTINUOUS
 62
    5
 10
1425
 20
140
 11
1245
 21
140
  0
TEXT
  8
_0-7_枠細線
 62
    5
 10
1255
 20
147.5
 40
25
 41
0.8
 50
0
  1
株式会社シマブン
  0
TEXT
  8
_0-7_枠細線
 62
    5
 10
1252.5
 20
60
 40
15
 41
1
 50
0
  1
年月日
  0
TEXT
  8
_0-7_枠細線
 62
    5
 10
1252.5
 20
75
 40
15
 41
1
 50
0
  1
作　成
  0
TEXT
  8
_0-7_枠細線
 62
    5
 10
1256.25
 20
122.5
 40
15
 41
1
 50
0
  1
承 認
  0
LINE
  8
_0-7_枠細線
  6
CONTINUOUS
 62
    5
 10
1305
 20
140
 11
1305
 21
60
  0
TEXT
  8
_0-7_枠細線
 62
    5
 10
1316.25
 20
122.5
 40
15
 41
1
 50
0
  1
検 図
  0
LINE
  8
_0-7_枠細線
  6
CONTINUOUS
 62
    5
 10
1365
 20
140
 11
1365
 21
90
  0
TEXT
  8
_0-7_枠細線
 62
    5
 10
1375
 20
95
 40
20
 41
1
 50
0
  1
藤戸
  0
TEXT
  8
_0-7_枠細線
 62
    5
 10
1376.25
 20
122.5
 40
15
 41
1
 50
0
  1
設 計
  0
TEXT
  8
_0-7_枠細線
 62
    5
 10
1255
 20
95
 40
20
 41
1
 50
0
  1
隠塚
  0
TEXT
  8
_0-7_枠細線
 62
    5
 10
1315
 20
95
 40
20
 41
1
 50
0
  1
渋田
  0
TEXT
  8
_0-7_枠細線
 62
    5
 10
965.50000000000011
 20
150
 40
20
 41
0.5
 50
0
  1
Ｔバー ステンレスグレーチング Ｈ２０タイプ
  0
TEXT
  8
_0-7_枠細線
 62
    5
 10
1310
 20
67.5
 40
15
 41
0.6666666666666666
 50
0
  1
２０１２年０２月２９日
  0
LINE
  8
_0-7_枠細線
  6
CONTINUOUS
 62
    5
 10
1425
 20
925
 11
890
 21
925
  0
TEXT
  8
_0-7_枠細線
 62
    5
 10
938.85037037037023
 20
927.5
 40
12.500000000000002
 41
1
 50
0
  1
品番変更
  0
TEXT
  8
_0-7_枠細線
 62
    5
 10
1180
 20
927.5
 40
12.5
 41
0.7199999999999999
 50
0
  1
２０１５．０４．０１
  0
CIRCLE
  8
_0-a_極細3
  6
CONTINUOUS
 62
    7
 10
197.04756590032318
 20
281.52707199681572
 40
0.5530864197530718
  0
LINE
  8
_0-a_極細3
  6
CONTINUOUS
 62
    7
 10
202.09732643683893
 20
296.56810602460041
 11
202.09732643683893
 21
284.90143935793344
  0
LINE
  8
_0-a_極細3
  6
CONTINUOUS
 62
    7
 10
210.4306597701725
 20
284.90143935793344
 11
112.91957929172433
 21
284.90143935793344
  0
LINE
  8
_0-a_極細3
  6
CONTINUOUS
 62
    7
 10
210.4306597701725
 20
295.73477269126693
 11
210.4306597701725
 21
296.56810602460041
  0
LINE
  8
_0-a_極細3
  6
CONTINUOUS
 62
    7
 10
210.23256951381285
 20
284.90143935793344
 11
210.43065977017199
 21
285.09952961429303
  0
LINE
  8
_0-a_極細3
  6
CONTINUOUS
 62
    7
 10
205.98992882669378
 20
284.90143935793344
 11
210.4306597701725
 21
289.34217030141212
  0
LINE
  8
_0-a_極細3
  6
CONTINUOUS
 62
    7
 10
202.09732643683893
 20
285.25147765519819
 11
210.4306597701725
 21
293.58481098853144
  0
LINE
  8
_0-a_極細3
  6
CONTINUOUS
 62
    7
 10
202.09732643683893
 20
289.49411834231728
 11
209.17131411912166
 21
296.56810602460041
  0
LINE
  8
_0-a_極細3
  6
CONTINUOUS
 62
    7
 10
202.09732643683893
 20
293.73675902943683
 11
204.9286734320026
 21
296.56810602460041
  0
LINE
  8
_0-a_極細3
  6
CONTINUOUS
 62
    7
 10
210.4306597701725
 20
294.28713915234175
 11
208.14969289791406
 21
296.56810602460041
  0
LINE
  8
_0-a_極細3
  6
CONTINUOUS
 62
    7
 10
210.4306597701725
 20
290.04449846522243
 11
203.90705221079443
 21
296.56810602460041
  0
LINE
  8
_0-a_極細3
  6
CONTINUOUS
 62
    7
 10
202.09732643683893
 20
294.1351911114366
 11
210.4306597701725
 21
285.80185777810334
  0
LINE
  8
_0-a_極細3
  6
CONTINUOUS
 62
    7
 10
202.09732643683893
 20
289.89255042431728
 11
207.08843750322231
 21
284.90143935793344
  0
LINE
  8
_0-a_極細3
  6
CONTINUOUS
 62
    7
 10
202.09732643683893
 20
285.64990973719796
 11
202.84579681610325
 21
284.90143935793344
  0
LINE
  8
_0-a_極細3
  6
CONTINUOUS
 62
    7
 10
193.2620067592083
 20
284.90143935180618
 11
202.09732643683893
 21
293.73675902943683
  0
LINE
  8
_0-a_極細3
  6
CONTINUOUS
 62
    7
 10
172.04880330890091
 20
284.9014393370951
 11
183.71546999640614
 21
296.56810602460018
  0
LINE
  8
_0-a_極細3
  6
CONTINUOUS
 62
    7
 10
150.83559985859296
 20
284.90143932238357
 11
162.5022665608094
 21
296.56810602460041
  0
LINE
  8
_0-a_極細3
  6
CONTINUOUS
 62
    7
 10
129.62239640828506
 20
284.90143930767249
 11
141.28906312521295
 21
296.56810602460041
  0
LINE
  8
_0-a_極細3
  6
CONTINUOUS
 62
    7
 10
112.91957929172433
 20
289.4118256267077
 11
120.07585968961664
 21
296.56810602460018
  0
LINE
  8
_0-a_極細3
  6
DASHED2
 62
    7
 10
182.65540503405461
 20
284.90143934445064
 11
194.32207171420436
 21
296.56810602460041
  0
LINE
  8
_0-a_極細3
  6
DASHED2
 62
    7
 10
161.44220158374665
 20
284.90143932973933
 11
173.10886827860799
 21
296.56810602460041
  0
LINE
  8
_0-a_極細3
  6
DASHED2
 62
    7
 10
140.22899813343926
 20
284.90143931502803
 11
151.89566484301116
 21
296.56810602460041
  0
LINE
  8
_0-a_極細3
  6
DASHED2
 62
    7
 10
119.0157946831313
 20
284.90143930031695
 11
130.68246140741479
 21
296.56810602460041
  0
CIRCLE
  8
_0-a_極細3
  6
CONTINUOUS
 62
    7
 10
130.81546713489155
 20
275.10484977459373
 40
0.5530864197530718
  0
CIRCLE
  8
_0-a_極細3
  6
CONTINUOUS
 62
    7
 10
172.15867701143452
 20
279.90484977459369
 40
0.5530864197530718
  0
CIRCLE
  8
_0-a_極細3
  6
CONTINUOUS
 62
    7
 10
141.15211286555493
 20
280.71100725916813
 40
1.825531472681392
  0
CIRCLE
  8
_0-a_極細3
  6
CONTINUOUS
 62
    7
 10
120.95503332447556
 20
281.60361520669244
 40
1.825531472681392
  0
LINE
  8
_0-a_極細3
  6
CONTINUOUS
 62
    7
 10
210.4306597701725
 20
296.56810602460041
 11
112.91957929172433
 21
296.56810602460041
  0
LINE
  8
_0-a_極細3
  6
CONTINUOUS
 62
    7
 10
143.7639931035055
 20
251.56810602460041
 11
143.7639931035055
 21
183.23477269126712
  0
LINE
  8
_0-a_極細3
  6
CONTINUOUS
 62
    7
 10
227.09732643683893
 20
183.23477269126712
 11
143.7639931035055
 21
183.23477269126712
  0
LINE
  8
_0-a_極細3
  6
CONTINUOUS
 62
    7
 10
143.7639931035055
 20
251.56810602460041
 11
112.91957929172433
 21
251.56810602460041
  0
LINE
  8
_0-a_極細3
  6
CONTINUOUS
 62
    7
 10
227.09732643683893
 20
183.23477269126712
 11
227.09732643683893
 21
156.99317239648806
  0
LINE
  8
_0-a_極細3
  6
CONTINUOUS
 62
    7
 10
189.67535187184922
 20
156.99317251292499
 11
215.91695205019178
 21
183.23477269126712
  0
LINE
  8
_0-a_極細3
  6
CONTINUOUS
 62
    7
 10
118.96467397320791
 20
156.99317273293809
 11
145.20627393153694
 21
183.23477269126712
  0
LINE
  8
_0-a_極細3
  6
CONTINUOUS
 62
    7
 10
112.91957929172433
 20
221.65875617010943
 11
142.82892914621556
 21
251.56810602460041
  0
LINE
  8
_0-a_極細3
  6
CONTINUOUS
 62
    7
 10
182.60428408198499
 20
156.99317253492632
 11
208.84588423832611
 21
183.23477269126712
  0
LINE
  8
_0-a_極細3
  6
CONTINUOUS
 62
    7
 10
112.91957929172433
 20
158.01914586332009
 11
143.7639931035055
 21
188.86355967510141
  0
LINE
  8
_0-a_極細3
  6
CONTINUOUS
 62
    7
 10
112.91957929172433
 20
228.72982398197496
 11
135.7578613343498
 21
251.56810602460041
  0
LINE
  8
_0-a_極細3
  6
CONTINUOUS
 62
    7
 10
175.53321629212127
 20
156.99317255692768
 11
201.77481642646072
 21
183.23477269126712
  0
LINE
  8
_0-a_極細3
  6
CONTINUOUS
 62
    7
 10
112.91957929172433
 20
165.09021367518562
 11
143.7639931035055
 21
195.93462748696695
  0
LINE
  8
_0-a_極細3
  6
CONTINUOUS
 62
    7
 10
112.91957929172433
 20
235.80089179384029
 11
128.68679352248449
 21
251.56810602460041
  0
CIRCLE
  8
_0-a_極細3
  6
CONTINUOUS
 62
    7
 10
120.48460293736113
 20
256.81596088570495
 40
0.5530864197530718
  0
CIRCLE
  8
_0-a_極細3
  6
CONTINUOUS
 62
    7
 10
131.09201034476831
 20
257.88262755237156
 40
0.5530864197530718
  0
CIRCLE
  8
_0-a_極細3
  6
CONTINUOUS
 62
    7
 10
143.7142325669906
 20
259.83818310792708
 40
0.5530864197530718
  0
CIRCLE
  8
_0-a_極細3
  6
CONTINUOUS
 62
    7
 10
202.73645478921202
 20
265.34929421903826
 40
0.5530864197530718
  0
CIRCLE
  8
_0-a_極細3
  6
CONTINUOUS
 62
    7
 10
177.8475659003233
 20
264.81596088570495
 40
0.5530864197530718
  0
CIRCLE
  8
_0-a_極細3
  6
CONTINUOUS
 62
    7
 10
150.65867701143489
 20
252.5826275523716
 40
0.5530864197530718
  0
CIRCLE
  8
_0-a_極細3
  6
CONTINUOUS
 62
    7
 10
171.10312145587883
 20
251.33818310792708
 40
0.5530864197530718
  0
CIRCLE
  8
_0-a_極細3
  6
CONTINUOUS
 62
    7
 10
196.16978812254544
 20
247.60484977459399
 40
0.5530864197530718
  0
CIRCLE
  8
_0-a_極細3
  6
CONTINUOUS
 62
    7
 10
183.54756590032315
 20
241.91596088570509
 40
0.5530864197530718
  0
CIRCLE
  8
_0-a_極細3
  6
CONTINUOUS
 62
    7
 10
168.79201034476813
 20
228.40484977459394
 40
0.5530864197530718
  0
CIRCLE
  8
_0-a_極細3
  6
CONTINUOUS
 62
    7
 10
196.16978812254544
 20
235.69373866348292
 40
0.5530864197530718
  0
CIRCLE
  8
_0-a_極細3
  6
CONTINUOUS
 62
    7
 10
155.05867701143458
 20
208.58262755237206
 40
0.5530864197530718
  0
CIRCLE
  8
_0-a_極細3
  6
CONTINUOUS
 62
    7
 10
149.36978812254566
 20
190.62707199681654
 40
0.5530864197530718
  0
CIRCLE
  8
_0-a_極細3
  6
CONTINUOUS
 62
    7
 10
158.08089923365691
 20
197.38262755237201
 40
0.5530864197530718
  0
CIRCLE
  8
_0-a_極細3
  6
CONTINUOUS
 62
    7
 10
164.30312145587905
 20
188.84929421903877
 40
0.5530864197530718
  0
CIRCLE
  8
_0-a_極細3
  6
CONTINUOUS
 62
    7
 10
203.60312145587883
 20
206.73818310792765
 40
0.5530864197530718
  0
CIRCLE
  8
_0-a_極細3
  6
CONTINUOUS
 62
    7
 10
192.40312145587899
 20
201.22707199681642
 40
0.5530864197530718
  0
CIRCLE
  8
_0-a_極細3
  6
CONTINUOUS
 62
    7
 10
198.62534367810113
 20
198.73818310792763
 40
0.5530864197530718
  0
CIRCLE
  8
_0-a_極細3
  6
CONTINUOUS
 62
    7
 10
195.0697881225455
 20
189.49373866348338
 40
0.5530864197530718
  0
CIRCLE
  8
_0-a_極細3
  6
CONTINUOUS
 62
    7
 10
214.98089923365654
 20
190.56040533014993
 40
0.5530864197530718
  0
CIRCLE
  8
_0-a_極細3
  6
CONTINUOUS
 62
    7
 10
227.95867701143422
 20
193.76040533015001
 40
0.5530864197530718
  0
CIRCLE
  8
_0-a_極細3
  6
CONTINUOUS
 62
    7
 10
241.64756590032312
 20
178.82707199681681
 40
0.5530864197530718
  0
CIRCLE
  8
_0-a_極細3
  6
CONTINUOUS
 62
    7
 10
234.71423256698969
 20
163.89373866348342
 40
0.5530864197530718
  0
CIRCLE
  8
_0-a_極細3
  6
CONTINUOUS
 62
    7
 10
218.04756590032312
 20
207.50855347829796
 40
0.5530864197530718
  0
CIRCLE
  8
_0-a_極細3
  6
CONTINUOUS
 62
    7
 10
232.80312145587862
 20
241.64188681163114
 40
0.5530864197530718
  0
CIRCLE
  8
_0-a_極細3
  6
CONTINUOUS
 62
    7
 10
247.91423256698948
 20
231.68633125607562
 40
0.5530864197530718
  0
CIRCLE
  8
_0-a_極細3
  6
CONTINUOUS
 62
    7
 10
248.44756590032276
 20
213.7307757005201
 40
0.5530864197530718
  0
CIRCLE
  8
_0-a_極細3
  6
CONTINUOUS
 62
    7
 10
213.20312145587877
 20
243.46410903385322
 40
0.5530864197530718
  0
CIRCLE
  8
_0-a_極細3
  6
CONTINUOUS
 62
    7
 10
192.91423256698991
 20
265.4480596511371
 40
1.825531472681392
  0
CIRCLE
  8
_0-a_極細3
  6
CONTINUOUS
 62
    7
 10
167.69201034476779
 20
242.64805965113715
 40
1.825531472681392
  0
CIRCLE
  8
_0-a_極細3
  6
CONTINUOUS
 62
    7
 10
148.09201034476786
 20
204.6480596511376
 40
1.825531472681392
  0
CIRCLE
  8
_0-a_極細3
  6
CONTINUOUS
 62
    7
 10
201.29201034476722
 20
191.84805965113787
 40
1.825531472681392
  0
CIRCLE
  8
_0-a_極細3
  6
CONTINUOUS
 62
    7
 10
237.26978812254487
 20
188.24805965113796
 40
1.825531472681392
  0
CIRCLE
  8
_0-a_極細3
  6
CONTINUOUS
 62
    7
 10
242.06978812254462
 20
169.58139298447151
 40
1.825531472681392
  0
LINE
  8
_0-a_極細3
  6
CONTINUOUS
 62
    7
 10
259.5973264368389
 20
258.23477269126715
 11
260.4306597701725
 21
258.23477269126715
  0
LINE
  8
_0-a_極細3
  6
CONTINUOUS
 62
    7
 10
260.4306597701725
 20
258.23477269126715
 11
260.4306597701725
 21
156.99317239648806
  0
CIRCLE
  8
_0-a_極細3
  6
CONTINUOUS
 62
    7
 10
253.54322562254353
 20
242.24805965113774
 40
1.825531472681392
  0
CIRCLE
  8
_0-a_極細3
  6
CONTINUOUS
 62
    7
 10
252.55126960402634
 20
187.53818310792781
 40
0.5530864197530718
  0
CIRCLE
  8
_0-a_極細3
  6
CONTINUOUS
 62
    7
 10
253.88460293736031
 20
164.882112074758
 40
0.5530864197530718
  0
CIRCLE
  8
_0-a_極細3
  6
CONTINUOUS
 62
    7
 10
241.51423256698536
 20
223.13694854002691
 40
1.825531472681392
  0
LINE
  8
_0-a_極細3
  6
CONTINUOUS
 62
    7
 10
166.79059154968712
 20
208.11647385377071
 11
161.66028939980194
 21
222.21186316555918
  0
LINE
  8
_0-a_極細3
  6
CONTINUOUS
 62
    7
 10
216.78463422348358
 20
242.27548386480547
 11
221.91493637336833
 21
228.18009455301694
  0
LINE
  8
_0-a_極細3
  6
CONTINUOUS
 62
    7
 10
161.66028939980194
 20
222.21186316555918
 11
216.78463422348358
 21
242.27548386480547
  0
LINE
  8
_0-a_極細3
  6
CONTINUOUS
 62
    7
 10
166.79059154968712
 20
208.11647385377071
 11
221.91493637336833
 21
228.18009455301694
  0
LINE
  8
_0-a_極細3
  6
CENTER1
 62
    7
 10
159.27000708275173
 20
213.360538469635
 11
223.3010275653175
 21
236.66592395467049
  0
LINE
  8
_0-a_極細3
  6
CONTINUOUS
 62
    7
 10
185.4306597701725
 20
183.23477269126712
 11
185.4306597701725
 21
227.32033403958326
  0
LINE
  8
_0-a_極細3
  6
CONTINUOUS
 62
    7
 10
185.4306597701725
 20
227.32033403958326
 11
170.4306597701725
 21
227.32033403958326
  0
LINE
  8
_0-a_極細3
  6
CONTINUOUS
 62
    7
 10
170.4306597701725
 20
227.32033403958326
 11
170.4306597701725
 21
183.23477269126712
  0
CIRCLE
  8
_0-a_極細3
  6
CONTINUOUS
 62
    7
 10
199.81052886328641
 20
213.15670162644597
 40
1.825531472681392
  0
CIRCLE
  8
_0-a_極細3
  6
CONTINUOUS
 62
    7
 10
221.51917083859502
 20
219.37892384866839
 40
1.825531472681392
  0
LINE
  8
_0-a_極細3
  6
CENTER1
 62
    7
 10
177.9306597701725
 20
174.95803240681425
 11
177.9306597701725
 21
231.59605420419282
  0
LINE
  8
_0-d_寸法3
  6
CONTINUOUS
 62
    7
 10
200.4306597701725
 20
296.56810602460047
 11
154.48062869158292
 21
296.56810602460041
  0
LINE
  8
_0-d_寸法3
  6
CONTINUOUS
 62
    7
 10
159.48062869158292
 20
296.56810602460041
 11
162.06881914260805
 21
286.90884776170969
  0
LINE
  8
_0-d_寸法3
  6
CONTINUOUS
 62
    7
 10
159.48062869158292
 20
296.56810602460041
 11
156.89243824055765
 21
286.90884776170975
  0
LINE
  8
_0-d_寸法3
  6
CONTINUOUS
 62
    7
 10
198.43065977017247
 20
258.23477269126721
 11
154.48062869158315
 21
258.23477269126715
  0
LINE
  8
_0-d_寸法3
  6
CONTINUOUS
 62
    7
 10
159.48062869158315
 20
258.23477269126715
 11
156.89243824055794
 21
267.89403095415781
  0
LINE
  8
_0-d_寸法3
  6
CONTINUOUS
 62
    7
 10
159.48062869158315
 20
258.23477269126715
 11
162.06881914260833
 21
267.89403095415787
  0
LINE
  8
_0-d_寸法3
  6
CONTINUOUS
 62
    7
 10
159.48062869158292
 20
296.56810602460041
 11
159.48062869158315
 21
258.23477269126715
  0
TEXT
  8
_0-d_寸法3
 62
    7
 10
159.48062869158315
 20
269.9014393579339
 40
15
 41
1
 50
90
  1
23
  0
LINE
  8
_0-d_寸法3
  6
CONTINUOUS
 62
    7
 10
200.4306597701725
 20
258.23477269126698
 11
154.48062869158315
 21
258.23477269126693
  0
LINE
  8
_0-d_寸法3
  6
CONTINUOUS
 62
    7
 10
159.48062869158315
 20
258.23477269126693
 11
162.06881914260833
 21
248.57551442837627
  0
LINE
  8
_0-d_寸法3
  6
CONTINUOUS
 62
    7
 10
159.48062869158315
 20
258.23477269126693
 11
156.89243824055794
 21
248.57551442837629
  0
LINE
  8
_0-d_寸法3
  6
CONTINUOUS
 62
    7
 10
198.43065977017247
 20
219.9014393579337
 11
154.48062869158315
 21
219.9014393579337
  0
LINE
  8
_0-d_寸法3
  6
CONTINUOUS
 62
    7
 10
159.48062869158315
 20
219.9014393579337
 11
156.89243824055794
 21
229.56069762082436
  0
LINE
  8
_0-d_寸法3
  6
CONTINUOUS
 62
    7
 10
159.48062869158315
 20
219.9014393579337
 11
162.06881914260833
 21
229.56069762082436
  0
LINE
  8
_0-d_寸法3
  6
CONTINUOUS
 62
    7
 10
159.48062869158315
 20
258.23477269126693
 11
159.48062869158315
 21
219.9014393579337
  0
TEXT
  8
_0-d_寸法3
 62
    7
 10
159.48062869158315
 20
231.56810602460041
 40
15
 41
1
 50
90
  1
23
  0
LINE
  8
_0-d_寸法3
  6
CONTINUOUS
 62
    7
 10
210.4306597701725
 20
209.9014393579339
 11
210.4306597701725
 21
192.7567474570285
  0
LINE
  8
_0-d_寸法3
  6
CONTINUOUS
 62
    7
 10
210.4306597701725
 20
197.7567474570285
 11
220.08991803306316
 21
200.34493790805371
  0
LINE
  8
_0-d_寸法3
  6
CONTINUOUS
 62
    7
 10
210.4306597701725
 20
197.7567474570285
 11
220.08991803306316
 21
195.16855700600331
  0
LINE
  8
_0-d_寸法3
  6
CONTINUOUS
 62
    7
 10
260.43065977017238
 20
248.23477269126715
 11
260.4306597701717
 21
192.7567474570285
  0
LINE
  8
_0-d_寸法3
  6
CONTINUOUS
 62
    7
 10
260.43065977017181
 20
197.7567474570285
 11
250.77140150728113
 21
195.16855700600331
  0
LINE
  8
_0-d_寸法3
  6
CONTINUOUS
 62
    7
 10
260.43065977017181
 20
197.7567474570285
 11
250.77140150728113
 21
200.34493790805371
  0
LINE
  8
_0-d_寸法3
  6
CONTINUOUS
 62
    7
 10
210.4306597701725
 20
197.7567474570285
 11
260.43065977017181
 21
197.7567474570285
  0
TEXT
  8
_0-d_寸法3
 62
    7
 10
227.93065977017199
 20
197.7567474570285
 40
15
 41
1
 50
0
  1
30
  0
ARC
  8
_0-b_細線3
  6
CONTINUOUS
 62
    7
 10
215.4306597701725
 20
263.23477269126715
 40
5
 50
179.99999999999983
 51
269.99999999999977
  0
LINE
  8
_0-b_細線3
  6
CONTINUOUS
 62
    7
 10
210.4306597701725
 20
263.23477269126715
 11
210.4306597701725
 21
295.73477269126693
  0
LINE
  8
_0-b_細線3
  6
CONTINUOUS
 62
    7
 10
215.4306597701725
 20
258.23477269126715
 11
259.5973264368389
 21
258.23477269126715
  0
LINE
  8
_0-b_細線3
  6
CONTINUOUS
 62
    7
 10
260.4306597701725
 20
259.06810602460041
 11
259.5973264368389
 21
258.23477269126715
  0
LINE
  8
_0-b_細線3
  6
CONTINUOUS
 62
    7
 10
260.4306597701725
 20
262.4014393579339
 11
260.4306597701725
 21
259.06810602460041
  0
LINE
  8
_0-b_細線3
  6
CONTINUOUS
 62
    7
 10
259.5973264368389
 20
263.23477269126715
 11
260.4306597701725
 21
262.4014393579339
  0
LINE
  8
_0-b_細線3
  6
CONTINUOUS
 62
    7
 10
215.4306597701725
 20
263.23477269126715
 11
259.5973264368389
 21
263.23477269126715
  0
LINE
  8
_0-b_細線3
  6
CONTINUOUS
 62
    7
 10
211.2639931035055
 20
296.56810602460041
 11
210.4306597701725
 21
295.73477269126693
  0
LINE
  8
_0-b_細線3
  6
CONTINUOUS
 62
    7
 10
214.59732643683893
 20
296.56810602460041
 11
211.2639931035055
 21
296.56810602460041
  0
LINE
  8
_0-b_細線3
  6
CONTINUOUS
 62
    7
 10
215.4306597701725
 20
295.73477269126693
 11
214.59732643683893
 21
296.56810602460041
  0
LINE
  8
_0-b_細線3
  6
CONTINUOUS
 62
    7
 10
215.4306597701725
 20
263.23477269126715
 11
215.4306597701725
 21
295.73477269126693
  0
ARC
  8
_0-b_細線3
  6
CONTINUOUS
 62
    7
 10
283.7639931035057
 20
317.70421713571136
 40
46.136111111111113
 50
256.63227178393214
 51
283.36772821606741
  0
ARC
  8
_0-b_細線3
  6
CONTINUOUS
 62
    7
 10
283.7639931035057
 20
242.0986615801562
 40
46.136111111111113
 50
76.632271783932239
 51
103.36772821606749
  0
LINE
  8
_0-b_細線3
  6
CONTINUOUS
 62
    7
 10
278.76399310350553
 20
294.56810602460041
 11
278.76399310350553
 21
296.56810602460041
  0
LINE
  8
_0-b_細線3
  6
CONTINUOUS
 62
    7
 10
273.09732643683913
 20
294.56810602460041
 11
278.76399310350553
 21
294.56810602460041
  0
LINE
  8
_0-b_細線3
  6
CONTINUOUS
 62
    7
 10
273.09732643683913
 20
263.23477269126715
 11
273.09732643683913
 21
294.56810602460041
  0
LINE
  8
_0-b_細線3
  6
CONTINUOUS
 62
    7
 10
271.09732643683918
 20
263.23477269126715
 11
273.09732643683913
 21
263.23477269126715
  0
LINE
  8
_0-b_細線3
  6
CONTINUOUS
 62
    7
 10
271.09732643683918
 20
294.56810602460041
 11
271.09732643683918
 21
263.23477269126715
  0
LINE
  8
_0-b_細線3
  6
CONTINUOUS
 62
    7
 10
265.4306597701725
 20
294.56810602460041
 11
271.09732643683918
 21
294.56810602460041
  0
LINE
  8
_0-b_細線3
  6
CONTINUOUS
 62
    7
 10
265.4306597701725
 20
296.56810602460041
 11
265.4306597701725
 21
294.56810602460041
  0
LINE
  8
_0-b_細線3
  6
CONTINUOUS
 62
    7
 10
278.76399310350553
 20
296.56810602460041
 11
265.4306597701725
 21
296.56810602460041
  0
ARC
  8
_0-b_細線3
  6
CONTINUOUS
 62
    7
 10
260.4306597701725
 20
317.70421713571136
 40
46.136111111111113
 50
256.63227178393186
 51
283.36772821606712
  0
ARC
  8
_0-b_細線3
  6
CONTINUOUS
 62
    7
 10
260.4306597701725
 20
242.0986615801562
 40
46.136111111111113
 50
76.632271783932524
 51
103.36772821606777
  0
LINE
  8
_0-b_細線3
  6
CONTINUOUS
 62
    7
 10
255.43065977017221
 20
294.56810602460041
 11
255.43065977017221
 21
296.56810602460041
  0
LINE
  8
_0-b_細線3
  6
CONTINUOUS
 62
    7
 10
249.76399310350573
 20
294.56810602460041
 11
255.43065977017221
 21
294.56810602460041
  0
LINE
  8
_0-b_細線3
  6
CONTINUOUS
 62
    7
 10
249.76399310350573
 20
263.23477269126715
 11
249.76399310350573
 21
294.56810602460041
  0
LINE
  8
_0-b_細線3
  6
CONTINUOUS
 62
    7
 10
247.7639931035057
 20
263.23477269126715
 11
249.76399310350573
 21
263.23477269126715
  0
LINE
  8
_0-b_細線3
  6
CONTINUOUS
 62
    7
 10
247.7639931035057
 20
294.56810602460041
 11
247.7639931035057
 21
263.23477269126715
  0
LINE
  8
_0-b_細線3
  6
CONTINUOUS
 62
    7
 10
242.09732643683921
 20
294.56810602460041
 11
247.7639931035057
 21
294.56810602460041
  0
LINE
  8
_0-b_細線3
  6
CONTINUOUS
 62
    7
 10
242.09732643683921
 20
296.56810602460041
 11
242.09732643683921
 21
294.56810602460041
  0
LINE
  8
_0-b_細線3
  6
CONTINUOUS
 62
    7
 10
255.43065977017221
 20
296.56810602460041
 11
242.09732643683921
 21
296.56810602460041
  0
ARC
  8
_0-b_細線3
  6
CONTINUOUS
 62
    7
 10
237.09732643683893
 20
317.70421713571136
 40
46.136111111111113
 50
256.63227178393214
 51
283.36772821606741
  0
ARC
  8
_0-b_細線3
  6
CONTINUOUS
 62
    7
 10
237.09732643683893
 20
242.0986615801562
 40
46.136111111111113
 50
76.632271783932239
 51
103.36772821606749
  0
LINE
  8
_0-b_細線3
  6
CONTINUOUS
 62
    7
 10
232.09732643683878
 20
294.56810602460041
 11
232.09732643683878
 21
296.56810602460041
  0
LINE
  8
_0-b_細線3
  6
CONTINUOUS
 62
    7
 10
226.43065977017244
 20
294.56810602460041
 11
232.09732643683878
 21
294.56810602460041
  0
LINE
  8
_0-b_細線3
  6
CONTINUOUS
 62
    7
 10
226.43065977017244
 20
263.23477269126715
 11
226.43065977017244
 21
294.56810602460041
  0
LINE
  8
_0-b_細線3
  6
CONTINUOUS
 62
    7
 10
224.43065977017241
 20
263.23477269126715
 11
226.43065977017244
 21
263.23477269126715
  0
LINE
  8
_0-b_細線3
  6
CONTINUOUS
 62
    7
 10
224.43065977017241
 20
294.56810602460041
 11
224.43065977017241
 21
263.23477269126715
  0
LINE
  8
_0-b_細線3
  6
CONTINUOUS
 62
    7
 10
218.7639931035057
 20
294.56810602460041
 11
224.43065977017241
 21
294.56810602460041
  0
LINE
  8
_0-b_細線3
  6
CONTINUOUS
 62
    7
 10
218.7639931035057
 20
296.56810602460041
 11
218.7639931035057
 21
294.56810602460041
  0
LINE
  8
_0-b_細線3
  6
CONTINUOUS
 62
    7
 10
232.09732643683878
 20
296.56810602460041
 11
218.7639931035057
 21
296.56810602460041
  0
ARC
  8
_0-b_細線3
  6
CONTINUOUS
 62
    7
 10
307.0973264368385
 20
317.70421713571136
 40
46.136111111111113
 50
256.63227178393214
 51
283.36772821606769
  0
ARC
  8
_0-b_細線3
  6
CONTINUOUS
 62
    7
 10
307.0973264368385
 20
242.0986615801562
 40
46.136111111111113
 50
76.632271783931969
 51
103.36772821606749
  0
LINE
  8
_0-b_細線3
  6
CONTINUOUS
 62
    7
 10
302.09732643683827
 20
294.56810602460041
 11
302.09732643683827
 21
296.56810602460041
  0
LINE
  8
_0-b_細線3
  6
CONTINUOUS
 62
    7
 10
296.43065977017204
 20
294.56810602460041
 11
302.09732643683827
 21
294.56810602460041
  0
LINE
  8
_0-b_細線3
  6
CONTINUOUS
 62
    7
 10
296.43065977017204
 20
263.23477269126715
 11
296.43065977017204
 21
294.56810602460041
  0
LINE
  8
_0-b_細線3
  6
CONTINUOUS
 62
    7
 10
294.43065977017199
 20
263.23477269126715
 11
296.43065977017204
 21
263.23477269126715
  0
LINE
  8
_0-b_細線3
  6
CONTINUOUS
 62
    7
 10
294.43065977017199
 20
294.56810602460041
 11
294.43065977017199
 21
263.23477269126715
  0
LINE
  8
_0-b_細線3
  6
CONTINUOUS
 62
    7
 10
288.76399310350519
 20
294.56810602460041
 11
294.43065977017199
 21
294.56810602460041
  0
LINE
  8
_0-b_細線3
  6
CONTINUOUS
 62
    7
 10
288.76399310350519
 20
296.56810602460041
 11
288.76399310350519
 21
294.56810602460041
  0
LINE
  8
_0-b_細線3
  6
CONTINUOUS
 62
    7
 10
302.09732643683827
 20
296.56810602460041
 11
288.76399310350519
 21
296.56810602460041
  0
CIRCLE
  8
_0-a_極細3
  6
CONTINUOUS
 62
    7
 10
802.42534367809742
 20
281.83355347829706
 40
0.5530864197530718
  0
CIRCLE
  8
_0-a_極細3
  6
CONTINUOUS
 62
    7
 10
750.42534367809776
 20
282.76688681163046
 40
0.5530864197530718
  0
LINE
  8
_0-a_極細3
  6
CONTINUOUS
 62
    7
 10
738.76399310350553
 20
296.56810602460041
 11
738.76399310350553
 21
284.90143935793344
  0
LINE
  8
_0-a_極細3
  6
CONTINUOUS
 62
    7
 10
730.43065977017204
 20
284.90143935793344
 11
827.94174024862014
 21
284.90143935793344
  0
LINE
  8
_0-a_極細3
  6
CONTINUOUS
 62
    7
 10
730.43065977017204
 20
295.73477269126693
 11
730.43065977017204
 21
296.56810602460041
  0
LINE
  8
_0-a_極細3
  6
CONTINUOUS
 62
    7
 10
738.76399310350553
 20
288.57052563865841
 11
735.09490682278056
 21
284.90143935793344
  0
LINE
  8
_0-a_極細3
  6
CONTINUOUS
 62
    7
 10
738.76399310350553
 20
292.8131663257775
 11
730.85226613566147
 21
284.90143935793344
  0
LINE
  8
_0-a_極細3
  6
CONTINUOUS
 62
    7
 10
730.43065977017204
 20
288.72247367956356
 11
738.27629211520889
 21
296.56810602460041
  0
LINE
  8
_0-a_極細3
  6
CONTINUOUS
 62
    7
 10
730.43065977017204
 20
292.96511436668288
 11
734.03365142808934
 21
296.56810602460018
  0
LINE
  8
_0-a_極細3
  6
CONTINUOUS
 62
    7
 10
738.76399310350553
 20
295.05878381509478
 11
737.25467089400001
 21
296.56810602460041
  0
LINE
  8
_0-a_極細3
  6
CONTINUOUS
 62
    7
 10
738.76399310350553
 20
290.81614312797547
 11
733.01203020688081
 21
296.56810602460041
  0
LINE
  8
_0-a_極細3
  6
CONTINUOUS
 62
    7
 10
738.76399310350553
 20
286.57350244085615
 11
730.43065977017204
 21
294.90683577418963
  0
LINE
  8
_0-a_極細3
  6
CONTINUOUS
 62
    7
 10
736.19341549930868
 20
284.90143935793344
 11
730.43065977017204
 21
290.66419508707031
  0
LINE
  8
_0-a_極細3
  6
CONTINUOUS
 62
    7
 10
731.95077481218959
 20
284.90143935793344
 11
730.43065977017204
 21
286.42155439995099
  0
LINE
  8
_0-a_極細3
  6
CONTINUOUS
 62
    7
 10
807.21979850380831
 20
284.90143935793344
 11
818.88646454368609
 21
296.56810539781122
  0
LINE
  8
_0-a_極細3
  6
CONTINUOUS
 62
    7
 10
786.00659506821205
 20
284.90143935793367
 11
797.67326127403851
 21
296.5681055637599
  0
LINE
  8
_0-a_極細3
  6
CONTINUOUS
 62
    7
 10
764.79339163261557
 20
284.90143935793344
 11
776.46005800439025
 21
296.56810572970812
  0
LINE
  8
_0-a_極細3
  6
CONTINUOUS
 62
    7
 10
743.5801881970192
 20
284.90143935793344
 11
755.24685473474267
 21
296.5681058956568
  0
LINE
  8
_0-a_極細3
  6
DASHED2
 62
    7
 10
817.82640022160706
 20
284.90143935793367
 11
827.94174024862014
 21
295.01677938494709
  0
LINE
  8
_0-a_極細3
  6
DASHED2
 62
    7
 10
796.61319678601012
 20
284.90143935793344
 11
808.27986290886201
 21
296.56810548078533
  0
LINE
  8
_0-a_極細3
  6
DASHED2
 62
    7
 10
775.39999335041387
 20
284.90143935793344
 11
787.06665963921432
 21
296.56810564673401
  0
LINE
  8
_0-a_極細3
  6
DASHED2
 62
    7
 10
754.18678991481738
 20
284.90143935793344
 11
765.85345636956617
 21
296.56810581268246
  0
LINE
  8
_0-a_極細3
  6
DASHED2
 62
    7
 10
738.76399310350553
 20
290.69184598221796
 11
744.64025309991848
 21
296.56810597863091
  0
CIRCLE
  8
_0-a_極細3
  6
CONTINUOUS
 62
    7
 10
810.42534367809697
 20
282.20361520669235
 40
1.825531472681392
  0
CIRCLE
  8
_0-a_極細3
  6
CONTINUOUS
 62
    7
 10
771.7586770114309
 20
278.78139298447036
 40
1.825531472681392
  0
LINE
  8
_0-a_極細3
  6
CONTINUOUS
 62
    7
 10
730.43065977017204
 20
296.56810602460041
 11
827.94174024862014
 21
296.56810602460041
  0
LINE
  8
_0-a_極細3
  6
CONTINUOUS
 62
    7
 10
797.09732643683867
 20
251.56810602460041
 11
797.09732643683867
 21
183.23477269126712
  0
LINE
  8
_0-a_極細3
  6
CONTINUOUS
 62
    7
 10
713.76399310350553
 20
183.23477269126712
 11
797.09732643683867
 21
183.23477269126712
  0
LINE
  8
_0-a_極細3
  6
CONTINUOUS
 62
    7
 10
797.09732643683867
 20
251.56810602460041
 11
827.94174024862014
 21
251.56810602460041
  0
LINE
  8
_0-a_極細3
  6
CONTINUOUS
 62
    7
 10
713.76399310350553
 20
183.23477269126712
 11
713.76399310350553
 21
156.99317239648806
  0
LINE
  8
_0-a_極細3
  6
CONTINUOUS
 62
    7
 10
805.3873288514319
 20
156.99317239648806
 11
827.94174029016085
 21
179.54758383521698
  0
LINE
  8
_0-a_極細3
  6
CONTINUOUS
 62
    7
 10
734.67665073277703
 20
156.99317239648806
 11
760.91825102755593
 21
183.23477269126712
  0
LINE
  8
_0-a_極細3
  6
CONTINUOUS
 62
    7
 10
797.09732643683867
 20
219.41384810054981
 11
827.94174024937547
 21
250.2582619130867
  0
LINE
  8
_0-a_極細3
  6
CONTINUOUS
 62
    7
 10
798.31626103956626
 20
156.99317239648806
 11
827.94174028608222
 21
186.61865164300409
  0
LINE
  8
_0-a_極細3
  6
CONTINUOUS
 62
    7
 10
727.60558292091127
 20
156.99317239648806
 11
753.84718321569062
 21
183.23477269126712
  0
LINE
  8
_0-a_極細3
  6
CONTINUOUS
 62
    7
 10
797.09732643683867
 20
226.48491591241535
 11
822.18051636947348
 21
251.56810584505001
  0
LINE
  8
_0-a_極細3
  6
CONTINUOUS
 62
    7
 10
791.24519322770084
 20
156.99317239648806
 11
827.94174028200359
 21
193.68971945079102
  0
LINE
  8
_0-a_極細3
  6
CONTINUOUS
 62
    7
 10
720.53451510904597
 20
156.99317239648806
 11
746.77611540382532
 21
183.23477269126712
  0
LINE
  8
_0-a_極細3
  6
CONTINUOUS
 62
    7
 10
797.09732643683867
 20
233.55598372428088
 11
815.10944860822428
 21
251.56810589566615
  0
CIRCLE
  8
_0-a_極細3
  6
CONTINUOUS
 62
    7
 10
700.16978812254274
 20
242.08910903385322
 40
0.5530864197530718
  0
CIRCLE
  8
_0-a_極細3
  6
CONTINUOUS
 62
    7
 10
710.12534367809803
 20
246.8891090338532
 40
0.5530864197530718
  0
CIRCLE
  8
_0-a_極細3
  6
CONTINUOUS
 62
    7
 10
706.03645478920953
 20
221.91133125607578
 40
0.5530864197530718
  0
CIRCLE
  8
_0-a_極細3
  6
CONTINUOUS
 62
    7
 10
723.56978812254283
 20
204.8891090338536
 40
0.5530864197530718
  0
CIRCLE
  8
_0-a_極細3
  6
CONTINUOUS
 62
    7
 10
705.73645478920935
 20
181.5891090338539
 40
0.5530864197530718
  0
CIRCLE
  8
_0-a_極細3
  6
CONTINUOUS
 62
    7
 10
696.40312145587632
 20
163.72244236718734
 40
0.5530864197530718
  0
CIRCLE
  8
_0-a_極細3
  6
CONTINUOUS
 62
    7
 10
707.86978812254256
 20
193.58910903385365
 40
0.5530864197530718
  0
CIRCLE
  8
_0-a_極細3
  6
CONTINUOUS
 62
    7
 10
721.73645478920935
 20
188.78910903385375
 40
0.5530864197530718
  0
CIRCLE
  8
_0-a_極細3
  6
CONTINUOUS
 62
    7
 10
748.66978812254274
 20
189.05577570052037
 40
0.5530864197530718
  0
CIRCLE
  8
_0-a_極細3
  6
CONTINUOUS
 62
    7
 10
736.66978812254274
 20
198.12244236718698
 40
0.5530864197530718
  0
CIRCLE
  8
_0-a_極細3
  6
CONTINUOUS
 62
    7
 10
747.86978812254256
 20
203.72244236718686
 40
0.5530864197530718
  0
CIRCLE
  8
_0-a_極細3
  6
CONTINUOUS
 62
    7
 10
735.89201034476446
 20
258.01133125607521
 40
0.5530864197530718
  0
CIRCLE
  8
_0-a_極細3
  6
CONTINUOUS
 62
    7
 10
756.42534367809776
 20
257.30022014496421
 40
0.5530864197530718
  0
CIRCLE
  8
_0-a_極細3
  6
CONTINUOUS
 62
    7
 10
744.82534367809785
 20
243.30022014496421
 40
0.5530864197530718
  0
CIRCLE
  8
_0-a_極細3
  6
CONTINUOUS
 62
    7
 10
784.02534367809778
 20
190.10022014496485
 40
0.5530864197530718
  0
CIRCLE
  8
_0-a_極細3
  6
CONTINUOUS
 62
    7
 10
791.22534367809749
 20
204.10022014496491
 40
0.5530864197530718
  0
CIRCLE
  8
_0-a_極細3
  6
CONTINUOUS
 62
    7
 10
789.62534367809724
 20
224.90022014496461
 40
0.5530864197530718
  0
CIRCLE
  8
_0-a_極細3
  6
CONTINUOUS
 62
    7
 10
771.62534367809769
 20
246.1002201449644
 40
0.5530864197530718
  0
CIRCLE
  8
_0-a_極細3
  6
CONTINUOUS
 62
    7
 10
788.42534367809731
 20
265.70022014496408
 40
0.5530864197530718
  0
CIRCLE
  8
_0-a_極細3
  6
CONTINUOUS
 62
    7
 10
785.62534367809712
 20
238.90022014496438
 40
0.5530864197530718
  0
CIRCLE
  8
_0-a_極細3
  6
CONTINUOUS
 62
    7
 10
815.22534367809715
 20
260.10022014496417
 40
0.5530864197530718
  0
CIRCLE
  8
_0-a_極細3
  6
CONTINUOUS
 62
    7
 10
794.78089923365269
 20
258.40361520669262
 40
1.825531472681392
  0
CIRCLE
  8
_0-a_極細3
  6
CONTINUOUS
 62
    7
 10
739.35867701143127
 20
264.9813929844704
 40
1.825531472681392
  0
CIRCLE
  8
_0-a_極細3
  6
CONTINUOUS
 62
    7
 10
771.3586770114307
 20
232.98139298447066
 40
1.825531472681392
  0
CIRCLE
  8
_0-a_極細3
  6
CONTINUOUS
 62
    7
 10
700.96423256698745
 20
188.43139298447113
 40
1.825531472681392
  0
CIRCLE
  8
_0-a_極細3
  6
CONTINUOUS
 62
    7
 10
711.18645478920928
 20
218.29805965113769
 40
1.825531472681392
  0
CIRCLE
  8
_0-a_極細3
  6
CONTINUOUS
 62
    7
 10
746.3864547892091
 20
195.89805965113783
 40
1.825531472681392
  0
CIRCLE
  8
_0-a_極細3
  6
CONTINUOUS
 62
    7
 10
792.65164742449269
 20
185.71100725916835
 40
1.825531472681392
  0
CIRCLE
  8
_0-a_極細3
  6
CONTINUOUS
 62
    7
 10
741.98645478920889
 20
239.09805965113745
 40
1.825531472681392
  0
CIRCLE
  8
_0-a_極細3
  6
CONTINUOUS
 62
    7
 10
694.52040540649352
 20
233.67485424410097
 40
0.5530864197530718
  0
CIRCLE
  8
_0-a_極細3
  6
CONTINUOUS
 62
    7
 10
694.72040540649414
 20
209.71929868854571
 40
0.5530864197530718
  0
LINE
  8
_0-a_極細3
  6
CONTINUOUS
 62
    7
 10
681.26399310350462
 20
258.23477269126715
 11
680.43065977017159
 21
258.23477269126715
  0
LINE
  8
_0-a_極細3
  6
CONTINUOUS
 62
    7
 10
680.43065977017159
 20
258.23477269126715
 11
680.43065977017159
 21
156.99317239648806
  0
CIRCLE
  8
_0-a_極細3
  6
CONTINUOUS
 62
    7
 10
686.41505561225495
 20
218.17799792274243
 40
0.5530864197530718
  0
CIRCLE
  8
_0-a_極細3
  6
CONTINUOUS
 62
    7
 10
687.72163997439475
 20
178.92244236718716
 40
0.5530864197530718
  0
CIRCLE
  8
_0-a_極細3
  6
CONTINUOUS
 62
    7
 10
687.08275108550527
 20
244.87583742891573
 40
1.825531472681392
  0
CIRCLE
  8
_0-a_極細3
  6
CONTINUOUS
 62
    7
 10
690.03089923365326
 20
172.25361520669324
 40
1.825531472681392
  0
LINE
  8
_0-a_極細3
  6
CONTINUOUS
 62
    7
 10
774.07072799065747
 20
208.11647385377071
 11
779.20103014054257
 21
222.21186316555918
  0
LINE
  8
_0-a_極細3
  6
CONTINUOUS
 62
    7
 10
724.07668531686113
 20
242.27548386480547
 11
718.94638316697637
 21
228.18009455301694
  0
LINE
  8
_0-a_極細3
  6
CONTINUOUS
 62
    7
 10
779.20103014054257
 20
222.21186316555918
 11
724.07668531686113
 21
242.27548386480547
  0
LINE
  8
_0-a_極細3
  6
CONTINUOUS
 62
    7
 10
774.07072799065747
 20
208.11647385377071
 11
718.94638316697637
 21
228.18009455301694
  0
LINE
  8
_0-a_極細3
  6
CENTER1
 62
    7
 10
781.59131245759284
 20
213.360538469635
 11
717.56029197502721
 21
236.66592395467049
  0
LINE
  8
_0-a_極細3
  6
CONTINUOUS
 62
    7
 10
755.43065977017204
 20
183.23477269126712
 11
755.43065977017204
 21
227.32033403958326
  0
LINE
  8
_0-a_極細3
  6
CONTINUOUS
 62
    7
 10
755.43065977017204
 20
227.32033403958326
 11
770.43065977017204
 21
227.32033403958326
  0
LINE
  8
_0-a_極細3
  6
CONTINUOUS
 62
    7
 10
770.43065977017204
 20
227.32033403958326
 11
770.43065977017204
 21
183.23477269126712
  0
LINE
  8
_0-a_極細3
  6
CENTER1
 62
    7
 10
762.93065977017204
 20
174.95803240681425
 11
762.93065977017204
 21
231.59605420419282
  0
CIRCLE
  8
_0-a_極細3
  6
CONTINUOUS
 62
    7
 10
757.04756590032048
 20
240.3965164412607
 40
0.5530864197530718
  0
CIRCLE
  8
_0-a_極細3
  6
CONTINUOUS
 62
    7
 10
779.26375245724739
 20
227.05330656471779
 40
0.5530864197530718
  0
LINE
  8
_0-d_寸法3
  6
CONTINUOUS
 62
    7
 10
730.4306597701725
 20
209.9014393579339
 11
730.4306597701725
 21
192.7567474570285
  0
LINE
  8
_0-d_寸法3
  6
CONTINUOUS
 62
    7
 10
730.4306597701725
 20
197.7567474570285
 11
720.77140150728178
 21
195.16855700600331
  0
LINE
  8
_0-d_寸法3
  6
CONTINUOUS
 62
    7
 10
730.4306597701725
 20
197.7567474570285
 11
720.77140150728178
 21
200.34493790805371
  0
LINE
  8
_0-d_寸法3
  6
CONTINUOUS
 62
    7
 10
680.4306597701725
 20
248.23477269126715
 11
680.4306597701725
 21
192.7567474570285
  0
LINE
  8
_0-d_寸法3
  6
CONTINUOUS
 62
    7
 10
680.4306597701725
 20
197.7567474570285
 11
690.08991803306333
 21
200.34493790805371
  0
LINE
  8
_0-d_寸法3
  6
CONTINUOUS
 62
    7
 10
680.4306597701725
 20
197.7567474570285
 11
690.08991803306333
 21
195.16855700600331
  0
LINE
  8
_0-d_寸法3
  6
CONTINUOUS
 62
    7
 10
730.4306597701725
 20
197.7567474570285
 11
680.4306597701725
 21
197.7567474570285
  0
TEXT
  8
_0-d_寸法3
 62
    7
 10
697.9306597701725
 20
197.75674745702844
 40
15
 41
1
 50
0.0000000000005428
  1
30
  0
ARC
  8
_0-b_細線3
  6
CONTINUOUS
 62
    7
 10
725.43065977017204
 20
263.23477269126715
 40
5
 50
269.99999999999977
 51
359.99999999999966
  0
LINE
  8
_0-b_細線3
  6
CONTINUOUS
 62
    7
 10
730.43065977017204
 20
263.23477269126715
 11
730.43065977017204
 21
295.73477269126693
  0
LINE
  8
_0-b_細線3
  6
CONTINUOUS
 62
    7
 10
725.43065977017204
 20
258.23477269126715
 11
681.26399310350462
 21
258.23477269126715
  0
LINE
  8
_0-b_細線3
  6
CONTINUOUS
 62
    7
 10
680.43065977017159
 20
259.06810602460041
 11
681.26399310350462
 21
258.23477269126715
  0
LINE
  8
_0-b_細線3
  6
CONTINUOUS
 62
    7
 10
680.43065977017159
 20
262.4014393579339
 11
680.43065977017159
 21
259.06810602460041
  0
LINE
  8
_0-b_細線3
  6
CONTINUOUS
 62
    7
 10
681.26399310350462
 20
263.23477269126715
 11
680.43065977017159
 21
262.4014393579339
  0
LINE
  8
_0-b_細線3
  6
CONTINUOUS
 62
    7
 10
725.43065977017204
 20
263.23477269126715
 11
681.26399310350462
 21
263.23477269126715
  0
LINE
  8
_0-b_細線3
  6
CONTINUOUS
 62
    7
 10
729.59732643683901
 20
296.56810602460041
 11
730.43065977017204
 21
295.73477269126693
  0
LINE
  8
_0-b_細線3
  6
CONTINUOUS
 62
    7
 10
726.26399310350553
 20
296.56810602460041
 11
729.59732643683901
 21
296.56810602460041
  0
LINE
  8
_0-b_細線3
  6
CONTINUOUS
 62
    7
 10
725.43065977017204
 20
295.73477269126693
 11
726.26399310350553
 21
296.56810602460041
  0
LINE
  8
_0-b_細線3
  6
CONTINUOUS
 62
    7
 10
725.43065977017204
 20
263.23477269126715
 11
725.43065977017204
 21
295.73477269126693
  0
ARC
  8
_0-b_細線3
  6
CONTINUOUS
 62
    7
 10
680.43065977017204
 20
317.70421713571136
 40
46.136111111111113
 50
256.63227178393214
 51
283.36772821606769
  0
ARC
  8
_0-b_細線3
  6
CONTINUOUS
 62
    7
 10
680.43065977017204
 20
242.0986615801562
 40
46.136111111111113
 50
76.632271783931969
 51
103.36772821606749
  0
LINE
  8
_0-b_細線3
  6
CONTINUOUS
 62
    7
 10
698.7639931035061
 20
294.56810602460041
 11
698.7639931035061
 21
296.56810602460041
  0
LINE
  8
_0-b_細線3
  6
CONTINUOUS
 62
    7
 10
693.09732643683901
 20
294.56810602460041
 11
698.7639931035061
 21
294.56810602460041
  0
LINE
  8
_0-b_細線3
  6
CONTINUOUS
 62
    7
 10
693.09732643683901
 20
263.23477269126715
 11
693.09732643683901
 21
294.56810602460041
  0
LINE
  8
_0-b_細線3
  6
CONTINUOUS
 62
    7
 10
691.09732643683901
 20
263.23477269126715
 11
693.09732643683901
 21
263.23477269126715
  0
LINE
  8
_0-b_細線3
  6
CONTINUOUS
 62
    7
 10
691.09732643683901
 20
294.56810602460041
 11
691.09732643683901
 21
263.23477269126715
  0
LINE
  8
_0-b_細線3
  6
CONTINUOUS
 62
    7
 10
685.43065977017204
 20
294.56810602460041
 11
691.09732643683901
 21
294.56810602460041
  0
LINE
  8
_0-b_細線3
  6
CONTINUOUS
 62
    7
 10
685.43065977017204
 20
296.56810602460041
 11
685.43065977017204
 21
294.56810602460041
  0
LINE
  8
_0-b_細線3
  6
CONTINUOUS
 62
    7
 10
698.7639931035061
 20
296.56810602460041
 11
685.43065977017204
 21
296.56810602460041
  0
ARC
  8
_0-b_細線3
  6
CONTINUOUS
 62
    7
 10
703.76399310350507
 20
317.70421713571136
 40
46.136111111111113
 50
256.63227178393214
 51
283.36772821606769
  0
ARC
  8
_0-b_細線3
  6
CONTINUOUS
 62
    7
 10
703.76399310350507
 20
242.0986615801562
 40
46.136111111111113
 50
76.632271783931969
 51
103.36772821606749
  0
LINE
  8
_0-b_細線3
  6
CONTINUOUS
 62
    7
 10
722.09732643683901
 20
294.56810602460041
 11
722.09732643683901
 21
296.56810602460041
  0
LINE
  8
_0-b_細線3
  6
CONTINUOUS
 62
    7
 10
716.43065977017204
 20
294.56810602460041
 11
722.09732643683901
 21
294.56810602460041
  0
LINE
  8
_0-b_細線3
  6
CONTINUOUS
 62
    7
 10
716.43065977017204
 20
263.23477269126715
 11
716.43065977017204
 21
294.56810602460041
  0
LINE
  8
_0-b_細線3
  6
CONTINUOUS
 62
    7
 10
714.43065977017216
 20
263.23477269126715
 11
716.43065977017204
 21
263.23477269126715
  0
LINE
  8
_0-b_細線3
  6
CONTINUOUS
 62
    7
 10
714.43065977017216
 20
294.56810602460041
 11
714.43065977017216
 21
263.23477269126715
  0
LINE
  8
_0-b_細線3
  6
CONTINUOUS
 62
    7
 10
708.76399310350507
 20
294.56810602460041
 11
714.43065977017216
 21
294.56810602460041
  0
LINE
  8
_0-b_細線3
  6
CONTINUOUS
 62
    7
 10
708.76399310350507
 20
296.56810602460041
 11
708.76399310350507
 21
294.56810602460041
  0
LINE
  8
_0-b_細線3
  6
CONTINUOUS
 62
    7
 10
722.09732643683901
 20
296.56810602460041
 11
708.76399310350507
 21
296.56810602460041
  0
ARC
  8
_0-b_細線3
  6
CONTINUOUS
 62
    7
 10
657.09732643683765
 20
317.70421713571136
 40
46.136111111111113
 50
256.63227178393163
 51
283.36772821606769
  0
ARC
  8
_0-b_細線3
  6
CONTINUOUS
 62
    7
 10
657.09732643683765
 20
242.0986615801562
 40
46.136111111111113
 50
76.632271783931969
 51
103.36772821606749
  0
LINE
  8
_0-b_細線3
  6
CONTINUOUS
 62
    7
 10
675.43065977017125
 20
294.56810602460041
 11
675.43065977017125
 21
296.56810602460041
  0
LINE
  8
_0-b_細線3
  6
CONTINUOUS
 62
    7
 10
669.76399310350416
 20
294.56810602460041
 11
675.43065977017125
 21
294.56810602460041
  0
LINE
  8
_0-b_細線3
  6
CONTINUOUS
 62
    7
 10
669.76399310350416
 20
263.23477269126715
 11
669.76399310350416
 21
294.56810602460041
  0
LINE
  8
_0-b_細線3
  6
CONTINUOUS
 62
    7
 10
667.76399310350416
 20
263.23477269126715
 11
669.76399310350416
 21
263.23477269126715
  0
LINE
  8
_0-b_細線3
  6
CONTINUOUS
 62
    7
 10
667.76399310350416
 20
294.56810602460041
 11
667.76399310350416
 21
263.23477269126715
  0
LINE
  8
_0-b_細線3
  6
CONTINUOUS
 62
    7
 10
662.09732643683765
 20
294.56810602460041
 11
667.76399310350416
 21
294.56810602460041
  0
LINE
  8
_0-b_細線3
  6
CONTINUOUS
 62
    7
 10
662.09732643683765
 20
296.56810602460041
 11
662.09732643683765
 21
294.56810602460041
  0
LINE
  8
_0-b_細線3
  6
CONTINUOUS
 62
    7
 10
675.43065977017125
 20
296.56810602460041
 11
662.09732643683765
 21
296.56810602460041
  0
LINE
  8
_0-d_寸法3
  6
CONTINUOUS
 62
    7
 10
210.4306597701725
 20
301.56810602460041
 11
210.4306597701725
 21
411.56810435625584
  0
LINE
  8
_0-d_寸法3
  6
CONTINUOUS
 62
    7
 10
210.4306597701725
 20
406.56810435625584
 11
220.08991803306316
 21
409.15629480728109
  0
LINE
  8
_0-d_寸法3
  6
CONTINUOUS
 62
    7
 10
210.4306597701725
 20
406.56810435625584
 11
220.08991803306316
 21
403.97991390523066
  0
LINE
  8
_0-d_寸法3
  6
CONTINUOUS
 62
    7
 10
730.43065977017204
 20
301.56810602460041
 11
730.4306597701725
 21
411.56810435625584
  0
LINE
  8
_0-d_寸法3
  6
CONTINUOUS
 62
    7
 10
730.4306597701725
 20
406.56810435625584
 11
720.77140150728178
 21
403.97991390523066
  0
LINE
  8
_0-d_寸法3
  6
CONTINUOUS
 62
    7
 10
730.4306597701725
 20
406.56810435625584
 11
720.77140150728178
 21
409.15629480728114
  0
LINE
  8
_0-d_寸法3
  6
CONTINUOUS
 62
    7
 10
210.4306597701725
 20
406.56810435625584
 11
730.4306597701725
 21
406.56810435625584
  0
TEXT
  8
_0-d_寸法3
 62
    7
 10
459.1806597701725
 20
406.56810435625584
 40
15
 41
1
 50
0
  1
312
  0
LINE
  8
_0-d_寸法3
  6
CONTINUOUS
 62
    7
 10
260.4306597701725
 20
253.23477269126715
 11
260.4306597701725
 21
192.7567474570285
  0
LINE
  8
_0-d_寸法3
  6
CONTINUOUS
 62
    7
 10
260.4306597701725
 20
197.7567474570285
 11
270.08991803306316
 21
200.34493790805371
  0
LINE
  8
_0-d_寸法3
  6
CONTINUOUS
 62
    7
 10
260.4306597701725
 20
197.7567474570285
 11
270.08991803306316
 21
195.16855700600331
  0
LINE
  8
_0-d_寸法3
  6
CONTINUOUS
 62
    7
 10
680.43065977017159
 20
253.23477269126715
 11
680.43065977017159
 21
192.7567474570285
  0
LINE
  8
_0-d_寸法3
  6
CONTINUOUS
 62
    7
 10
680.43065977017159
 20
197.7567474570285
 11
670.77140150728087
 21
195.16855700600331
  0
LINE
  8
_0-d_寸法3
  6
CONTINUOUS
 62
    7
 10
680.43065977017159
 20
197.7567474570285
 11
670.77140150728087
 21
200.34493790805371
  0
LINE
  8
_0-d_寸法3
  6
CONTINUOUS
 62
    7
 10
260.4306597701725
 20
197.7567474570285
 11
680.43065977017159
 21
197.7567474570285
  0
TEXT
  8
_0-d_寸法3
 62
    7
 10
459.1806597701725
 20
197.7567474570285
 40
15
 41
1
 50
0
  1
252
  0
LINE
  8
_0-a_極細3
  6
CENTER1
 62
    7
 10
733.09741483799417
 20
279.9014393579339
 11
208.77666732563185
 21
279.9014393579339
  0
ARC
  8
_0-b_細線3
  6
CONTINUOUS
 62
    7
 10
330.43065977017108
 20
317.70421713571136
 40
46.136111111111113
 50
256.63227178393214
 51
283.36772821606769
  0
ARC
  8
_0-b_細線3
  6
CONTINUOUS
 62
    7
 10
330.43065977017108
 20
242.0986615801562
 40
46.136111111111113
 50
76.632271783931969
 51
103.36772821606749
  0
LINE
  8
_0-b_細線3
  6
CONTINUOUS
 62
    7
 10
325.43065977017108
 20
294.56810602460041
 11
325.43065977017108
 21
296.56810602460041
  0
LINE
  8
_0-b_細線3
  6
CONTINUOUS
 62
    7
 10
319.76399310350502
 20
294.56810602460041
 11
325.43065977017108
 21
294.56810602460041
  0
LINE
  8
_0-b_細線3
  6
CONTINUOUS
 62
    7
 10
319.76399310350502
 20
263.23477269126715
 11
319.76399310350502
 21
294.56810602460041
  0
LINE
  8
_0-b_細線3
  6
CONTINUOUS
 62
    7
 10
317.76399310350496
 20
263.23477269126715
 11
319.76399310350502
 21
263.23477269126715
  0
LINE
  8
_0-b_細線3
  6
CONTINUOUS
 62
    7
 10
317.76399310350496
 20
294.56810602460041
 11
317.76399310350496
 21
263.23477269126715
  0
LINE
  8
_0-b_細線3
  6
CONTINUOUS
 62
    7
 10
312.0973264368381
 20
294.56810602460041
 11
317.76399310350496
 21
294.56810602460041
  0
LINE
  8
_0-b_細線3
  6
CONTINUOUS
 62
    7
 10
312.0973264368381
 20
296.56810602460041
 11
312.0973264368381
 21
294.56810602460041
  0
LINE
  8
_0-b_細線3
  6
CONTINUOUS
 62
    7
 10
325.43065977017108
 20
296.56810602460041
 11
312.0973264368381
 21
296.56810602460041
  0
ARC
  8
_0-b_細線3
  6
CONTINUOUS
 62
    7
 10
353.76399310350416
 20
317.70421713571136
 40
46.136111111111113
 50
256.63227178393214
 51
283.36772821606712
  0
ARC
  8
_0-b_細線3
  6
CONTINUOUS
 62
    7
 10
353.76399310350416
 20
242.0986615801562
 40
46.136111111111113
 50
76.632271783932524
 51
103.36772821606749
  0
LINE
  8
_0-b_細線3
  6
CONTINUOUS
 62
    7
 10
348.76399310350416
 20
294.56810602460041
 11
348.76399310350416
 21
296.56810602460041
  0
LINE
  8
_0-b_細線3
  6
CONTINUOUS
 62
    7
 10
343.09732643683759
 20
294.56810602460041
 11
348.76399310350416
 21
294.56810602460041
  0
LINE
  8
_0-b_細線3
  6
CONTINUOUS
 62
    7
 10
343.09732643683759
 20
263.23477269126715
 11
343.09732643683759
 21
294.56810602460041
  0
LINE
  8
_0-b_細線3
  6
CONTINUOUS
 62
    7
 10
341.09732643683765
 20
263.23477269126715
 11
343.09732643683759
 21
263.23477269126715
  0
LINE
  8
_0-b_細線3
  6
CONTINUOUS
 62
    7
 10
341.09732643683765
 20
294.56810602460041
 11
341.09732643683765
 21
263.23477269126715
  0
LINE
  8
_0-b_細線3
  6
CONTINUOUS
 62
    7
 10
335.43065977017108
 20
294.56810602460041
 11
341.09732643683765
 21
294.56810602460041
  0
LINE
  8
_0-b_細線3
  6
CONTINUOUS
 62
    7
 10
335.43065977017108
 20
296.56810602460041
 11
335.43065977017108
 21
294.56810602460041
  0
LINE
  8
_0-b_細線3
  6
CONTINUOUS
 62
    7
 10
348.76399310350416
 20
296.56810602460041
 11
335.43065977017108
 21
296.56810602460041
  0
ARC
  8
_0-b_細線3
  6
CONTINUOUS
 62
    7
 10
377.09732643683714
 20
317.70421713571136
 40
46.136111111111113
 50
256.63227178393214
 51
283.36772821606712
  0
ARC
  8
_0-b_細線3
  6
CONTINUOUS
 62
    7
 10
377.09732643683714
 20
242.0986615801562
 40
46.136111111111113
 50
76.632271783932524
 51
103.36772821606749
  0
LINE
  8
_0-b_細線3
  6
CONTINUOUS
 62
    7
 10
372.09732643683674
 20
294.56810602460041
 11
372.09732643683674
 21
296.56810602460041
  0
LINE
  8
_0-b_細線3
  6
CONTINUOUS
 62
    7
 10
366.43065977017017
 20
294.56810602460041
 11
372.09732643683674
 21
294.56810602460041
  0
LINE
  8
_0-b_細線3
  6
CONTINUOUS
 62
    7
 10
366.43065977017017
 20
263.23477269126715
 11
366.43065977017017
 21
294.56810602460041
  0
LINE
  8
_0-b_細線3
  6
CONTINUOUS
 62
    7
 10
364.43065977017022
 20
263.23477269126715
 11
366.43065977017017
 21
263.23477269126715
  0
LINE
  8
_0-b_細線3
  6
CONTINUOUS
 62
    7
 10
364.43065977017022
 20
294.56810602460041
 11
364.43065977017022
 21
263.23477269126715
  0
LINE
  8
_0-b_細線3
  6
CONTINUOUS
 62
    7
 10
358.76399310350365
 20
294.56810602460041
 11
364.43065977017022
 21
294.56810602460041
  0
LINE
  8
_0-b_細線3
  6
CONTINUOUS
 62
    7
 10
358.76399310350365
 20
296.56810602460041
 11
358.76399310350365
 21
294.56810602460041
  0
LINE
  8
_0-b_細線3
  6
CONTINUOUS
 62
    7
 10
372.09732643683674
 20
296.56810602460041
 11
358.76399310350365
 21
296.56810602460041
  0
LINE
  8
_0-b_細線3
  6
CONTINUOUS
 62
    7
 10
465.43065977017108
 20
294.56810602460041
 11
465.43065977017108
 21
296.56810602460041
  0
LINE
  8
_0-b_細線3
  6
CONTINUOUS
 62
    7
 10
459.76399310350416
 20
294.56810602460041
 11
465.43065977017108
 21
294.56810602460041
  0
LINE
  8
_0-b_細線3
  6
CONTINUOUS
 62
    7
 10
459.76399310350416
 20
263.23477269126715
 11
459.76399310350416
 21
294.56810602460041
  0
LINE
  8
_0-b_細線3
  6
CONTINUOUS
 62
    7
 10
457.76399310350416
 20
263.23477269126715
 11
459.76399310350416
 21
263.23477269126715
  0
LINE
  8
_0-b_細線3
  6
CONTINUOUS
 62
    7
 10
457.76399310350416
 20
294.56810602460041
 11
457.76399310350416
 21
263.23477269126715
  0
LINE
  8
_0-b_細線3
  6
CONTINUOUS
 62
    7
 10
452.09732643683765
 20
294.56810602460041
 11
457.76399310350416
 21
294.56810602460041
  0
LINE
  8
_0-b_細線3
  6
CONTINUOUS
 62
    7
 10
452.09732643683765
 20
296.56810602460041
 11
452.09732643683765
 21
294.56810602460041
  0
LINE
  8
_0-b_細線3
  6
CONTINUOUS
 62
    7
 10
465.43065977017108
 20
296.56810602460041
 11
452.09732643683765
 21
296.56810602460041
  0
ARC
  8
_0-b_細線3
  6
CONTINUOUS
 62
    7
 10
517.09732643683765
 20
317.70421713571136
 40
46.136111111111113
 50
256.63227178393151
 51
283.36772821606769
  0
ARC
  8
_0-b_細線3
  6
CONTINUOUS
 62
    7
 10
517.09732643683765
 20
242.0986615801562
 40
46.136111111111113
 50
76.632271783931969
 51
103.36772821606755
  0
LINE
  8
_0-b_細線3
  6
CONTINUOUS
 62
    7
 10
535.43065977017113
 20
294.56810602460041
 11
535.43065977017113
 21
296.56810602460041
  0
LINE
  8
_0-b_細線3
  6
CONTINUOUS
 62
    7
 10
529.76399310350416
 20
294.56810602460041
 11
535.43065977017113
 21
294.56810602460041
  0
LINE
  8
_0-b_細線3
  6
CONTINUOUS
 62
    7
 10
529.76399310350416
 20
263.23477269126715
 11
529.76399310350416
 21
294.56810602460041
  0
LINE
  8
_0-b_細線3
  6
CONTINUOUS
 62
    7
 10
527.76399310350416
 20
263.23477269126715
 11
529.76399310350416
 21
263.23477269126715
  0
LINE
  8
_0-b_細線3
  6
CONTINUOUS
 62
    7
 10
527.76399310350416
 20
294.56810602460041
 11
527.76399310350416
 21
263.23477269126715
  0
LINE
  8
_0-b_細線3
  6
CONTINUOUS
 62
    7
 10
522.09732643683765
 20
294.56810602460041
 11
527.76399310350416
 21
294.56810602460041
  0
LINE
  8
_0-b_細線3
  6
CONTINUOUS
 62
    7
 10
522.09732643683765
 20
296.56810602460041
 11
522.09732643683765
 21
294.56810602460041
  0
LINE
  8
_0-b_細線3
  6
CONTINUOUS
 62
    7
 10
535.43065977017113
 20
296.56810602460041
 11
522.09732643683765
 21
296.56810602460041
  0
ARC
  8
_0-b_細線3
  6
CONTINUOUS
 62
    7
 10
493.76399310350507
 20
317.70421713571136
 40
46.136111111111113
 50
256.63227178393214
 51
283.36772821606712
  0
ARC
  8
_0-b_細線3
  6
CONTINUOUS
 62
    7
 10
493.76399310350507
 20
242.0986615801562
 40
46.136111111111113
 50
76.632271783932524
 51
103.36772821606749
  0
LINE
  8
_0-b_細線3
  6
CONTINUOUS
 62
    7
 10
512.09732643683856
 20
294.56810602460041
 11
512.09732643683856
 21
296.56810602460041
  0
LINE
  8
_0-b_細線3
  6
CONTINUOUS
 62
    7
 10
506.43065977017159
 20
294.56810602460041
 11
512.09732643683856
 21
294.56810602460041
  0
LINE
  8
_0-b_細線3
  6
CONTINUOUS
 62
    7
 10
506.43065977017159
 20
263.23477269126715
 11
506.43065977017159
 21
294.56810602460041
  0
LINE
  8
_0-b_細線3
  6
CONTINUOUS
 62
    7
 10
504.43065977017199
 20
263.23477269126715
 11
506.43065977017159
 21
263.23477269126715
  0
LINE
  8
_0-b_細線3
  6
CONTINUOUS
 62
    7
 10
504.43065977017199
 20
294.56810602460041
 11
504.43065977017199
 21
263.23477269126715
  0
LINE
  8
_0-b_細線3
  6
CONTINUOUS
 62
    7
 10
498.76399310350507
 20
294.56810602460041
 11
504.43065977017199
 21
294.56810602460041
  0
LINE
  8
_0-b_細線3
  6
CONTINUOUS
 62
    7
 10
498.76399310350507
 20
296.56810602460041
 11
498.76399310350507
 21
294.56810602460041
  0
LINE
  8
_0-b_細線3
  6
CONTINUOUS
 62
    7
 10
512.09732643683856
 20
296.56810602460041
 11
498.76399310350507
 21
296.56810602460041
  0
ARC
  8
_0-b_細線3
  6
CONTINUOUS
 62
    7
 10
470.4306597701725
 20
317.70421713571136
 40
46.136111111111113
 50
256.63227178393214
 51
283.36772821606712
  0
ARC
  8
_0-b_細線3
  6
CONTINUOUS
 62
    7
 10
470.4306597701725
 20
242.0986615801562
 40
46.136111111111113
 50
76.632271783932524
 51
103.36772821606749
  0
LINE
  8
_0-b_細線3
  6
CONTINUOUS
 62
    7
 10
488.76399310350592
 20
294.56810602460041
 11
488.76399310350592
 21
296.56810602460041
  0
LINE
  8
_0-b_細線3
  6
CONTINUOUS
 62
    7
 10
483.09732643683901
 20
294.56810602460041
 11
488.76399310350592
 21
294.56810602460041
  0
LINE
  8
_0-b_細線3
  6
CONTINUOUS
 62
    7
 10
483.09732643683901
 20
263.23477269126715
 11
483.09732643683901
 21
294.56810602460041
  0
LINE
  8
_0-b_細線3
  6
CONTINUOUS
 62
    7
 10
481.09732643683901
 20
263.23477269126715
 11
483.09732643683901
 21
263.23477269126715
  0
LINE
  8
_0-b_細線3
  6
CONTINUOUS
 62
    7
 10
481.09732643683901
 20
294.56810602460041
 11
481.09732643683901
 21
263.23477269126715
  0
LINE
  8
_0-b_細線3
  6
CONTINUOUS
 62
    7
 10
475.4306597701725
 20
294.56810602460041
 11
481.09732643683901
 21
294.56810602460041
  0
LINE
  8
_0-b_細線3
  6
CONTINUOUS
 62
    7
 10
475.4306597701725
 20
296.56810602460041
 11
475.4306597701725
 21
294.56810602460041
  0
LINE
  8
_0-b_細線3
  6
CONTINUOUS
 62
    7
 10
488.76399310350592
 20
296.56810602460041
 11
475.4306597701725
 21
296.56810602460041
  0
LINE
  8
_0-d_寸法3
  6
CONTINUOUS
 62
    7
 10
482.09732643683941
 20
306.56810602460041
 11
482.09732643683941
 21
348.23477269126761
  0
LINE
  8
_0-d_寸法3
  6
CONTINUOUS
 62
    7
 10
482.09732643683941
 20
343.23477269126761
 11
491.75658469973007
 21
345.82296314229279
  0
LINE
  8
_0-d_寸法3
  6
CONTINUOUS
 62
    7
 10
482.09732643683941
 20
343.23477269126761
 11
491.75658469973007
 21
340.64658224024242
  0
LINE
  8
_0-d_寸法3
  6
CONTINUOUS
 62
    7
 10
505.43065977017295
 20
306.56810602460041
 11
505.43065977017295
 21
348.23477269126761
  0
LINE
  8
_0-d_寸法3
  6
CONTINUOUS
 62
    7
 10
505.43065977017295
 20
343.23477269126761
 11
495.77140150728218
 21
340.64658224024242
  0
LINE
  8
_0-d_寸法3
  6
CONTINUOUS
 62
    7
 10
505.43065977017295
 20
343.23477269126761
 11
495.77140150728223
 21
345.82296314229291
  0
LINE
  8
_0-d_寸法3
  6
CONTINUOUS
 62
    7
 10
482.09732643683941
 20
343.23477269126761
 11
505.43065977017295
 21
343.23477269126761
  0
TEXT
  8
_0-d_寸法3
 62
    7
 10
486.26399310350644
 20
343.23477269126761
 40
15
 41
1
 50
0
  1
14
  0
LINE
  8
_0-d_寸法3
  6
CONTINUOUS
 62
    7
 10
505.43065977017295
 20
343.23477269126761
 11
515.08991803306355
 21
345.82296314229274
  0
LINE
  8
_0-d_寸法3
  6
CONTINUOUS
 62
    7
 10
505.43065977017295
 20
343.23477269126761
 11
515.08991803306355
 21
340.64658224024237
  0
LINE
  8
_0-d_寸法3
  6
CONTINUOUS
 62
    7
 10
528.76399310350598
 20
306.56810602460041
 11
528.76399310350598
 21
348.23477269126761
  0
LINE
  8
_0-d_寸法3
  6
CONTINUOUS
 62
    7
 10
528.76399310350598
 20
343.23477269126761
 11
519.10473484061527
 21
340.64658224024242
  0
LINE
  8
_0-d_寸法3
  6
CONTINUOUS
 62
    7
 10
528.76399310350598
 20
343.23477269126761
 11
519.10473484061527
 21
345.82296314229291
  0
LINE
  8
_0-d_寸法3
  6
CONTINUOUS
 62
    7
 10
505.43065977017295
 20
343.23477269126761
 11
528.76399310350598
 21
343.23477269126761
  0
TEXT
  8
_0-d_寸法3
 62
    7
 10
509.59732643683947
 20
343.23477269126761
 40
15
 41
1
 50
0
  1
14
  0
ARC
  8
_0-b_細線3
  6
CONTINUOUS
 62
    7
 10
400.43065977016971
 20
317.70421713571136
 40
46.136111111111113
 50
256.63227178393214
 51
283.36772821606769
  0
ARC
  8
_0-b_細線3
  6
CONTINUOUS
 62
    7
 10
400.43065977016971
 20
242.0986615801562
 40
46.136111111111113
 50
76.632271783931969
 51
103.36772821606749
  0
LINE
  8
_0-b_細線3
  6
CONTINUOUS
 62
    7
 10
395.43065977016931
 20
294.56810602460041
 11
395.43065977016931
 21
296.56810602460041
  0
LINE
  8
_0-b_細線3
  6
CONTINUOUS
 62
    7
 10
389.76399310350325
 20
294.56810602460041
 11
395.43065977016931
 21
294.56810602460041
  0
LINE
  8
_0-b_細線3
  6
CONTINUOUS
 62
    7
 10
389.76399310350325
 20
263.23477269126715
 11
389.76399310350325
 21
294.56810602460041
  0
LINE
  8
_0-b_細線3
  6
CONTINUOUS
 62
    7
 10
387.7639931035032
 20
263.23477269126715
 11
389.76399310350325
 21
263.23477269126715
  0
LINE
  8
_0-b_細線3
  6
CONTINUOUS
 62
    7
 10
387.7639931035032
 20
294.56810602460041
 11
387.7639931035032
 21
263.23477269126715
  0
LINE
  8
_0-b_細線3
  6
CONTINUOUS
 62
    7
 10
382.09732643683623
 20
294.56810602460041
 11
387.7639931035032
 21
294.56810602460041
  0
LINE
  8
_0-b_細線3
  6
CONTINUOUS
 62
    7
 10
382.09732643683623
 20
296.56810602460041
 11
382.09732643683623
 21
294.56810602460041
  0
LINE
  8
_0-b_細線3
  6
CONTINUOUS
 62
    7
 10
395.43065977016931
 20
296.56810602460041
 11
382.09732643683623
 21
296.56810602460041
  0
ARC
  8
_0-b_細線3
  6
CONTINUOUS
 62
    7
 10
423.7639931035028
 20
317.70421713571136
 40
46.136111111111113
 50
256.63227178393163
 51
283.36772821606712
  0
ARC
  8
_0-b_細線3
  6
CONTINUOUS
 62
    7
 10
423.7639931035028
 20
242.0986615801562
 40
46.136111111111113
 50
76.632271783932524
 51
103.36772821606803
  0
LINE
  8
_0-b_細線3
  6
CONTINUOUS
 62
    7
 10
418.76399310350229
 20
294.56810602460041
 11
418.76399310350229
 21
296.56810602460041
  0
LINE
  8
_0-b_細線3
  6
CONTINUOUS
 62
    7
 10
413.09732643683623
 20
294.56810602460041
 11
418.76399310350229
 21
294.56810602460041
  0
LINE
  8
_0-b_細線3
  6
CONTINUOUS
 62
    7
 10
413.09732643683623
 20
263.23477269126715
 11
413.09732643683623
 21
294.56810602460041
  0
LINE
  8
_0-b_細線3
  6
CONTINUOUS
 62
    7
 10
411.09732643683628
 20
263.23477269126715
 11
413.09732643683623
 21
263.23477269126715
  0
LINE
  8
_0-b_細線3
  6
CONTINUOUS
 62
    7
 10
411.09732643683628
 20
294.56810602460041
 11
411.09732643683628
 21
263.23477269126715
  0
LINE
  8
_0-b_細線3
  6
CONTINUOUS
 62
    7
 10
405.43065977016931
 20
294.56810602460041
 11
411.09732643683628
 21
294.56810602460041
  0
LINE
  8
_0-b_細線3
  6
CONTINUOUS
 62
    7
 10
405.43065977016931
 20
296.56810602460041
 11
405.43065977016931
 21
294.56810602460041
  0
LINE
  8
_0-b_細線3
  6
CONTINUOUS
 62
    7
 10
418.76399310350229
 20
296.56810602460041
 11
405.43065977016931
 21
296.56810602460041
  0
ARC
  8
_0-b_細線3
  6
CONTINUOUS
 62
    7
 10
447.09732643683537
 20
317.70421713571136
 40
46.136111111111113
 50
256.63227178393214
 51
283.36772821606769
  0
ARC
  8
_0-b_細線3
  6
CONTINUOUS
 62
    7
 10
447.09732643683537
 20
242.0986615801562
 40
46.136111111111113
 50
76.632271783931969
 51
103.36772821606749
  0
LINE
  8
_0-b_細線3
  6
CONTINUOUS
 62
    7
 10
442.09732643683537
 20
294.56810602460041
 11
442.09732643683537
 21
296.56810602460041
  0
LINE
  8
_0-b_細線3
  6
CONTINUOUS
 62
    7
 10
436.4306597701688
 20
294.56810602460041
 11
442.09732643683537
 21
294.56810602460041
  0
LINE
  8
_0-b_細線3
  6
CONTINUOUS
 62
    7
 10
436.4306597701688
 20
263.23477269126715
 11
436.4306597701688
 21
294.56810602460041
  0
LINE
  8
_0-b_細線3
  6
CONTINUOUS
 62
    7
 10
434.43065977016886
 20
263.23477269126715
 11
436.4306597701688
 21
263.23477269126715
  0
LINE
  8
_0-b_細線3
  6
CONTINUOUS
 62
    7
 10
434.43065977016886
 20
294.56810602460041
 11
434.43065977016886
 21
263.23477269126715
  0
LINE
  8
_0-b_細線3
  6
CONTINUOUS
 62
    7
 10
428.76399310350229
 20
294.56810602460041
 11
434.43065977016886
 21
294.56810602460041
  0
LINE
  8
_0-b_細線3
  6
CONTINUOUS
 62
    7
 10
428.76399310350229
 20
296.56810602460041
 11
428.76399310350229
 21
294.56810602460041
  0
LINE
  8
_0-b_細線3
  6
CONTINUOUS
 62
    7
 10
442.09732643683537
 20
296.56810602460041
 11
428.76399310350229
 21
296.56810602460041
  0
ARC
  8
_0-b_細線3
  6
CONTINUOUS
 62
    7
 10
540.43065977017022
 20
317.70421713571136
 40
46.136111111111113
 50
256.63227178393214
 51
283.36772821606712
  0
ARC
  8
_0-b_細線3
  6
CONTINUOUS
 62
    7
 10
540.43065977017022
 20
242.0986615801562
 40
46.136111111111113
 50
76.632271783932524
 51
103.36772821606749
  0
LINE
  8
_0-b_細線3
  6
CONTINUOUS
 62
    7
 10
558.76399310350371
 20
294.56810602460041
 11
558.76399310350371
 21
296.56810602460041
  0
LINE
  8
_0-b_細線3
  6
CONTINUOUS
 62
    7
 10
553.09732643683674
 20
294.56810602460041
 11
558.76399310350371
 21
294.56810602460041
  0
LINE
  8
_0-b_細線3
  6
CONTINUOUS
 62
    7
 10
553.09732643683674
 20
263.23477269126715
 11
553.09732643683674
 21
294.56810602460041
  0
LINE
  8
_0-b_細線3
  6
CONTINUOUS
 62
    7
 10
551.09732643683719
 20
263.23477269126715
 11
553.09732643683674
 21
263.23477269126715
  0
LINE
  8
_0-b_細線3
  6
CONTINUOUS
 62
    7
 10
551.09732643683719
 20
294.56810602460041
 11
551.09732643683719
 21
263.23477269126715
  0
LINE
  8
_0-b_細線3
  6
CONTINUOUS
 62
    7
 10
545.43065977017022
 20
294.56810602460041
 11
551.09732643683719
 21
294.56810602460041
  0
LINE
  8
_0-b_細線3
  6
CONTINUOUS
 62
    7
 10
545.43065977017022
 20
296.56810602460041
 11
545.43065977017022
 21
294.56810602460041
  0
LINE
  8
_0-b_細線3
  6
CONTINUOUS
 62
    7
 10
558.76399310350371
 20
296.56810602460041
 11
545.43065977017022
 21
296.56810602460041
  0
LINE
  8
_0-d_寸法3
  6
CONTINUOUS
 62
    7
 10
405.43065977016852
 20
306.56810602460041
 11
405.43065977016886
 21
348.23477269126761
  0
LINE
  8
_0-d_寸法3
  6
CONTINUOUS
 62
    7
 10
405.4306597701688
 20
343.23477269126761
 11
395.77140150727814
 21
340.64658224024242
  0
LINE
  8
_0-d_寸法3
  6
CONTINUOUS
 62
    7
 10
405.4306597701688
 20
343.23477269126761
 11
395.77140150727814
 21
345.82296314229291
  0
LINE
  8
_0-d_寸法3
  6
CONTINUOUS
 62
    7
 10
418.76399310350229
 20
306.56810602460041
 11
418.76399310350229
 21
348.23477269126761
  0
CIRCLE
  8
_0-d_寸法3
  6
CONTINUOUS
 62
    1
 10
418.76399310350229
 20
343.23477269126761
 40
1.5000000000000002
  0
LINE
  8
_0-d_寸法3
  6
CONTINUOUS
 62
    7
 10
380.4306597701688
 20
343.23477269126761
 11
418.76399310350229
 21
343.23477269126761
  0
TEXT
  8
_0-d_寸法3
 62
    7
 10
388.00664380479247
 20
343.23477269126761
 40
15
 41
1
 50
0
  1
8
  0
LINE
  8
_0-d_寸法3
  6
CONTINUOUS
 62
    7
 10
428.76399310350195
 20
306.56810602460041
 11
428.76399310350234
 21
348.23477269126761
  0
LINE
  8
_0-d_寸法3
  6
CONTINUOUS
 62
    7
 10
428.76399310350229
 20
343.23477269126761
 11
438.42325136639306
 21
345.82296314229274
  0
LINE
  8
_0-d_寸法3
  6
CONTINUOUS
 62
    7
 10
428.76399310350229
 20
343.23477269126761
 11
438.42325136639295
 21
340.64658224024237
  0
LINE
  8
_0-d_寸法3
  6
CONTINUOUS
 62
    7
 10
418.76399310350229
 20
343.23477269126761
 11
453.76399310350229
 21
343.23477269126761
  0
TEXT
  8
_0-d_寸法3
 62
    7
 10
435.05586191178736
 20
343.23477269126761
 40
15
 41
1
 50
0
  1
6
  0
LINE
  8
_0-a_極細3
  6
CENTER1
 62
    7
 10
470.43065977017199
 20
243.71560987248384
 11
470.43065977017199
 21
307.16560987248999
  0
ARC
  8
_0-b_細線3
  6
CONTINUOUS
 62
    7
 10
563.7639931035028
 20
317.70421713571136
 40
46.136111111111113
 50
256.63227178393163
 51
283.36772821606769
  0
ARC
  8
_0-b_細線3
  6
CONTINUOUS
 62
    7
 10
563.7639931035028
 20
242.0986615801562
 40
46.136111111111113
 50
76.632271783931969
 51
103.36772821606749
  0
LINE
  8
_0-b_細線3
  6
CONTINUOUS
 62
    7
 10
582.09732643683628
 20
294.56810602460041
 11
582.09732643683628
 21
296.56810602460041
  0
LINE
  8
_0-b_細線3
  6
CONTINUOUS
 62
    7
 10
576.43065977016931
 20
294.56810602460041
 11
582.09732643683628
 21
294.56810602460041
  0
LINE
  8
_0-b_細線3
  6
CONTINUOUS
 62
    7
 10
576.43065977016931
 20
263.23477269126715
 11
576.43065977016931
 21
294.56810602460041
  0
LINE
  8
_0-b_細線3
  6
CONTINUOUS
 62
    7
 10
574.43065977016931
 20
263.23477269126715
 11
576.43065977016931
 21
263.23477269126715
  0
LINE
  8
_0-b_細線3
  6
CONTINUOUS
 62
    7
 10
574.43065977016931
 20
294.56810602460041
 11
574.43065977016931
 21
263.23477269126715
  0
LINE
  8
_0-b_細線3
  6
CONTINUOUS
 62
    7
 10
568.7639931035028
 20
294.56810602460041
 11
574.43065977016931
 21
294.56810602460041
  0
LINE
  8
_0-b_細線3
  6
CONTINUOUS
 62
    7
 10
568.7639931035028
 20
296.56810602460041
 11
568.7639931035028
 21
294.56810602460041
  0
LINE
  8
_0-b_細線3
  6
CONTINUOUS
 62
    7
 10
582.09732643683628
 20
296.56810602460041
 11
568.7639931035028
 21
296.56810602460041
  0
ARC
  8
_0-b_細線3
  6
CONTINUOUS
 62
    7
 10
587.09732643683537
 20
317.70421713571136
 40
46.136111111111113
 50
256.63227178393214
 51
283.36772821606712
  0
ARC
  8
_0-b_細線3
  6
CONTINUOUS
 62
    7
 10
587.09732643683537
 20
242.0986615801562
 40
46.136111111111113
 50
76.632271783932524
 51
103.36772821606749
  0
LINE
  8
_0-b_細線3
  6
CONTINUOUS
 62
    7
 10
605.43065977016886
 20
294.56810602460041
 11
605.43065977016886
 21
296.56810602460041
  0
LINE
  8
_0-b_細線3
  6
CONTINUOUS
 62
    7
 10
599.76399310350189
 20
294.56810602460041
 11
605.43065977016886
 21
294.56810602460041
  0
LINE
  8
_0-b_細線3
  6
CONTINUOUS
 62
    7
 10
599.76399310350189
 20
263.23477269126715
 11
599.76399310350189
 21
294.56810602460041
  0
LINE
  8
_0-b_細線3
  6
CONTINUOUS
 62
    7
 10
597.76399310350234
 20
263.23477269126715
 11
599.76399310350189
 21
263.23477269126715
  0
LINE
  8
_0-b_細線3
  6
CONTINUOUS
 62
    7
 10
597.76399310350234
 20
294.56810602460041
 11
597.76399310350234
 21
263.23477269126715
  0
LINE
  8
_0-b_細線3
  6
CONTINUOUS
 62
    7
 10
592.09732643683537
 20
294.56810602460041
 11
597.76399310350234
 21
294.56810602460041
  0
LINE
  8
_0-b_細線3
  6
CONTINUOUS
 62
    7
 10
592.09732643683537
 20
296.56810602460041
 11
592.09732643683537
 21
294.56810602460041
  0
LINE
  8
_0-b_細線3
  6
CONTINUOUS
 62
    7
 10
605.43065977016886
 20
296.56810602460041
 11
592.09732643683537
 21
296.56810602460041
  0
ARC
  8
_0-b_細線3
  6
CONTINUOUS
 62
    7
 10
610.43065977016795
 20
317.70421713571136
 40
46.136111111111113
 50
256.63227178393163
 51
283.36772821606769
  0
ARC
  8
_0-b_細線3
  6
CONTINUOUS
 62
    7
 10
610.43065977016795
 20
242.0986615801562
 40
46.136111111111113
 50
76.632271783931969
 51
103.36772821606749
  0
LINE
  8
_0-b_細線3
  6
CONTINUOUS
 62
    7
 10
628.76399310350143
 20
294.56810602460041
 11
628.76399310350143
 21
296.56810602460041
  0
LINE
  8
_0-b_細線3
  6
CONTINUOUS
 62
    7
 10
623.09732643683446
 20
294.56810602460041
 11
628.76399310350143
 21
294.56810602460041
  0
LINE
  8
_0-b_細線3
  6
CONTINUOUS
 62
    7
 10
623.09732643683446
 20
263.23477269126715
 11
623.09732643683446
 21
294.56810602460041
  0
LINE
  8
_0-b_細線3
  6
CONTINUOUS
 62
    7
 10
621.09732643683446
 20
263.23477269126715
 11
623.09732643683446
 21
263.23477269126715
  0
LINE
  8
_0-b_細線3
  6
CONTINUOUS
 62
    7
 10
621.09732643683446
 20
294.56810602460041
 11
621.09732643683446
 21
263.23477269126715
  0
LINE
  8
_0-b_細線3
  6
CONTINUOUS
 62
    7
 10
615.43065977016795
 20
294.56810602460041
 11
621.09732643683446
 21
294.56810602460041
  0
LINE
  8
_0-b_細線3
  6
CONTINUOUS
 62
    7
 10
615.43065977016795
 20
296.56810602460041
 11
615.43065977016795
 21
294.56810602460041
  0
LINE
  8
_0-b_細線3
  6
CONTINUOUS
 62
    7
 10
628.76399310350143
 20
296.56810602460041
 11
615.43065977016795
 21
296.56810602460041
  0
ARC
  8
_0-b_細線3
  6
CONTINUOUS
 62
    7
 10
633.76399310350052
 20
317.70421713571136
 40
46.136111111111113
 50
256.63227178393214
 51
283.36772821606712
  0
ARC
  8
_0-b_細線3
  6
CONTINUOUS
 62
    7
 10
633.76399310350052
 20
242.0986615801562
 40
46.136111111111113
 50
76.632271783932524
 51
103.36772821606749
  0
LINE
  8
_0-b_細線3
  6
CONTINUOUS
 62
    7
 10
652.09732643683412
 20
294.56810602460041
 11
652.09732643683412
 21
296.56810602460041
  0
LINE
  8
_0-b_細線3
  6
CONTINUOUS
 62
    7
 10
646.43065977016704
 20
294.56810602460041
 11
652.09732643683412
 21
294.56810602460041
  0
LINE
  8
_0-b_細線3
  6
CONTINUOUS
 62
    7
 10
646.43065977016704
 20
263.23477269126715
 11
646.43065977016704
 21
294.56810602460041
  0
LINE
  8
_0-b_細線3
  6
CONTINUOUS
 62
    7
 10
644.43065977016761
 20
263.23477269126715
 11
646.43065977016704
 21
263.23477269126715
  0
LINE
  8
_0-b_細線3
  6
CONTINUOUS
 62
    7
 10
644.43065977016761
 20
294.56810602460041
 11
644.43065977016761
 21
263.23477269126715
  0
LINE
  8
_0-b_細線3
  6
CONTINUOUS
 62
    7
 10
638.76399310350052
 20
294.56810602460041
 11
644.43065977016761
 21
294.56810602460041
  0
LINE
  8
_0-b_細線3
  6
CONTINUOUS
 62
    7
 10
638.76399310350052
 20
296.56810602460041
 11
638.76399310350052
 21
294.56810602460041
  0
LINE
  8
_0-b_細線3
  6
CONTINUOUS
 62
    7
 10
652.09732643683412
 20
296.56810602460041
 11
638.76399310350052
 21
296.56810602460041
  0
LINE
  8
_0-d_寸法3
  6
CONTINUOUS
 62
    7
 10
464.59732643686721
 20
268.56169339576803
 11
449.1664961519964
 21
295.28867545213666
  0
LINE
  8
_0-d_寸法3
  6
CONTINUOUS
 62
    7
 10
451.6664961519964
 20
290.95854843321445
 11
449.07830570097121
 21
300.61780669610516
  0
LINE
  8
_0-d_寸法3
  6
CONTINUOUS
 62
    7
 10
451.6664961519964
 20
290.95854843321445
 11
454.25468660302158
 21
300.61780669610516
  0
LINE
  8
_0-d_寸法3
  6
CONTINUOUS
 62
    7
 10
464.59732643686721
 20
301.89502672911152
 11
449.1664961519964
 21
328.62200878548015
  0
LINE
  8
_0-d_寸法3
  6
CONTINUOUS
 62
    7
 10
451.6664961519964
 20
324.29188176655794
 11
454.25468660302158
 21
314.63262350366728
  0
LINE
  8
_0-d_寸法3
  6
CONTINUOUS
 62
    7
 10
451.6664961519964
 20
324.29188176655794
 11
449.07830570097121
 21
314.63262350366728
  0
LINE
  8
_0-d_寸法3
  6
CONTINUOUS
 62
    7
 10
451.6664961519964
 20
290.95854843321445
 11
451.6664961519964
 21
324.29188176655794
  0
TEXT
  8
_0-d_寸法3
 62
    7
 10
451.6664961519964
 20
300.76456652741331
 40
15
 41
1
 50
90
  1
20
  0
TEXT
  8
_0-7_枠細線
 62
    5
 10
965.50000000000011
 20
110
 40
20
 41
0.6
 50
0
  1
ＧＳＴ－２０Ｗ３０２
  0
TEXT
  8
_0-7_枠細線
 62
    5
 10
965.49999999999932
 20
70
 40
20.000000000000004
 41
0.5999999999999997
 50
0
  1
表面形状については記号表参照のこと
  0
LINE
  8
_0-7_枠細線
  6
CONTINUOUS
 62
    5
 10
1409.4018171150183
 20
328.47321710336234
 11
1409.4018171150183
 21
223.47321710336274
  0
TEXT
  8
_0-7_枠細線
 62
    5
 10
1318.4018171150192
 20
308.47321710336234
 40
15.000000000000002
 41
0.8
 50
0
  1
ノンスリップ
  0
TEXT
  8
_0-7_枠細線
 62
    5
 10
1330.4018171150185
 20
283.47321710336234
 40
15.000000000000002
 41
0.8
 50
0
  1
品番－Ｄ
  0
LINE
  8
_0-7_枠細線
  6
CONTINUOUS
 62
    5
 10
1299.4018171150178
 20
328.47321710336234
 11
1299.4018171150178
 21
223.47321710336274
  0
TEXT
  8
_0-7_枠細線
 62
    5
 10
1220.4018171150178
 20
308.4732171033624
 40
15.000000000000002
 41
0.8
 50
0
  1
プレーン
  0
TEXT
  8
_0-7_枠細線
 62
    5
 10
1220.4018171150185
 20
283.47321710336234
 40
15.000000000000002
 41
0.8
 50
0
  1
品番－Ｆ
  0
TEXT
  8
_0-7_枠細線
 62
    5
 10
1140.4018171150183
 20
308.47321710336234
 40
15.000000000000002
 41
0.8
 50
0
  1
タ イ プ
  0
LINE
  8
_0-7_枠細線
  6
CONTINUOUS
 62
    5
 10
1139.4018171150174
 20
278.47321710336234
 11
1409.4018171150183
 21
278.47321710336234
  0
LINE
  8
_0-7_枠細線
  6
CONTINUOUS
 62
    5
 10
1139.4018171150174
 20
303.47321710336234
 11
1409.4018171150183
 21
303.47321710336234
  0
LINE
  8
_0-7_枠細線
  6
CONTINUOUS
 62
    5
 10
1139.4018171150174
 20
328.47321710336234
 11
1409.4018171150183
 21
328.47321710336234
  0
LINE
  8
_0-7_枠細線
  6
CONTINUOUS
 62
    5
 10
1139.4018171150174
 20
223.47321710336274
 11
1409.4018171150183
 21
223.47321710336274
  0
LINE
  8
_0-7_枠細線
  6
CONTINUOUS
 62
    5
 10
1189.4018171150183
 20
328.47321710336234
 11
1189.4018171150183
 21
223.47321710336274
  0
LINE
  8
_0-7_枠細線
  6
CONTINUOUS
 62
    5
 10
1139.4018171150174
 20
328.47321710336234
 11
1139.4018171150174
 21
223.47321710336274
  0
TEXT
  8
_0-7_枠細線
 62
    5
 10
1140.4018171150183
 20
243.47321710336257
 40
15.000000000000002
 41
0.8
 50
0
  1
表面形状
  0
TEXT
  8
_0-7_枠細線
 62
    5
 10
1147.1760284558286
 20
330.9732171033624
 40
17.500000000000004
 41
0.7999999999999996
 50
0
  1
記号表
  0
TEXT
  8
_0-7_枠細線
 62
    5
 10
1140.4018171150183
 20
283.47321710336246
 40
15.000000000000002
 41
0.8
 50
0
  1
記　　号
  0
ARC
  8
_0-7_枠細線
  6
CONTINUOUS
 62
    5
 10
1282.9664605906703
 20
242.85777402966897
 40
12.026499332130607
 50
317.5616290000047
 51
42.438370999994966
  0
ARC
  8
_0-7_枠細線
  6
CONTINUOUS
 62
    5
 10
1300.7176602555628
 20
259.08866002804609
 40
12.026499332130607
 50
137.56162900000001
 51
222.43837100000297
  0
ARC
  8
_0-7_枠細線
  6
CONTINUOUS
 62
    5
 10
1188.0859738141417
 20
242.85777402966897
 40
12.026499332130607
 50
317.5616290000047
 51
42.438370999994966
  0
ARC
  8
_0-7_枠細線
  6
CONTINUOUS
 62
    5
 10
1205.8371734790342
 20
259.08866002804609
 40
12.026499332130607
 50
137.56162900000001
 51
222.43837100000297
  0
LINE
  8
_0-7_枠細線
  6
CONTINUOUS
 62
    5
 10
1194.4553061852557
 20
262.97321702885733
 11
1289.3357929617841
 21
262.97321702885733
  0
LINE
  8
_0-7_枠細線
  6
CONTINUOUS
 62
    5
 10
1294.3483278844485
 20
238.97321702885733
 11
1199.4678411079201
 21
238.97321702885733
  0
ARC
  8
_0-7_枠細線
  6
CONTINUOUS
 62
    5
 10
1392.966460590671
 20
242.85777402966897
 40
12.026499332130607
 50
317.5616290000047
 51
42.438370999994966
  0
ARC
  8
_0-7_枠細線
  6
CONTINUOUS
 62
    5
 10
1410.7176602555635
 20
259.08866002804609
 40
12.026499332130607
 50
137.56162900000001
 51
222.43837100000297
  0
ARC
  8
_0-7_枠細線
  6
CONTINUOUS
 62
    5
 10
1298.0859738141421
 20
242.85777402966897
 40
12.026499332130607
 50
317.5616290000047
 51
42.438370999994966
  0
ARC
  8
_0-7_枠細線
  6
CONTINUOUS
 62
    5
 10
1315.8371734790348
 20
259.08866002804609
 40
12.026499332130607
 50
137.56162900000001
 51
222.43837100000297
  0
LINE
  8
_0-7_枠細線
  6
CONTINUOUS
 62
    5
 10
1304.4553061852562
 20
262.97321702885733
 11
1399.3357929617846
 21
262.97321702885733
  0
LINE
  8
_0-7_枠細線
  6
CONTINUOUS
 62
    5
 10
1404.3483278844492
 20
238.97321702885733
 11
1309.4678411079208
 21
238.97321702885733
  0
LINE
  8
_0-7_枠細線
  6
CONTINUOUS
 62
    5
 10
1310.0055655050667
 20
244.4577803132122
 11
1315.4901287894213
 21
238.9732170288575
  0
LINE
  8
_0-7_枠細線
  6
CONTINUOUS
 62
    5
 10
1304.3960893257238
 20
262.79517855391305
 11
1328.218050850779
 21
238.97321702885748
  0
LINE
  8
_0-7_枠細線
  6
CONTINUOUS
 62
    5
 10
1316.9459729121372
 20
262.97321702885756
 11
1340.9459729121368
 21
238.97321702885748
  0
LINE
  8
_0-7_枠細線
  6
CONTINUOUS
 62
    5
 10
1329.6738949734947
 20
262.97321702885745
 11
1353.6738949734945
 21
238.97321702885748
  0
LINE
  8
_0-7_枠細線
  6
CONTINUOUS
 62
    5
 10
1342.4018170348527
 20
262.97321702885745
 11
1366.4018170348525
 21
238.97321702885745
  0
LINE
  8
_0-7_枠細線
  6
CONTINUOUS
 62
    5
 10
1355.1297390962102
 20
262.97321702885739
 11
1379.12973909621
 21
238.97321702885739
  0
LINE
  8
_0-7_枠細線
  6
CONTINUOUS
 62
    5
 10
1367.8576611575681
 20
262.97321702885739
 11
1391.8576611575677
 21
238.97321702885739
  0
LINE
  8
_0-7_枠細線
  6
CONTINUOUS
 62
    5
 10
1380.5855832189261
 20
262.97321702885739
 11
1404.4075447439814
 21
239.15125550380145
  0
LINE
  8
_0-7_枠細線
  6
CONTINUOUS
 62
    5
 10
1393.3135052802836
 20
262.97321702885733
 11
1398.7980685646389
 21
257.48865374450207
  0
LINE
  8
_0-7_枠細線
  6
CONTINUOUS
 62
    5
 10
1393.3135052802843
 20
238.97321702885739
 11
1403.3188705607763
 21
248.97858230934932
  0
LINE
  8
_0-7_枠細線
  6
CONTINUOUS
 62
    5
 10
1380.5855832189263
 20
238.97321702885739
 11
1398.8365633238182
 21
257.22419713374904
  0
LINE
  8
_0-7_枠細線
  6
CONTINUOUS
 62
    5
 10
1367.8576611575684
 20
238.97321702885745
 11
1391.8576611575686
 21
262.97321702885733
  0
LINE
  8
_0-7_枠細線
  6
CONTINUOUS
 62
    5
 10
1355.1297390962109
 20
238.97321702885748
 11
1379.1297390962106
 21
262.97321702885739
  0
LINE
  8
_0-7_枠細線
  6
CONTINUOUS
 62
    5
 10
1342.4018170348527
 20
238.97321702885748
 11
1366.4018170348527
 21
262.97321702885739
  0
LINE
  8
_0-7_枠細線
  6
CONTINUOUS
 62
    5
 10
1329.673894973495
 20
238.97321702885748
 11
1353.673894973495
 21
262.97321702885739
  0
LINE
  8
_0-7_枠細線
  6
CONTINUOUS
 62
    5
 10
1316.9459729121374
 20
238.9732170288575
 11
1340.9459729121372
 21
262.97321702885745
  0
LINE
  8
_0-7_枠細線
  6
CONTINUOUS
 62
    5
 10
1309.9670707458877
 20
244.72223692396568
 11
1328.2180508507793
 21
262.97321702885745
  0
LINE
  8
_0-7_枠細線
  6
CONTINUOUS
 62
    5
 10
1305.4847635089297
 20
252.96785174836555
 11
1315.4901287894218
 21
262.97321702885756
  0
LINE
  8
_0-9_枠極太
  6
CONTINUOUS
 62
    5
 10
60
 20
60
 11
60
 21
960
  0
LINE
  8
_0-9_枠極太
  6
CONTINUOUS
 62
    5
 10
60
 20
960
 11
1425
 21
960
  0
LINE
  8
_0-9_枠極太
  6
CONTINUOUS
 62
    5
 10
1425
 20
960
 11
1425
 21
60
  0
LINE
  8
_0-9_枠極太
  6
CONTINUOUS
 62
    5
 10
1425
 20
60
 11
60
 21
60
  0
LINE
  8
_0-a_極細3
  6
CONTINUOUS
 62
    7
 10
734.26399310350587
 20
251.56810602460041
 11
730.4306597701725
 21
251.56810602460041
  0
LINE
  8
_0-a_極細3
  6
CONTINUOUS
 62
    7
 10
734.26399310350587
 20
254.9014393579339
 11
730.4306597701725
 21
254.9014393579339
  0
LINE
  8
_0-a_極細3
  6
CONTINUOUS
 62
    7
 10
734.26399310350587
 20
248.23477269126715
 11
730.4306597701725
 21
248.23477269126715
  0
LINE
  8
_0-a_極細3
  6
CONTINUOUS
 62
    7
 10
734.26399310350587
 20
258.23477269126715
 11
730.4306597701725
 21
258.23477269126715
  0
LINE
  8
_0-a_極細3
  6
CONTINUOUS
 62
    7
 10
730.4306597701725
 20
224.9014393579339
 11
734.26399310350587
 21
224.9014393579339
  0
LINE
  8
_0-a_極細3
  6
CONTINUOUS
 62
    7
 10
734.26399310350587
 20
274.9014393579339
 11
730.4306597701725
 21
274.9014393579339
  0
LINE
  8
_0-b_細線3
  6
CONTINUOUS
 62
    7
 10
730.4306597701725
 20
278.23477269126715
 11
730.4306597701725
 21
219.9014393579339
  0
LINE
  8
_0-b_細線3
  6
CONTINUOUS
 62
    7
 10
730.4306597701725
 20
219.9014393579339
 11
734.26399310350587
 21
219.9014393579339
  0
LINE
  8
_0-b_細線3
  6
CONTINUOUS
 62
    7
 10
734.26399310350587
 20
219.9014393579339
 11
734.26399310350587
 21
278.23477269126715
  0
LINE
  8
_0-b_細線3
  6
CONTINUOUS
 62
    7
 10
734.26399310350587
 20
278.23477269126715
 11
730.4306597701725
 21
278.23477269126715
  0
LINE
  8
_0-7_枠細線
  6
CONTINUOUS
 62
    5
 10
753.34986119674545
 20
255.9635226874212
 11
745.84986119674545
 21
270.96352268742118
  0
LINE
  8
_0-7_枠細線
  6
CONTINUOUS
 62
    5
 10
738.34986119674545
 20
255.9635226874212
 11
753.34986119674545
 21
255.9635226874212
  0
LINE
  8
_0-7_枠細線
  6
CONTINUOUS
 62
    5
 10
745.84986119674545
 20
270.96352268742118
 11
738.34986119674545
 21
255.9635226874212
  0
TEXT
  8
_0-7_枠細線
 62
    5
 10
740.71501246489345
 20
255.65652044204063
 40
12.5
 41
0.8
 50
0
  1
１
  0
LINE
  8
_0-a_極細3
  6
CONTINUOUS
 62
    7
 10
206.5973264368391
 20
251.56810602460041
 11
210.4306597701725
 21
251.56810602460041
  0
LINE
  8
_0-a_極細3
  6
CONTINUOUS
 62
    7
 10
206.5973264368391
 20
254.9014393579339
 11
210.4306597701725
 21
254.9014393579339
  0
LINE
  8
_0-a_極細3
  6
CONTINUOUS
 62
    7
 10
206.5973264368391
 20
248.23477269126715
 11
210.4306597701725
 21
248.23477269126715
  0
LINE
  8
_0-a_極細3
  6
CONTINUOUS
 62
    7
 10
206.5973264368391
 20
258.23477269126715
 11
210.4306597701725
 21
258.23477269126715
  0
LINE
  8
_0-a_極細3
  6
CONTINUOUS
 62
    7
 10
210.4306597701725
 20
224.9014393579339
 11
206.5973264368391
 21
224.9014393579339
  0
LINE
  8
_0-a_極細3
  6
CONTINUOUS
 62
    7
 10
206.5973264368391
 20
274.9014393579339
 11
210.4306597701725
 21
274.9014393579339
  0
LINE
  8
_0-b_細線3
  6
CONTINUOUS
 62
    7
 10
210.4306597701725
 20
278.23477269126715
 11
210.4306597701725
 21
219.9014393579339
  0
LINE
  8
_0-b_細線3
  6
CONTINUOUS
 62
    7
 10
210.4306597701725
 20
219.9014393579339
 11
206.5973264368391
 21
219.9014393579339
  0
LINE
  8
_0-b_細線3
  6
CONTINUOUS
 62
    7
 10
206.5973264368391
 20
219.9014393579339
 11
206.5973264368391
 21
278.23477269126715
  0
LINE
  8
_0-b_細線3
  6
CONTINUOUS
 62
    7
 10
206.5973264368391
 20
278.23477269126715
 11
210.4306597701725
 21
278.23477269126715
  0
LINE
  8
_0-7_枠細線
  6
CONTINUOUS
 62
    5
 10
1425
 20
907.5
 11
890
 21
907.5
  0
LINE
  8
_0-7_枠細線
  6
CONTINUOUS
 62
    5
 10
915
 20
908.94233397174708
 11
907.5
 21
923.94233397174708
  0
LINE
  8
_0-7_枠細線
  6
CONTINUOUS
 62
    5
 10
900
 20
908.94233397174708
 11
915
 21
908.94233397174708
  0
LINE
  8
_0-7_枠細線
  6
CONTINUOUS
 62
    5
 10
907.5
 20
923.94233397174708
 11
900
 21
908.94233397174708
  0
TEXT
  8
_0-7_枠細線
 62
    5
 10
902.36515126814822
 20
908.63533172636653
 40
12.5
 41
0.8
 50
0
  1
１
  0
TEXT
  8
_0-7_枠細線
 62
    5
 10
1180
 20
910
 40
12.5
 41
0.7199999999999999
 50
0
  1
２０１９．０９．０１
  0
TEXT
  8
_0-7_枠細線
 62
    5
 10
938.85037037037023
 20
910
 40
12.500000000000002
 41
1
 50
0
  1
アンカー材質･厚み変更
  0
LINE
  8
_0-7_枠細線
  6
CONTINUOUS
 62
    5
 10
890
 20
907.5
 11
890
 21
959.99999999999909
  0
LINE
  8
_0-7_枠細線
  6
CONTINUOUS
 62
    5
 10
925
 20
907.5
 11
925
 21
959.99999999999943
  0
LINE
  8
_0-7_枠細線
  6
CONTINUOUS
 62
    5
 10
1175
 20
907.5
 11
1175
 21
959.99999999999943
  0
LINE
  8
_0-7_枠細線
  6
CONTINUOUS
 62
    5
 10
1275
 20
907.5
 11
1275
 21
959.99999999999943
  0
LINE
  8
_0-7_枠細線
  6
CONTINUOUS
 62
    5
 10
1139.4018171150183
 20
363.44073060935494
 11
1139.4018171150183
 21
443.440730609355
  0
LINE
  8
_0-7_枠細線
  6
CONTINUOUS
 62
    5
 10
1229.4018171150183
 20
363.44073060935494
 11
1229.4018171150183
 21
443.440730609355
  0
TEXT
  8
_0-7_枠細線
 62
    5
 10
1251.9018171150183
 20
420.940730609355
 40
15
 41
1
 50
0
  1
蓋重量
  0
LINE
  8
_0-7_枠細線
  6
CONTINUOUS
 62
    5
 10
1319.4018171150183
 20
363.44073060935494
 11
1319.4018171150183
 21
443.440730609355
  0
TEXT
  8
_0-7_枠細線
 62
    5
 10
1341.9018171150183
 20
420.940730609355
 40
15
 41
1
 50
0
  1
枠重量
  0
LINE
  8
_0-7_枠細線
  6
CONTINUOUS
 62
    5
 10
1139.4018171150183
 20
413.440730609355
 11
1409.4018171150183
 21
413.440730609355
  0
LINE
  8
_0-7_枠細線
  6
CONTINUOUS
 62
    5
 10
1139.4018171150183
 20
443.440730609355
 11
1409.4018171150183
 21
443.440730609355
  0
LINE
  8
_0-7_枠細線
  6
CONTINUOUS
 62
    5
 10
1139.4018171150183
 20
363.44073060935494
 11
1409.4018171150183
 21
363.44073060935494
  0
LINE
  8
_0-7_枠細線
  6
CONTINUOUS
 62
    5
 10
1409.4018171150183
 20
363.44073060935494
 11
1409.4018171150183
 21
443.440730609355
  0
TEXT
  8
_0-7_枠細線
 62
    5
 10
1154.4018171150183
 20
420.940730609355
 40
15
 41
1
 50
0
  1
適用荷重
  0
TEXT
  8
_0-7_枠細線
 62
    5
 10
1161.9018171150183
 20
390.940730609355
 40
15
 41
1
 50
0
  1
歩道用
  0
TEXT
  8
_0-7_枠細線
 62
    5
 10
1139.4018171150183
 20
370.94073060935494
 40
15
 41
1
 50
0
  1
（5.0kN/㎡）
  0
TEXT
  8
_0-7_枠細線
 62
    5
 10
1250.4018171150183
 20
382.19073060935494
 40
15
 41
0.8000000000000001
 50
0
  1
3.3kg/枚
  0
TEXT
  8
_0-7_枠細線
 62
    5
 10
1334.4018171150183
 20
382.19073060935494
 40
15
 41
0.8000000000000001
 50
0
  1
2.4kg/ｍ組
  0
LINE
  8
_0-1_計細線
  6
CONTINUOUS
 62
    3
 10
978.43374978386692
 20
694.69365693033808
 11
978.43374978386692
 21
688.69365693033819
  0
LINE
  8
_0-1_計細線
  6
CONTINUOUS
 62
    3
 10
978.43374978386692
 20
681.69365693033808
 11
978.43374978386692
 21
675.69365693033819
  0
LINE
  8
_0-1_計細線
  6
CONTINUOUS
 62
    3
 10
978.43374978386692
 20
668.69365693033819
 11
978.43374978386692
 21
662.69365693033808
  0
LINE
  8
_0-1_計細線
  6
CONTINUOUS
 62
    3
 10
978.43374978386692
 20
655.69365693033819
 11
978.43374978386692
 21
649.69365693033808
  0
LINE
  8
_0-1_計細線
  6
CONTINUOUS
 62
    3
 10
978.43374978386692
 20
642.69365693033808
 11
978.43374978386692
 21
636.69365693033808
  0
LINE
  8
_0-1_計細線
  6
CONTINUOUS
 62
    3
 10
978.43374978386692
 20
629.69365693033808
 11
978.43374978386692
 21
623.69365693033819
  0
LINE
  8
_0-0_計極細
  6
CENTER2
 62
    2
 10
284.53432969772575
 20
646.19365693033819
 11
1169.3550704384666
 21
646.19365693033819
  0
LINE
  8
_0-1_計細線
  6
CONTINUOUS
 62
    3
 10
471.43374978386737
 20
694.69365693033808
 11
471.43374978386737
 21
688.69365693033819
  0
LINE
  8
_0-1_計細線
  6
CONTINUOUS
 62
    3
 10
471.43374978386737
 20
681.69365693033808
 11
471.43374978386737
 21
675.69365693033819
  0
LINE
  8
_0-1_計細線
  6
CONTINUOUS
 62
    3
 10
471.43374978386737
 20
668.69365693033819
 11
471.43374978386737
 21
662.69365693033808
  0
LINE
  8
_0-1_計細線
  6
CONTINUOUS
 62
    3
 10
471.43374978386737
 20
655.69365693033819
 11
471.43374978386737
 21
649.69365693033808
  0
LINE
  8
_0-1_計細線
  6
CONTINUOUS
 62
    3
 10
471.43374978386737
 20
642.69365693033808
 11
471.43374978386737
 21
636.69365693033808
  0
LINE
  8
_0-1_計細線
  6
CONTINUOUS
 62
    3
 10
471.43374978386737
 20
629.69365693033808
 11
471.43374978386737
 21
623.69365693033819
  0
LINE
  8
_0-1_計細線
  6
CONTINUOUS
 62
    3
 10
978.43374978386692
 20
732.19365693033808
 11
978.43374978386692
 21
726.19365693033819
  0
LINE
  8
_0-1_計細線
  6
CONTINUOUS
 62
    3
 10
978.43374978386692
 20
719.19365693033808
 11
978.43374978386692
 21
713.19365693033819
  0
LINE
  8
_0-1_計細線
  6
CONTINUOUS
 62
    3
 10
978.43374978386692
 20
706.19365693033819
 11
978.43374978386692
 21
700.19365693033808
  0
LINE
  8
_0-1_計細線
  6
CONTINUOUS
 62
    3
 10
1164.9337497838665
 20
802.19365693033808
 11
284.93374978386737
 21
802.19365693033808
  0
ARC
  8
_0-1_計細線
  6
CONTINUOUS
 62
    3
 10
1151.8712497838851
 20
794.6936569303399
 40
15.062499999984542
 50
330.13716564368326
 51
29.862834356304496
  0
ARC
  8
_0-1_計細線
  6
CONTINUOUS
 62
    3
 10
1177.9962497838851
 20
779.6936569303399
 40
15.062500000017272
 50
150.13716564376668
 51
209.86283435624543
  0
LINE
  8
_0-5_寸法線
  6
CONTINUOUS
 62
    7
 10
475.43374978386737
 20
812.19365693033683
 11
475.43374978386737
 21
892.19365693033808
  0
LINE
  8
_0-5_寸法線
  6
CONTINUOUS
 62
    7
 10
475.43374978386737
 20
887.19365693033808
 11
485.09300804675803
 21
889.78184738136338
  0
LINE
  8
_0-5_寸法線
  6
CONTINUOUS
 62
    7
 10
475.43374978386737
 20
887.19365693033808
 11
485.09300804675803
 21
884.60546647931301
  0
LINE
  8
_0-5_寸法線
  6
CONTINUOUS
 62
    7
 10
974.43374978386703
 20
812.19365693033683
 11
974.43374978386737
 21
892.19365693033808
  0
LINE
  8
_0-5_寸法線
  6
CONTINUOUS
 62
    7
 10
974.43374978386737
 20
887.19365693033808
 11
964.77449152097677
 21
884.60546647931301
  0
LINE
  8
_0-5_寸法線
  6
CONTINUOUS
 62
    7
 10
974.43374978386737
 20
887.19365693033808
 11
964.77449152097677
 21
889.78184738136338
  0
LINE
  8
_0-5_寸法線
  6
CONTINUOUS
 62
    7
 10
475.43374978386737
 20
887.19365693033808
 11
974.43374978386737
 21
887.19365693033808
  0
TEXT
  8
_0-5_寸法線
 62
    7
 10
713.68374978386737
 20
887.19365693033808
 40
15
 41
1
 50
0
  1
499
  0
LINE
  8
_0-5_寸法線
  6
CONTINUOUS
 62
    7
 10
475.43374978386692
 20
812.19365693033808
 11
475.43374978386692
 21
857.19365693033808
  0
LINE
  8
_0-5_寸法線
  6
CONTINUOUS
 62
    7
 10
475.43374978386692
 20
852.19365693033808
 11
485.09300804675763
 21
854.78184738136338
  0
LINE
  8
_0-5_寸法線
  6
CONTINUOUS
 62
    7
 10
475.43374978386692
 20
852.19365693033808
 11
485.09300804675763
 21
849.60546647931301
  0
LINE
  8
_0-5_寸法線
  6
CONTINUOUS
 62
    7
 10
574.93374978386692
 20
812.19365693033808
 11
574.93374978386692
 21
857.19365693033808
  0
LINE
  8
_0-5_寸法線
  6
CONTINUOUS
 62
    7
 10
574.93374978386692
 20
852.19365693033808
 11
565.2744915209762
 21
849.60546647931301
  0
LINE
  8
_0-5_寸法線
  6
CONTINUOUS
 62
    7
 10
574.93374978386692
 20
852.19365693033808
 11
565.2744915209762
 21
854.78184738136338
  0
LINE
  8
_0-5_寸法線
  6
CONTINUOUS
 62
    7
 10
475.43374978386692
 20
852.19365693033808
 11
574.93374978386692
 21
852.19365693033808
  0
TEXT
  8
_0-5_寸法線
 62
    7
 10
510.18374978386697
 20
852.19365693033808
 40
15
 41
1
 50
0
  1
99.5
  0
LINE
  8
_0-5_寸法線
  6
CONTINUOUS
 62
    7
 10
574.93374978386692
 20
852.19365693033808
 11
584.59300804675763
 21
854.78184738136338
  0
LINE
  8
_0-5_寸法線
  6
CONTINUOUS
 62
    7
 10
574.93374978386692
 20
852.19365693033808
 11
584.59300804675763
 21
849.60546647931278
  0
LINE
  8
_0-5_寸法線
  6
CONTINUOUS
 62
    7
 10
674.93374978386692
 20
812.19365693033808
 11
674.93374978386692
 21
857.19365693033808
  0
LINE
  8
_0-5_寸法線
  6
CONTINUOUS
 62
    7
 10
674.93374978386692
 20
852.19365693033808
 11
665.2744915209762
 21
849.60546647931301
  0
LINE
  8
_0-5_寸法線
  6
CONTINUOUS
 62
    7
 10
674.93374978386692
 20
852.19365693033808
 11
665.2744915209762
 21
854.78184738136338
  0
LINE
  8
_0-5_寸法線
  6
CONTINUOUS
 62
    7
 10
574.93374978386692
 20
852.19365693033808
 11
674.93374978386692
 21
852.19365693033808
  0
TEXT
  8
_0-5_寸法線
 62
    7
 10
613.68374978386737
 20
852.19365693033808
 40
15
 41
1
 50
0
  1
100
  0
LINE
  8
_0-5_寸法線
  6
CONTINUOUS
 62
    7
 10
674.93374978386692
 20
852.19365693033808
 11
684.59300804675763
 21
854.78184738136338
  0
LINE
  8
_0-5_寸法線
  6
CONTINUOUS
 62
    7
 10
674.93374978386692
 20
852.19365693033808
 11
684.59300804675763
 21
849.60546647931278
  0
LINE
  8
_0-5_寸法線
  6
CONTINUOUS
 62
    7
 10
774.93374978386692
 20
812.19365693033808
 11
774.93374978386692
 21
857.19365693033808
  0
LINE
  8
_0-5_寸法線
  6
CONTINUOUS
 62
    7
 10
774.93374978386692
 20
852.19365693033808
 11
765.2744915209762
 21
849.60546647931301
  0
LINE
  8
_0-5_寸法線
  6
CONTINUOUS
 62
    7
 10
774.93374978386692
 20
852.19365693033808
 11
765.2744915209762
 21
854.78184738136338
  0
LINE
  8
_0-5_寸法線
  6
CONTINUOUS
 62
    7
 10
674.93374978386692
 20
852.19365693033808
 11
774.93374978386692
 21
852.19365693033808
  0
TEXT
  8
_0-5_寸法線
 62
    7
 10
713.68374978386692
 20
852.19365693033808
 40
15
 41
1
 50
0
  1
100
  0
LINE
  8
_0-5_寸法線
  6
CONTINUOUS
 62
    7
 10
774.93374978386692
 20
852.19365693033808
 11
784.59300804675763
 21
854.78184738136338
  0
LINE
  8
_0-5_寸法線
  6
CONTINUOUS
 62
    7
 10
774.93374978386692
 20
852.19365693033808
 11
784.59300804675763
 21
849.60546647931278
  0
LINE
  8
_0-5_寸法線
  6
CONTINUOUS
 62
    7
 10
874.93374978386692
 20
812.19365693033808
 11
874.93374978386692
 21
857.19365693033808
  0
LINE
  8
_0-5_寸法線
  6
CONTINUOUS
 62
    7
 10
874.93374978386692
 20
852.19365693033808
 11
865.27449152097631
 21
849.60546647931301
  0
LINE
  8
_0-5_寸法線
  6
CONTINUOUS
 62
    7
 10
874.93374978386692
 20
852.19365693033808
 11
865.27449152097631
 21
854.78184738136338
  0
LINE
  8
_0-5_寸法線
  6
CONTINUOUS
 62
    7
 10
774.93374978386692
 20
852.19365693033808
 11
874.93374978386692
 21
852.19365693033808
  0
TEXT
  8
_0-5_寸法線
 62
    7
 10
813.68374978386692
 20
852.19365693033808
 40
15
 41
1
 50
0
  1
100
  0
LINE
  8
_0-5_寸法線
  6
CONTINUOUS
 62
    7
 10
874.93374978386692
 20
852.19365693033808
 11
884.59300804675763
 21
854.78184738136338
  0
LINE
  8
_0-5_寸法線
  6
CONTINUOUS
 62
    7
 10
874.93374978386692
 20
852.19365693033808
 11
884.59300804675763
 21
849.60546647931278
  0
LINE
  8
_0-5_寸法線
  6
CONTINUOUS
 62
    7
 10
974.43374978386737
 20
812.19365693033808
 11
974.43374978386737
 21
857.19365693033808
  0
LINE
  8
_0-5_寸法線
  6
CONTINUOUS
 62
    7
 10
974.43374978386737
 20
852.19365693033808
 11
964.77449152097677
 21
849.60546647931301
  0
LINE
  8
_0-5_寸法線
  6
CONTINUOUS
 62
    7
 10
974.43374978386737
 20
852.19365693033808
 11
964.77449152097677
 21
854.78184738136338
  0
LINE
  8
_0-5_寸法線
  6
CONTINUOUS
 62
    7
 10
874.93374978386692
 20
852.19365693033808
 11
974.43374978386737
 21
852.19365693033808
  0
TEXT
  8
_0-5_寸法線
 62
    7
 10
909.68374978386748
 20
852.19365693033808
 40
15
 41
1
 50
0
  1
99.5
  0
LINE
  8
_0-1_計細線
  6
CONTINUOUS
 62
    3
 10
978.43374978386692
 20
797.19365693033808
 11
978.43374978386692
 21
791.19365693033819
  0
LINE
  8
_0-1_計細線
  6
CONTINUOUS
 62
    3
 10
978.43374978386692
 20
784.19365693033808
 11
978.43374978386692
 21
778.19365693033819
  0
LINE
  8
_0-1_計細線
  6
CONTINUOUS
 62
    3
 10
978.43374978386692
 20
771.19365693033819
 11
978.43374978386692
 21
765.19365693033808
  0
LINE
  8
_0-1_計細線
  6
CONTINUOUS
 62
    3
 10
1166.245842169395
 20
799.19365693033808
 11
283.62165739833927
 21
799.19365693033808
  0
LINE
  8
_0-1_計細線
  6
CONTINUOUS
 62
    3
 10
978.43374978386692
 20
758.19365693033819
 11
978.43374978386692
 21
752.19365693033808
  0
LINE
  8
_0-1_計細線
  6
CONTINUOUS
 62
    3
 10
978.43374978386692
 20
745.19365693033808
 11
978.43374978386692
 21
739.19365693033808
  0
LINE
  8
_0-0_計極細
  6
CONTINUOUS
 62
    2
 10
1124.9337497838669
 20
797.19365693033808
 11
1125.0288782180082
 21
796.67112448587613
  0
LINE
  8
_0-0_計極細
  6
CONTINUOUS
 62
    2
 10
1125.0288782180082
 20
796.67112448587613
 11
1125.3115820646215
 21
795.11778745931497
  0
LINE
  8
_0-0_計極細
  6
CONTINUOUS
 62
    2
 10
1125.3115820646215
 20
795.11778745931497
 11
1125.7734026970604
 21
792.57607709377066
  0
LINE
  8
_0-0_計極細
  6
CONTINUOUS
 62
    2
 10
1125.7734026970604
 20
792.57607709377066
 11
1126.3990454094062
 21
789.11554215799242
  0
LINE
  8
_0-0_計極細
  6
CONTINUOUS
 62
    2
 10
1126.3990454094062
 20
789.11554215799242
 11
1127.1651748839924
 21
784.83108262210294
  0
LINE
  8
_0-0_計極細
  6
CONTINUOUS
 62
    2
 10
1127.1651748839924
 20
784.83108262210294
 11
1128.0397350158391
 21
779.84046721946197
  0
LINE
  8
_0-0_計極細
  6
CONTINUOUS
 62
    2
 10
1128.0397350158391
 20
779.84046721946197
 11
1128.9824354951625
 21
774.28115229878642
  0
LINE
  8
_0-0_計極細
  6
CONTINUOUS
 62
    2
 10
1128.9824354951625
 20
774.28115229878642
 11
1129.9468188572685
 21
768.30645430591926
  0
LINE
  8
_0-0_計極細
  6
CONTINUOUS
 62
    2
 10
1129.9468188572685
 20
768.30645430591926
 11
1130.8839426678358
 21
762.08117295708246
  0
LINE
  8
_0-0_計極細
  6
CONTINUOUS
 62
    2
 10
1130.8839426678358
 20
762.08117295708246
 11
1131.7472744227071
 21
755.77680884530287
  0
LINE
  8
_0-0_計極細
  6
CONTINUOUS
 62
    2
 10
1131.7472744227071
 20
755.77680884530287
 11
1132.498013064132
 21
749.56655855849351
  0
LINE
  8
_0-0_計極細
  6
CONTINUOUS
 62
    2
 10
1132.498013064132
 20
749.56655855849351
 11
1133.109823813094
 21
743.62029384087987
  0
LINE
  8
_0-0_計極細
  6
CONTINUOUS
 62
    2
 10
1133.109823813094
 20
743.62029384087987
 11
1133.5719709486334
 21
738.0997332221225
  0
LINE
  8
_0-0_計極細
  6
CONTINUOUS
 62
    2
 10
1133.5719709486334
 20
738.0997332221225
 11
1133.8900724174091
 21
733.15399351811629
  0
LINE
  8
_0-0_計極細
  6
CONTINUOUS
 62
    2
 10
1133.8900724174091
 20
733.15399351811629
 11
1134.0841388401261
 21
728.91566809931294
  0
LINE
  8
_0-0_計極細
  6
CONTINUOUS
 62
    2
 10
1134.0841388401261
 20
728.91566809931294
 11
1134.1841060199476
 21
725.49752635164157
  0
LINE
  8
_0-0_計極細
  6
CONTINUOUS
 62
    2
 10
1134.1841060199476
 20
725.49752635164157
 11
1134.2236037398525
 21
722.98987428549526
  0
LINE
  8
_0-0_計極細
  6
CONTINUOUS
 62
    2
 10
1134.2236037398525
 20
722.98987428549526
 11
1134.2331025345106
 21
721.45856992441395
  0
LINE
  8
_0-0_計極細
  6
CONTINUOUS
 62
    2
 10
1134.2331025345106
 20
721.45856992441395
 11
1134.2337497838671
 21
720.94365693033808
  0
LINE
  8
_0-0_計極細
  6
CONTINUOUS
 62
    2
 10
1134.2337497838671
 20
720.94365693033808
 11
1134.2331025345106
 21
720.42884833131961
  0
LINE
  8
_0-0_計極細
  6
CONTINUOUS
 62
    2
 10
1134.2331025345106
 20
720.42884833131961
 11
1134.2236037398525
 21
718.89907603389304
  0
LINE
  8
_0-0_計極細
  6
CONTINUOUS
 62
    2
 10
1134.2236037398525
 20
718.89907603389304
 11
1134.1841060199476
 21
716.39779456773135
  0
LINE
  8
_0-0_計極細
  6
CONTINUOUS
 62
    2
 10
1134.1841060199476
 20
716.39779456773135
 11
1134.0841388401261
 21
712.99577655874077
  0
LINE
  8
_0-0_計極細
  6
CONTINUOUS
 62
    2
 10
1134.0841388401261
 20
712.99577655874077
 11
1133.8900724174091
 21
708.7887521758596
  0
LINE
  8
_0-0_計極細
  6
CONTINUOUS
 62
    2
 10
1133.8900724174091
 20
708.7887521758596
 11
1133.5719709486336
 21
703.89431916036574
  0
LINE
  8
_0-0_計極細
  6
CONTINUOUS
 62
    2
 10
1133.5719709486336
 20
703.89431916036574
 11
1133.109823813094
 21
698.44829840217915
  0
LINE
  8
_0-0_計極細
  6
CONTINUOUS
 62
    2
 10
1133.109823813094
 20
698.44829840217915
 11
1132.498013064132
 21
692.60071283762375
  0
LINE
  8
_0-0_計極細
  6
CONTINUOUS
 62
    2
 10
1132.498013064132
 20
692.60071283762375
 11
1131.7472744227071
 21
686.51154942846392
  0
LINE
  8
_0-0_計極細
  6
CONTINUOUS
 62
    2
 10
1131.7472744227071
 20
686.51154942846392
 11
1130.8839426678358
 21
680.34643237392152
  0
LINE
  8
_0-0_計極細
  6
CONTINUOUS
 62
    2
 10
1130.8839426678358
 20
680.34643237392152
 11
1129.9468188572685
 21
674.27230002678914
  0
LINE
  8
_0-0_計極細
  6
CONTINUOUS
 62
    2
 10
1129.9468188572685
 20
674.27230002678914
 11
1128.9824354951625
 21
668.45314773748726
  0
LINE
  8
_0-0_計極細
  6
CONTINUOUS
 62
    2
 10
1128.9824354951625
 20
668.45314773748726
 11
1128.0397350158391
 21
663.04588128121873
  0
LINE
  8
_0-0_計極細
  6
CONTINUOUS
 62
    2
 10
1128.0397350158391
 20
663.04588128121873
 11
1127.1651748839924
 21
658.19632396435952
  0
LINE
  8
_0-0_計極細
  6
CONTINUOUS
 62
    2
 10
1127.1651748839924
 20
658.19632396435952
 11
1126.3990454094062
 21
654.0354336985647
  0
LINE
  8
_0-0_計極細
  6
CONTINUOUS
 62
    2
 10
1126.3990454094062
 20
654.0354336985647
 11
1125.7734026970604
 21
650.67580887768077
  0
LINE
  8
_0-0_計極細
  6
CONTINUOUS
 62
    2
 10
1125.7734026970604
 20
650.67580887768077
 11
1125.3115820646217
 21
648.20858571091708
  0
LINE
  8
_0-0_計極細
  6
CONTINUOUS
 62
    2
 10
1125.3115820646217
 20
648.20858571091708
 11
1125.0288782180082
 21
646.7008460789707
  0
LINE
  8
_0-0_計極細
  6
CONTINUOUS
 62
    2
 10
1125.0288782180082
 20
646.7008460789707
 11
1124.9337497838669
 21
646.19365693033819
  0
LINE
  8
_0-1_計細線
  6
CONTINUOUS
 62
    3
 10
1164.9337497838665
 20
772.19365693033808
 11
1129.3370067565947
 21
772.19365693033808
  0
LINE
  8
_0-1_計細線
  6
CONTINUOUS
 62
    3
 10
471.43374978386737
 20
732.19365693033808
 11
471.43374978386737
 21
726.19365693033819
  0
LINE
  8
_0-1_計細線
  6
CONTINUOUS
 62
    3
 10
471.43374978386737
 20
719.19365693033808
 11
471.43374978386737
 21
713.19365693033819
  0
LINE
  8
_0-1_計細線
  6
CONTINUOUS
 62
    3
 10
471.43374978386737
 20
706.19365693033819
 11
471.43374978386737
 21
700.19365693033808
  0
ARC
  8
_0-1_計細線
  6
CONTINUOUS
 62
    3
 10
297.99624978384873
 20
794.6936569303399
 40
15.062499999984542
 50
150.13716564369517
 51
209.86283435631691
  0
ARC
  8
_0-1_計細線
  6
CONTINUOUS
 62
    3
 10
271.87124978384873
 20
779.6936569303399
 40
15.062500000017272
 50
330.13716564375471
 51
29.862834356232998
  0
LINE
  8
_0-1_計細線
  6
CONTINUOUS
 62
    3
 10
471.43374978386737
 20
797.19365693033808
 11
471.43374978386737
 21
791.19365693033819
  0
LINE
  8
_0-1_計細線
  6
CONTINUOUS
 62
    3
 10
471.43374978386737
 20
784.19365693033808
 11
471.43374978386737
 21
778.19365693033819
  0
LINE
  8
_0-1_計細線
  6
CONTINUOUS
 62
    3
 10
471.43374978386737
 20
771.19365693033819
 11
471.43374978386737
 21
765.19365693033808
  0
LINE
  8
_0-1_計細線
  6
CONTINUOUS
 62
    3
 10
471.43374978386737
 20
758.19365693033819
 11
471.43374978386737
 21
752.19365693033808
  0
LINE
  8
_0-1_計細線
  6
CONTINUOUS
 62
    3
 10
471.43374978386737
 20
745.19365693033808
 11
471.43374978386737
 21
739.19365693033808
  0
LINE
  8
_0-0_計極細
  6
CONTINUOUS
 62
    2
 10
324.93374978386692
 20
797.19365693033808
 11
324.83862134972583
 21
796.67112448587613
  0
LINE
  8
_0-0_計極細
  6
CONTINUOUS
 62
    2
 10
324.83862134972583
 20
796.67112448587613
 11
324.55591750311237
 21
795.11778745931497
  0
LINE
  8
_0-0_計極細
  6
CONTINUOUS
 62
    2
 10
324.55591750311237
 20
795.11778745931497
 11
324.09409687067341
 21
792.57607709377066
  0
LINE
  8
_0-0_計極細
  6
CONTINUOUS
 62
    2
 10
324.09409687067341
 20
792.57607709377066
 11
323.46845415832769
 21
789.11554215799242
  0
LINE
  8
_0-0_計極細
  6
CONTINUOUS
 62
    2
 10
323.46845415832769
 20
789.11554215799242
 11
322.70232468374155
 21
784.83108262210294
  0
LINE
  8
_0-0_計極細
  6
CONTINUOUS
 62
    2
 10
322.70232468374155
 20
784.83108262210294
 11
321.82776455189492
 21
779.84046721946197
  0
LINE
  8
_0-0_計極細
  6
CONTINUOUS
 62
    2
 10
321.82776455189492
 20
779.84046721946197
 11
320.88506407257165
 21
774.28115229878642
  0
LINE
  8
_0-0_計極細
  6
CONTINUOUS
 62
    2
 10
320.88506407257165
 20
774.28115229878642
 11
319.92068071046566
 21
768.30645430591926
  0
LINE
  8
_0-0_計極細
  6
CONTINUOUS
 62
    2
 10
319.92068071046566
 20
768.30645430591926
 11
318.9835568998983
 21
762.08117295708246
  0
LINE
  8
_0-0_計極細
  6
CONTINUOUS
 62
    2
 10
318.9835568998983
 20
762.08117295708246
 11
318.12022514502746
 21
755.77680884530287
  0
LINE
  8
_0-0_計極細
  6
CONTINUOUS
 62
    2
 10
318.12022514502746
 20
755.77680884530287
 11
317.36948650360216
 21
749.56655855849351
  0
LINE
  8
_0-0_計極細
  6
CONTINUOUS
 62
    2
 10
317.36948650360216
 20
749.56655855849351
 11
316.75767575464022
 21
743.62029384087987
  0
LINE
  8
_0-0_計極細
  6
CONTINUOUS
 62
    2
 10
316.75767575464022
 20
743.62029384087987
 11
316.29552861910071
 21
738.0997332221225
  0
LINE
  8
_0-0_計極細
  6
CONTINUOUS
 62
    2
 10
316.29552861910071
 20
738.0997332221225
 11
315.97742715032524
 21
733.15399351811629
  0
LINE
  8
_0-0_計極細
  6
CONTINUOUS
 62
    2
 10
315.97742715032524
 20
733.15399351811629
 11
315.78336072760834
 21
728.91566809931294
  0
LINE
  8
_0-0_計極細
  6
CONTINUOUS
 62
    2
 10
315.78336072760834
 20
728.91566809931294
 11
315.68339354778675
 21
725.49752635164157
  0
LINE
  8
_0-0_計極細
  6
CONTINUOUS
 62
    2
 10
315.68339354778675
 20
725.49752635164157
 11
315.64389582788181
 21
722.98987428549526
  0
LINE
  8
_0-0_計極細
  6
CONTINUOUS
 62
    2
 10
315.64389582788181
 20
722.98987428549526
 11
315.63439703322376
 21
721.45856992441395
  0
LINE
  8
_0-0_計極細
  6
CONTINUOUS
 62
    2
 10
315.63439703322376
 20
721.45856992441395
 11
315.63374978386719
 21
720.94365693033808
  0
LINE
  8
_0-0_計極細
  6
CONTINUOUS
 62
    2
 10
315.63374978386719
 20
720.94365693033808
 11
315.63439703322376
 21
720.42884833131961
  0
LINE
  8
_0-0_計極細
  6
CONTINUOUS
 62
    2
 10
315.63439703322376
 20
720.42884833131961
 11
315.64389582788181
 21
718.89907603389304
  0
LINE
  8
_0-0_計極細
  6
CONTINUOUS
 62
    2
 10
315.64389582788181
 20
718.89907603389304
 11
315.68339354778675
 21
716.39779456773135
  0
LINE
  8
_0-0_計極細
  6
CONTINUOUS
 62
    2
 10
315.68339354778675
 20
716.39779456773135
 11
315.78336072760834
 21
712.99577655874077
  0
LINE
  8
_0-0_計極細
  6
CONTINUOUS
 62
    2
 10
315.78336072760834
 20
712.99577655874077
 11
315.97742715032524
 21
708.7887521758596
  0
LINE
  8
_0-0_計極細
  6
CONTINUOUS
 62
    2
 10
315.97742715032524
 20
708.7887521758596
 11
316.29552861910071
 21
703.89431916036574
  0
LINE
  8
_0-0_計極細
  6
CONTINUOUS
 62
    2
 10
316.29552861910071
 20
703.89431916036574
 11
316.7576757546401
 21
698.44829840217915
  0
LINE
  8
_0-0_計極細
  6
CONTINUOUS
 62
    2
 10
316.7576757546401
 20
698.44829840217915
 11
317.36948650360216
 21
692.60071283762375
  0
LINE
  8
_0-0_計極細
  6
CONTINUOUS
 62
    2
 10
317.36948650360216
 20
692.60071283762375
 11
318.12022514502746
 21
686.51154942846392
  0
LINE
  8
_0-0_計極細
  6
CONTINUOUS
 62
    2
 10
318.12022514502746
 20
686.51154942846392
 11
318.9835568998983
 21
680.34643237392152
  0
LINE
  8
_0-0_計極細
  6
CONTINUOUS
 62
    2
 10
318.9835568998983
 20
680.34643237392152
 11
319.92068071046566
 21
674.27230002678914
  0
LINE
  8
_0-0_計極細
  6
CONTINUOUS
 62
    2
 10
319.92068071046566
 20
674.27230002678914
 11
320.88506407257165
 21
668.45314773748726
  0
LINE
  8
_0-0_計極細
  6
CONTINUOUS
 62
    2
 10
320.88506407257165
 20
668.45314773748726
 11
321.82776455189492
 21
663.04588128121873
  0
LINE
  8
_0-0_計極細
  6
CONTINUOUS
 62
    2
 10
321.82776455189492
 20
663.04588128121873
 11
322.70232468374155
 21
658.19632396435952
  0
LINE
  8
_0-0_計極細
  6
CONTINUOUS
 62
    2
 10
322.70232468374155
 20
658.19632396435952
 11
323.46845415832769
 21
654.0354336985647
  0
LINE
  8
_0-0_計極細
  6
CONTINUOUS
 62
    2
 10
323.46845415832769
 20
654.0354336985647
 11
324.09409687067341
 21
650.67580887768077
  0
LINE
  8
_0-0_計極細
  6
CONTINUOUS
 62
    2
 10
324.09409687067341
 20
650.67580887768077
 11
324.55591750311237
 21
648.20858571091708
  0
LINE
  8
_0-0_計極細
  6
CONTINUOUS
 62
    2
 10
324.55591750311237
 20
648.20858571091708
 11
324.83862134972583
 21
646.7008460789707
  0
LINE
  8
_0-0_計極細
  6
CONTINUOUS
 62
    2
 10
324.83862134972583
 20
646.7008460789707
 11
324.93374978386692
 21
646.19365693033819
  0
LINE
  8
_0-1_計細線
  6
CONTINUOUS
 62
    3
 10
284.93374978386782
 20
772.19365693033808
 11
320.53049281113954
 21
772.19365693033808
  0
LINE
  8
_0-1_計細線
  6
CONTINUOUS
 62
    3
 10
978.43374978386692
 20
618.19365693033808
 11
978.43374978386692
 21
612.19365693033808
  0
LINE
  8
_0-1_計細線
  6
CONTINUOUS
 62
    3
 10
978.43374978386692
 20
605.19365693033808
 11
978.43374978386692
 21
599.19365693033808
  0
LINE
  8
_0-1_計細線
  6
CONTINUOUS
 62
    3
 10
978.43374978386692
 20
592.19365693033808
 11
978.43374978386692
 21
586.19365693033819
  0
LINE
  8
_0-1_計細線
  6
CONTINUOUS
 62
    3
 10
978.43374978386692
 20
579.19365693033808
 11
978.43374978386692
 21
573.19365693033808
  0
LINE
  8
_0-1_計細線
  6
CONTINUOUS
 62
    3
 10
978.43374978386692
 20
566.19365693033819
 11
978.43374978386692
 21
560.19365693033808
  0
LINE
  8
_0-1_計細線
  6
CONTINUOUS
 62
    3
 10
1164.9337497838665
 20
490.19365693033814
 11
284.93374978386737
 21
490.19365693033814
  0
ARC
  8
_0-1_計細線
  6
CONTINUOUS
 62
    3
 10
1177.996249783856
 20
497.6936569303399
 40
15.06249999999028
 50
150.13716564371109
 51
209.86283435630014
  0
ARC
  8
_0-1_計細線
  6
CONTINUOUS
 62
    3
 10
1151.8712497838997
 20
512.69365693032853
 40
15.062499999975882
 50
330.13716564369213
 51
29.862834356369127
  0
LINE
  8
_0-5_寸法線
  6
CONTINUOUS
 62
    7
 10
789.91333539317895
 20
588.84945114360846
 11
794.06460425126397
 21
579.75181590867555
  0
LINE
  8
_0-5_寸法線
  6
CONTINUOUS
 62
    7
 10
789.91333539317895
 20
588.84945114360846
 11
788.95962206475315
 21
578.89503348674964
  0
LINE
  8
_0-5_寸法線
  6
CONTINUOUS
 62
    7
 10
789.91333539317895
 20
588.84945114360846
 11
813.27081851323283
 21
449.67813740263381
  0
LINE
  8
_0-5_寸法線
  6
CONTINUOUS
 62
    7
 10
813.27081851323283
 20
449.67813740263381
 11
947.7098307283527
 21
449.67813740263381
  0
TEXT
  8
_0-5_寸法線
 62
    7
 10
815.7098307283527
 20
449.67813740263381
 40
15
 41
0.8000000000000001
 50
0
  1
ステンレスグレーチング
  0
LINE
  8
_0-5_寸法線
  6
CONTINUOUS
 62
    7
 10
582.48906998143912
 20
491.40866862187124
 11
587.48906998143912
 21
482.74841458402682
  0
LINE
  8
_0-5_寸法線
  6
CONTINUOUS
 62
    7
 10
582.48906998143912
 20
491.40866862187124
 11
582.48906998143912
 21
481.40866862187124
  0
LINE
  8
_0-5_寸法線
  6
CONTINUOUS
 62
    7
 10
582.48906998143912
 20
491.40866862187124
 11
593.67073212135529
 21
449.67813740263381
  0
LINE
  8
_0-5_寸法線
  6
CONTINUOUS
 62
    7
 10
593.67073212135529
 20
449.67813740263381
 11
701.7216053327893
 21
449.67813740263381
  0
TEXT
  8
_0-5_寸法線
 62
    7
 10
593.7216053327893
 20
449.67813740263381
 40
15
 41
0.8000000000000001
 50
0
  1
ＳＵＳアングル受枠
  0
LINE
  8
_0-1_計細線
  6
CONTINUOUS
 62
    3
 10
978.43374978386692
 20
527.19365693033808
 11
978.43374978386692
 21
521.19365693033819
  0
LINE
  8
_0-1_計細線
  6
CONTINUOUS
 62
    3
 10
978.43374978386692
 20
514.19365693033808
 11
978.43374978386692
 21
508.19365693033808
  0
LINE
  8
_0-1_計細線
  6
CONTINUOUS
 62
    3
 10
978.43374978386692
 20
501.19365693033814
 11
978.43374978386692
 21
495.19365693033814
  0
LINE
  8
_0-1_計細線
  6
CONTINUOUS
 62
    3
 10
286.24584216939229
 20
493.19365693033808
 11
1163.6216573983415
 21
493.19365693033808
  0
LINE
  8
_0-1_計細線
  6
CONTINUOUS
 62
    3
 10
978.43374978386692
 20
540.19365693033808
 11
978.43374978386692
 21
534.19365693033808
  0
LINE
  8
_0-1_計細線
  6
CONTINUOUS
 62
    3
 10
978.43374978386692
 20
553.19365693033808
 11
978.43374978386692
 21
547.19365693033808
  0
LINE
  8
_0-0_計極細
  6
CONTINUOUS
 62
    2
 10
1124.9337497838669
 20
646.19365693033672
 11
1124.8386213497258
 21
645.68646778170421
  0
LINE
  8
_0-0_計極細
  6
CONTINUOUS
 62
    2
 10
1124.8386213497258
 20
645.68646778170421
 11
1124.5559175031124
 21
644.17872814975783
  0
LINE
  8
_0-0_計極細
  6
CONTINUOUS
 62
    2
 10
1124.5559175031124
 20
644.17872814975783
 11
1124.0940968706736
 21
641.71150498299414
  0
LINE
  8
_0-0_計極細
  6
CONTINUOUS
 62
    2
 10
1124.0940968706736
 20
641.71150498299414
 11
1123.4684541583279
 21
638.35188016211021
  0
LINE
  8
_0-0_計極細
  6
CONTINUOUS
 62
    2
 10
1123.4684541583279
 20
638.35188016211021
 11
1122.7023246837414
 21
634.19098989631527
  0
LINE
  8
_0-0_計極細
  6
CONTINUOUS
 62
    2
 10
1122.7023246837414
 20
634.19098989631527
 11
1121.8277645518949
 21
629.34143257945607
  0
LINE
  8
_0-0_計極細
  6
CONTINUOUS
 62
    2
 10
1121.8277645518949
 20
629.34143257945607
 11
1120.8850640725718
 21
623.93416612318765
  0
LINE
  8
_0-0_計極細
  6
CONTINUOUS
 62
    2
 10
1120.8850640725718
 20
623.93416612318765
 11
1119.9206807104656
 21
618.11501383388577
  0
LINE
  8
_0-0_計極細
  6
CONTINUOUS
 62
    2
 10
1119.9206807104656
 20
618.11501383388577
 11
1118.9835568998983
 21
612.04088148675351
  0
LINE
  8
_0-0_計極細
  6
CONTINUOUS
 62
    2
 10
1118.9835568998983
 20
612.04088148675351
 11
1118.1202251450277
 21
605.87576443221099
  0
LINE
  8
_0-0_計極細
  6
CONTINUOUS
 62
    2
 10
1118.1202251450277
 20
605.87576443221099
 11
1117.3694865036023
 21
599.78660102305105
  0
LINE
  8
_0-0_計極細
  6
CONTINUOUS
 62
    2
 10
1117.3694865036023
 20
599.78660102305105
 11
1116.7576757546403
 21
593.93901545849576
  0
LINE
  8
_0-0_計極細
  6
CONTINUOUS
 62
    2
 10
1116.7576757546403
 20
593.93901545849576
 11
1116.2955286191007
 21
588.49299470030917
  0
LINE
  8
_0-0_計極細
  6
CONTINUOUS
 62
    2
 10
1116.2955286191007
 20
588.49299470030917
 11
1115.9774271503256
 21
583.59856168481519
  0
LINE
  8
_0-0_計極細
  6
CONTINUOUS
 62
    2
 10
1115.9774271503256
 20
583.59856168481519
 11
1115.7833607276084
 21
579.39153730193402
  0
LINE
  8
_0-0_計極細
  6
CONTINUOUS
 62
    2
 10
1115.7833607276084
 20
579.39153730193402
 11
1115.6833935477866
 21
575.98951929294344
  0
LINE
  8
_0-0_計極細
  6
CONTINUOUS
 62
    2
 10
1115.6833935477866
 20
575.98951929294344
 11
1115.6438958278818
 21
573.48823782678187
  0
LINE
  8
_0-0_計極細
  6
CONTINUOUS
 62
    2
 10
1115.6438958278818
 20
573.48823782678187
 11
1115.6343970332236
 21
571.95846552935518
  0
LINE
  8
_0-0_計極細
  6
CONTINUOUS
 62
    2
 10
1115.6343970332236
 20
571.95846552935518
 11
1115.6337497838672
 21
571.44365693033683
  0
LINE
  8
_0-0_計極細
  6
CONTINUOUS
 62
    2
 10
1115.6337497838672
 20
571.44365693033683
 11
1115.6343970332236
 21
570.92874393626062
  0
LINE
  8
_0-0_計極細
  6
CONTINUOUS
 62
    2
 10
1115.6343970332236
 20
570.92874393626062
 11
1115.6438958278818
 21
569.39743957517965
  0
LINE
  8
_0-0_計極細
  6
CONTINUOUS
 62
    2
 10
1115.6438958278818
 20
569.39743957517965
 11
1115.6833935477866
 21
566.88978750903334
  0
LINE
  8
_0-0_計極細
  6
CONTINUOUS
 62
    2
 10
1115.6833935477866
 20
566.88978750903334
 11
1115.7833607276082
 21
563.47164576136174
  0
LINE
  8
_0-0_計極細
  6
CONTINUOUS
 62
    2
 10
1115.7833607276082
 20
563.47164576136174
 11
1115.9774271503256
 21
559.2333203425585
  0
LINE
  8
_0-0_計極細
  6
CONTINUOUS
 62
    2
 10
1115.9774271503256
 20
559.2333203425585
 11
1116.2955286191007
 21
554.28758063855241
  0
LINE
  8
_0-0_計極細
  6
CONTINUOUS
 62
    2
 10
1116.2955286191007
 20
554.28758063855241
 11
1116.7576757546403
 21
548.76702001979493
  0
LINE
  8
_0-0_計極細
  6
CONTINUOUS
 62
    2
 10
1116.7576757546403
 20
548.76702001979493
 11
1117.3694865036023
 21
542.82075530218128
  0
LINE
  8
_0-0_計極細
  6
CONTINUOUS
 62
    2
 10
1117.3694865036023
 20
542.82075530218128
 11
1118.1202251450277
 21
536.61050501537204
  0
LINE
  8
_0-0_計極細
  6
CONTINUOUS
 62
    2
 10
1118.1202251450277
 20
536.61050501537204
 11
1118.9835568998983
 21
530.30614090359234
  0
LINE
  8
_0-0_計極細
  6
CONTINUOUS
 62
    2
 10
1118.9835568998983
 20
530.30614090359234
 11
1119.9206807104656
 21
524.08085955475553
  0
LINE
  8
_0-0_計極細
  6
CONTINUOUS
 62
    2
 10
1119.9206807104656
 20
524.08085955475553
 11
1120.8850640725718
 21
518.10616156188848
  0
LINE
  8
_0-0_計極細
  6
CONTINUOUS
 62
    2
 10
1120.8850640725718
 20
518.10616156188848
 11
1121.8277645518949
 21
512.54684664121282
  0
LINE
  8
_0-0_計極細
  6
CONTINUOUS
 62
    2
 10
1121.8277645518949
 20
512.54684664121282
 11
1122.7023246837414
 21
507.55623123857191
  0
LINE
  8
_0-0_計極細
  6
CONTINUOUS
 62
    2
 10
1122.7023246837414
 20
507.55623123857191
 11
1123.4684541583279
 21
503.27177170268249
  0
LINE
  8
_0-0_計極細
  6
CONTINUOUS
 62
    2
 10
1123.4684541583279
 20
503.27177170268249
 11
1124.0940968706736
 21
499.81123676690413
  0
LINE
  8
_0-0_計極細
  6
CONTINUOUS
 62
    2
 10
1124.0940968706736
 20
499.81123676690413
 11
1124.5559175031124
 21
497.26952640136
  0
LINE
  8
_0-0_計極細
  6
CONTINUOUS
 62
    2
 10
1124.5559175031124
 20
497.26952640136
 11
1124.8386213497258
 21
495.71618937479855
  0
LINE
  8
_0-0_計極細
  6
CONTINUOUS
 62
    2
 10
1124.8386213497258
 20
495.71618937479855
 11
1124.9337497838669
 21
495.19365693033677
  0
LINE
  8
_0-1_計細線
  6
CONTINUOUS
 62
    3
 10
1164.9337497838665
 20
520.19365693033808
 11
1120.5304928111391
 21
520.19365693033808
  0
LINE
  8
_0-1_計細線
  6
CONTINUOUS
 62
    3
 10
471.43374978386737
 20
618.19365693033808
 11
471.43374978386737
 21
612.19365693033808
  0
LINE
  8
_0-1_計細線
  6
CONTINUOUS
 62
    3
 10
471.43374978386737
 20
605.19365693033808
 11
471.43374978386737
 21
599.19365693033808
  0
LINE
  8
_0-1_計細線
  6
CONTINUOUS
 62
    3
 10
471.43374978386737
 20
592.19365693033808
 11
471.43374978386737
 21
586.19365693033819
  0
LINE
  8
_0-1_計細線
  6
CONTINUOUS
 62
    3
 10
471.43374978386737
 20
579.19365693033808
 11
471.43374978386737
 21
573.19365693033808
  0
LINE
  8
_0-1_計細線
  6
CONTINUOUS
 62
    3
 10
471.43374978386737
 20
566.19365693033819
 11
471.43374978386737
 21
560.19365693033808
  0
ARC
  8
_0-1_計細線
  6
CONTINUOUS
 62
    3
 10
271.87124978387783
 20
497.6936569303399
 40
15.06249999999028
 50
330.13716564369918
 51
29.862834356287706
  0
ARC
  8
_0-1_計細線
  6
CONTINUOUS
 62
    3
 10
297.99624978383417
 20
512.69365693032853
 40
15.062499999975882
 50
150.13716564362966
 51
209.8628343563071
  0
LINE
  8
_0-1_計細線
  6
CONTINUOUS
 62
    3
 10
471.43374978386737
 20
527.19365693033808
 11
471.43374978386737
 21
521.19365693033819
  0
LINE
  8
_0-1_計細線
  6
CONTINUOUS
 62
    3
 10
471.43374978386737
 20
514.19365693033808
 11
471.43374978386737
 21
508.19365693033808
  0
LINE
  8
_0-1_計細線
  6
CONTINUOUS
 62
    3
 10
471.43374978386737
 20
501.19365693033814
 11
471.43374978386737
 21
495.19365693033814
  0
LINE
  8
_0-1_計細線
  6
CONTINUOUS
 62
    3
 10
471.43374978386737
 20
540.19365693033808
 11
471.43374978386737
 21
534.19365693033808
  0
LINE
  8
_0-1_計細線
  6
CONTINUOUS
 62
    3
 10
471.43374978386737
 20
553.19365693033808
 11
471.43374978386737
 21
547.19365693033808
  0
LINE
  8
_0-0_計極細
  6
CONTINUOUS
 62
    2
 10
324.93374978386692
 20
646.19365693033672
 11
325.02887821800806
 21
645.68646778170421
  0
LINE
  8
_0-0_計極細
  6
CONTINUOUS
 62
    2
 10
325.02887821800806
 20
645.68646778170421
 11
325.31158206462158
 21
644.17872814975783
  0
LINE
  8
_0-0_計極細
  6
CONTINUOUS
 62
    2
 10
325.31158206462158
 20
644.17872814975783
 11
325.77340269706053
 21
641.71150498299414
  0
LINE
  8
_0-0_計極細
  6
CONTINUOUS
 62
    2
 10
325.77340269706053
 20
641.71150498299414
 11
326.39904540940626
 21
638.35188016211021
  0
LINE
  8
_0-0_計極細
  6
CONTINUOUS
 62
    2
 10
326.39904540940626
 20
638.35188016211021
 11
327.16517488399239
 21
634.19098989631527
  0
LINE
  8
_0-0_計極細
  6
CONTINUOUS
 62
    2
 10
327.16517488399239
 20
634.19098989631527
 11
328.03973501583914
 21
629.34143257945607
  0
LINE
  8
_0-0_計極細
  6
CONTINUOUS
 62
    2
 10
328.03973501583914
 20
629.34143257945607
 11
328.98243549516235
 21
623.93416612318765
  0
LINE
  8
_0-0_計極細
  6
CONTINUOUS
 62
    2
 10
328.98243549516235
 20
623.93416612318765
 11
329.94681885726845
 21
618.11501383388577
  0
LINE
  8
_0-0_計極細
  6
CONTINUOUS
 62
    2
 10
329.94681885726845
 20
618.11501383388577
 11
330.88394266783587
 21
612.04088148675351
  0
LINE
  8
_0-0_計極細
  6
CONTINUOUS
 62
    2
 10
330.88394266783587
 20
612.04088148675351
 11
331.74727442270671
 21
605.87576443221099
  0
LINE
  8
_0-0_計極細
  6
CONTINUOUS
 62
    2
 10
331.74727442270671
 20
605.87576443221099
 11
332.49801306413195
 21
599.78660102305105
  0
LINE
  8
_0-0_計極細
  6
CONTINUOUS
 62
    2
 10
332.49801306413195
 20
599.78660102305105
 11
333.10982381309407
 21
593.93901545849576
  0
LINE
  8
_0-0_計極細
  6
CONTINUOUS
 62
    2
 10
333.10982381309407
 20
593.93901545849576
 11
333.57197094863352
 21
588.49299470030917
  0
LINE
  8
_0-0_計極細
  6
CONTINUOUS
 62
    2
 10
333.57197094863352
 20
588.49299470030917
 11
333.89007241740904
 21
583.59856168481519
  0
LINE
  8
_0-0_計極細
  6
CONTINUOUS
 62
    2
 10
333.89007241740904
 20
583.59856168481519
 11
334.084138840126
 21
579.39153730193402
  0
LINE
  8
_0-0_計極細
  6
CONTINUOUS
 62
    2
 10
334.084138840126
 20
579.39153730193402
 11
334.18410601994759
 21
575.98951929294344
  0
LINE
  8
_0-0_計極細
  6
CONTINUOUS
 62
    2
 10
334.18410601994759
 20
575.98951929294344
 11
334.22360373985248
 21
573.48823782678187
  0
LINE
  8
_0-0_計極細
  6
CONTINUOUS
 62
    2
 10
334.22360373985248
 20
573.48823782678187
 11
334.23310253451058
 21
571.95846552935518
  0
LINE
  8
_0-0_計極細
  6
CONTINUOUS
 62
    2
 10
334.23310253451058
 20
571.95846552935518
 11
334.2337497838671
 21
571.44365693033683
  0
LINE
  8
_0-0_計極細
  6
CONTINUOUS
 62
    2
 10
334.2337497838671
 20
571.44365693033683
 11
334.23310253451058
 21
570.92874393626062
  0
LINE
  8
_0-0_計極細
  6
CONTINUOUS
 62
    2
 10
334.23310253451058
 20
570.92874393626062
 11
334.22360373985259
 21
569.39743957517965
  0
LINE
  8
_0-0_計極細
  6
CONTINUOUS
 62
    2
 10
334.22360373985259
 20
569.39743957517965
 11
334.18410601994754
 21
566.88978750903334
  0
LINE
  8
_0-0_計極細
  6
CONTINUOUS
 62
    2
 10
334.18410601994754
 20
566.88978750903334
 11
334.084138840126
 21
563.47164576136174
  0
LINE
  8
_0-0_計極細
  6
CONTINUOUS
 62
    2
 10
334.084138840126
 20
563.47164576136174
 11
333.89007241740904
 21
559.2333203425585
  0
LINE
  8
_0-0_計極細
  6
CONTINUOUS
 62
    2
 10
333.89007241740904
 20
559.2333203425585
 11
333.57197094863358
 21
554.28758063855241
  0
LINE
  8
_0-0_計極細
  6
CONTINUOUS
 62
    2
 10
333.57197094863358
 20
554.28758063855241
 11
333.10982381309418
 21
548.76702001979493
  0
LINE
  8
_0-0_計極細
  6
CONTINUOUS
 62
    2
 10
333.10982381309418
 20
548.76702001979493
 11
332.49801306413195
 21
542.82075530218128
  0
LINE
  8
_0-0_計極細
  6
CONTINUOUS
 62
    2
 10
332.49801306413195
 20
542.82075530218128
 11
331.74727442270671
 21
536.61050501537204
  0
LINE
  8
_0-0_計極細
  6
CONTINUOUS
 62
    2
 10
331.74727442270671
 20
536.61050501537204
 11
330.88394266783587
 21
530.30614090359234
  0
LINE
  8
_0-0_計極細
  6
CONTINUOUS
 62
    2
 10
330.88394266783587
 20
530.30614090359234
 11
329.94681885726845
 21
524.08085955475553
  0
LINE
  8
_0-0_計極細
  6
CONTINUOUS
 62
    2
 10
329.94681885726845
 20
524.08085955475553
 11
328.98243549516246
 21
518.10616156188848
  0
LINE
  8
_0-0_計極細
  6
CONTINUOUS
 62
    2
 10
328.98243549516246
 20
518.10616156188848
 11
328.0397350158392
 21
512.54684664121282
  0
LINE
  8
_0-0_計極細
  6
CONTINUOUS
 62
    2
 10
328.0397350158392
 20
512.54684664121282
 11
327.16517488399239
 21
507.55623123857191
  0
LINE
  8
_0-0_計極細
  6
CONTINUOUS
 62
    2
 10
327.16517488399239
 20
507.55623123857191
 11
326.39904540940631
 21
503.27177170268249
  0
LINE
  8
_0-0_計極細
  6
CONTINUOUS
 62
    2
 10
326.39904540940631
 20
503.27177170268249
 11
325.77340269706053
 21
499.81123676690413
  0
LINE
  8
_0-0_計極細
  6
CONTINUOUS
 62
    2
 10
325.77340269706053
 20
499.81123676690413
 11
325.31158206462158
 21
497.26952640136
  0
LINE
  8
_0-0_計極細
  6
CONTINUOUS
 62
    2
 10
325.31158206462158
 20
497.26952640136
 11
325.02887821800806
 21
495.71618937479855
  0
LINE
  8
_0-0_計極細
  6
CONTINUOUS
 62
    2
 10
325.02887821800806
 20
495.71618937479855
 11
324.93374978386692
 21
495.19365693033677
  0
LINE
  8
_0-1_計細線
  6
CONTINUOUS
 62
    3
 10
284.93374978386782
 20
520.19365693033808
 11
329.33700675659475
 21
520.19365693033808
  0
LINE
  8
_0-1_計細線
  6
CONTINUOUS
 62
    3
 10
471.43374978386737
 20
797.19365693033808
 11
474.43374978386743
 21
797.19365693033808
  0
LINE
  8
_0-1_計細線
  6
CONTINUOUS
 62
    3
 10
474.43374978386743
 20
797.19365693033808
 11
474.43374978386743
 21
495.19365693033814
  0
LINE
  8
_0-1_計細線
  6
CONTINUOUS
 62
    3
 10
474.43374978386743
 20
495.19365693033814
 11
471.43374978386737
 21
495.19365693033814
  0
LINE
  8
_0-1_計細線
  6
CONTINUOUS
 62
    3
 10
471.43374978386737
 20
495.19365693033814
 11
471.43374978386737
 21
797.19365693033808
  0
LINE
  8
_0-1_計細線
  6
CONTINUOUS
 62
    3
 10
978.43374978386692
 20
797.19365693033808
 11
975.43374978386692
 21
797.19365693033808
  0
LINE
  8
_0-1_計細線
  6
CONTINUOUS
 62
    3
 10
975.43374978386692
 20
797.19365693033808
 11
975.43374978386692
 21
495.19365693033814
  0
LINE
  8
_0-1_計細線
  6
CONTINUOUS
 62
    3
 10
975.43374978386692
 20
495.19365693033814
 11
978.43374978386692
 21
495.19365693033814
  0
LINE
  8
_0-1_計細線
  6
CONTINUOUS
 62
    3
 10
978.43374978386692
 20
495.19365693033814
 11
978.43374978386692
 21
797.19365693033808
  0
LINE
  8
_0-1_計細線
  6
CONTINUOUS
 62
    3
 10
974.43374978386703
 20
797.19365693033808
 11
971.43374978386703
 21
797.19365693033808
  0
LINE
  8
_0-1_計細線
  6
CONTINUOUS
 62
    3
 10
971.43374978386703
 20
797.19365693033808
 11
971.43374978386703
 21
495.19365693033814
  0
LINE
  8
_0-1_計細線
  6
CONTINUOUS
 62
    3
 10
971.43374978386703
 20
495.19365693033814
 11
974.43374978386703
 21
495.19365693033814
  0
LINE
  8
_0-1_計細線
  6
CONTINUOUS
 62
    3
 10
974.43374978386703
 20
495.19365693033814
 11
974.43374978386703
 21
797.19365693033808
  0
LINE
  8
_0-1_計細線
  6
CONTINUOUS
 62
    3
 10
478.43374978386692
 20
797.19365693033808
 11
475.43374978386692
 21
797.19365693033808
  0
LINE
  8
_0-1_計細線
  6
CONTINUOUS
 62
    3
 10
475.43374978386692
 20
797.19365693033808
 11
475.43374978386692
 21
495.19365693033814
  0
LINE
  8
_0-1_計細線
  6
CONTINUOUS
 62
    3
 10
475.43374978386692
 20
495.19365693033814
 11
478.43374978386692
 21
495.19365693033814
  0
LINE
  8
_0-1_計細線
  6
CONTINUOUS
 62
    3
 10
478.43374978386692
 20
495.19365693033814
 11
478.43374978386692
 21
797.19365693033808
  0
LINE
  8
_0-0_計極細
  6
CENTER2
 62
    2
 10
1074.9337497838669
 20
791.19365693033819
 11
1074.9337497838669
 21
501.19365693033814
  0
LINE
  8
_0-0_計極細
  6
CENTER2
 62
    2
 10
874.93374978386692
 20
791.19365693033819
 11
874.93374978386692
 21
501.19365693033814
  0
LINE
  8
_0-0_計極細
  6
CENTER2
 62
    2
 10
774.93374978386692
 20
791.19365693033819
 11
774.93374978386692
 21
501.19365693033814
  0
LINE
  8
_0-0_計極細
  6
CENTER2
 62
    2
 10
674.93374978386692
 20
791.19365693033819
 11
674.93374978386692
 21
501.19365693033814
  0
LINE
  8
_0-0_計極細
  6
CENTER2
 62
    2
 10
574.93374978386692
 20
791.19365693033819
 11
574.93374978386692
 21
501.19365693033814
  0
LINE
  8
_0-5_寸法線
  6
CONTINUOUS
 62
    7
 10
272.9337497838651
 20
490.19365693033677
 11
227.9337497838651
 21
490.19365693033677
  0
LINE
  8
_0-5_寸法線
  6
CONTINUOUS
 62
    7
 10
232.9337497838651
 20
490.19365693033677
 11
230.34555933283997
 21
499.85291519322743
  0
LINE
  8
_0-5_寸法線
  6
CONTINUOUS
 62
    7
 10
232.9337497838651
 20
490.19365693033677
 11
235.52194023489037
 21
499.85291519322743
  0
LINE
  8
_0-5_寸法線
  6
CONTINUOUS
 62
    7
 10
272.9337497838651
 20
520.19365693033808
 11
227.9337497838651
 21
520.19365693033808
  0
LINE
  8
_0-5_寸法線
  6
CONTINUOUS
 62
    7
 10
232.9337497838651
 20
520.19365693033808
 11
235.52194023489022
 21
510.53439866744736
  0
LINE
  8
_0-5_寸法線
  6
CONTINUOUS
 62
    7
 10
232.9337497838651
 20
520.19365693033808
 11
230.34555933283983
 21
510.53439866744748
  0
LINE
  8
_0-5_寸法線
  6
CONTINUOUS
 62
    7
 10
232.9337497838651
 20
490.19365693033677
 11
232.9337497838651
 21
520.19365693033808
  0
TEXT
  8
_0-5_寸法線
 62
    7
 10
232.9337497838651
 20
497.69365693033762
 40
15
 41
1
 50
90
  1
30
  0
LINE
  8
_0-5_寸法線
  6
CONTINUOUS
 62
    7
 10
232.9337497838651
 20
520.19365693033808
 11
230.34555933283997
 21
529.85291519322891
  0
LINE
  8
_0-5_寸法線
  6
CONTINUOUS
 62
    7
 10
232.9337497838651
 20
520.19365693033808
 11
235.52194023489037
 21
529.85291519322891
  0
LINE
  8
_0-5_寸法線
  6
CONTINUOUS
 62
    7
 10
272.9337497838651
 20
772.19365693033808
 11
227.9337497838651
 21
772.19365693033808
  0
LINE
  8
_0-5_寸法線
  6
CONTINUOUS
 62
    7
 10
232.9337497838651
 20
772.19365693033808
 11
235.52194023489022
 21
762.53439866744748
  0
LINE
  8
_0-5_寸法線
  6
CONTINUOUS
 62
    7
 10
232.9337497838651
 20
772.19365693033808
 11
230.34555933283983
 21
762.53439866744748
  0
LINE
  8
_0-5_寸法線
  6
CONTINUOUS
 62
    7
 10
232.9337497838651
 20
520.19365693033808
 11
232.9337497838651
 21
772.19365693033808
  0
TEXT
  8
_0-5_寸法線
 62
    7
 10
232.9337497838651
 20
634.94365693033819
 40
15
 41
1
 50
90
  1
252
  0
LINE
  8
_0-5_寸法線
  6
CONTINUOUS
 62
    7
 10
232.9337497838651
 20
772.19365693033808
 11
230.34555933283997
 21
781.85291519322891
  0
LINE
  8
_0-5_寸法線
  6
CONTINUOUS
 62
    7
 10
232.9337497838651
 20
772.19365693033808
 11
235.52194023489037
 21
781.85291519322891
  0
LINE
  8
_0-5_寸法線
  6
CONTINUOUS
 62
    7
 10
272.9337497838651
 20
802.19365693033683
 11
227.9337497838651
 21
802.19365693033683
  0
LINE
  8
_0-5_寸法線
  6
CONTINUOUS
 62
    7
 10
232.9337497838651
 20
802.19365693033683
 11
235.52194023489022
 21
792.534398667446
  0
LINE
  8
_0-5_寸法線
  6
CONTINUOUS
 62
    7
 10
232.9337497838651
 20
802.19365693033683
 11
230.34555933283983
 21
792.534398667446
  0
LINE
  8
_0-5_寸法線
  6
CONTINUOUS
 62
    7
 10
232.9337497838651
 20
772.19365693033808
 11
232.9337497838651
 21
802.19365693033683
  0
TEXT
  8
_0-5_寸法線
 62
    7
 10
232.9337497838651
 20
779.69365693033751
 40
15
 41
1
 50
90
  1
30
  0
LINE
  8
_0-5_寸法線
  6
CONTINUOUS
 62
    7
 10
1176.9337497838696
 20
490.19365693033672
 11
1256.9337497838696
 21
490.19365693033626
  0
LINE
  8
_0-5_寸法線
  6
CONTINUOUS
 62
    7
 10
1251.9337497838696
 20
490.19365693033626
 11
1249.3455593328445
 21
499.85291519322692
  0
LINE
  8
_0-5_寸法線
  6
CONTINUOUS
 62
    7
 10
1251.9337497838696
 20
490.19365693033626
 11
1254.5219402348948
 21
499.85291519322692
  0
LINE
  8
_0-5_寸法線
  6
CONTINUOUS
 62
    7
 10
1176.9337497838696
 20
802.19365693033683
 11
1256.9337497838696
 21
802.19365693033637
  0
LINE
  8
_0-5_寸法線
  6
CONTINUOUS
 62
    7
 10
1251.9337497838696
 20
802.19365693033637
 11
1254.5219402348948
 21
792.53439866744554
  0
LINE
  8
_0-5_寸法線
  6
CONTINUOUS
 62
    7
 10
1251.9337497838696
 20
802.19365693033637
 11
1249.3455593328445
 21
792.53439866744554
  0
LINE
  8
_0-5_寸法線
  6
CONTINUOUS
 62
    7
 10
1251.9337497838696
 20
490.19365693033626
 11
1251.9337497838696
 21
802.19365693033637
  0
TEXT
  8
_0-5_寸法線
 62
    7
 10
1251.9337497838696
 20
634.94365693033626
 40
15
 41
1
 50
90
  1
312
  0
LINE
  8
_0-0_計極細
  6
CENTER2
 62
    2
 10
374.93374978386692
 20
791.19365693033819
 11
374.93374978386692
 21
501.19365693033814
  0
LINE
  8
_0-1_計細線
  6
CONTINUOUS
 62
    3
 10
478.43374978386692
 20
797.19365693033808
 11
478.43374978386692
 21
789.19365693033808
  0
LINE
  8
_0-1_計細線
  6
CONTINUOUS
 62
    3
 10
478.43374978386692
 20
789.19365693033808
 11
971.43374978386703
 21
789.19365693033808
  0
LINE
  8
_0-1_計細線
  6
CONTINUOUS
 62
    3
 10
971.43374978386703
 20
789.19365693033808
 11
971.43374978386703
 21
797.19365693033808
  0
LINE
  8
_0-1_計細線
  6
CONTINUOUS
 62
    3
 10
971.43374978386703
 20
797.19365693033808
 11
478.43374978386692
 21
797.19365693033808
  0
LINE
  8
_0-1_計細線
  6
CONTINUOUS
 62
    3
 10
478.43374978386692
 20
783.19365693033819
 11
478.43374978386692
 21
775.19365693033819
  0
LINE
  8
_0-1_計細線
  6
CONTINUOUS
 62
    3
 10
478.43374978386692
 20
775.19365693033819
 11
971.43374978386703
 21
775.19365693033819
  0
LINE
  8
_0-1_計細線
  6
CONTINUOUS
 62
    3
 10
971.43374978386703
 20
775.19365693033819
 11
971.43374978386703
 21
783.19365693033819
  0
LINE
  8
_0-1_計細線
  6
CONTINUOUS
 62
    3
 10
971.43374978386703
 20
783.19365693033819
 11
478.43374978386692
 21
783.19365693033819
  0
LINE
  8
_0-1_計細線
  6
CONTINUOUS
 62
    3
 10
478.43374978386692
 20
769.19365693033808
 11
478.43374978386692
 21
761.19365693033853
  0
LINE
  8
_0-1_計細線
  6
CONTINUOUS
 62
    3
 10
478.43374978386692
 20
761.19365693033853
 11
971.43374978386703
 21
761.19365693033853
  0
LINE
  8
_0-1_計細線
  6
CONTINUOUS
 62
    3
 10
971.43374978386703
 20
761.19365693033853
 11
971.43374978386703
 21
769.19365693033808
  0
LINE
  8
_0-1_計細線
  6
CONTINUOUS
 62
    3
 10
971.43374978386703
 20
769.19365693033808
 11
478.43374978386692
 21
769.19365693033808
  0
LINE
  8
_0-1_計細線
  6
CONTINUOUS
 62
    3
 10
478.43374978386692
 20
755.19365693033808
 11
478.43374978386692
 21
747.19365693033853
  0
LINE
  8
_0-1_計細線
  6
CONTINUOUS
 62
    3
 10
478.43374978386692
 20
747.19365693033853
 11
971.43374978386703
 21
747.19365693033853
  0
LINE
  8
_0-1_計細線
  6
CONTINUOUS
 62
    3
 10
971.43374978386703
 20
747.19365693033853
 11
971.43374978386703
 21
755.19365693033808
  0
LINE
  8
_0-1_計細線
  6
CONTINUOUS
 62
    3
 10
971.43374978386703
 20
755.19365693033808
 11
478.43374978386692
 21
755.19365693033808
  0
LINE
  8
_0-1_計細線
  6
CONTINUOUS
 62
    3
 10
478.43374978386692
 20
741.19365693033819
 11
478.43374978386692
 21
733.19365693033865
  0
LINE
  8
_0-1_計細線
  6
CONTINUOUS
 62
    3
 10
478.43374978386692
 20
733.19365693033865
 11
971.43374978386703
 21
733.19365693033865
  0
LINE
  8
_0-1_計細線
  6
CONTINUOUS
 62
    3
 10
971.43374978386703
 20
733.19365693033865
 11
971.43374978386703
 21
741.19365693033819
  0
LINE
  8
_0-1_計細線
  6
CONTINUOUS
 62
    3
 10
971.43374978386703
 20
741.19365693033819
 11
478.43374978386692
 21
741.19365693033819
  0
LINE
  8
_0-1_計細線
  6
CONTINUOUS
 62
    3
 10
478.43374978386692
 20
727.19365693033808
 11
478.43374978386692
 21
719.19365693033808
  0
LINE
  8
_0-1_計細線
  6
CONTINUOUS
 62
    3
 10
478.43374978386692
 20
719.19365693033808
 11
971.43374978386703
 21
719.19365693033808
  0
LINE
  8
_0-1_計細線
  6
CONTINUOUS
 62
    3
 10
971.43374978386703
 20
719.19365693033808
 11
971.43374978386703
 21
727.19365693033808
  0
LINE
  8
_0-1_計細線
  6
CONTINUOUS
 62
    3
 10
971.43374978386703
 20
727.19365693033808
 11
478.43374978386692
 21
727.19365693033808
  0
LINE
  8
_0-1_計細線
  6
CONTINUOUS
 62
    3
 10
478.43374978386692
 20
713.19365693033819
 11
478.43374978386692
 21
705.19365693033808
  0
LINE
  8
_0-1_計細線
  6
CONTINUOUS
 62
    3
 10
478.43374978386692
 20
705.19365693033808
 11
971.43374978386703
 21
705.19365693033808
  0
LINE
  8
_0-1_計細線
  6
CONTINUOUS
 62
    3
 10
971.43374978386703
 20
705.19365693033808
 11
971.43374978386703
 21
713.19365693033819
  0
LINE
  8
_0-1_計細線
  6
CONTINUOUS
 62
    3
 10
971.43374978386703
 20
713.19365693033819
 11
478.43374978386692
 21
713.19365693033819
  0
LINE
  8
_0-0_計極細
  6
CONTINUOUS
 62
    2
 10
577.43374978386692
 20
789.19365693033808
 11
577.43374978386692
 21
783.19365693033819
  0
LINE
  8
_0-0_計極細
  6
CONTINUOUS
 62
    2
 10
572.43374978386692
 20
783.19365693033774
 11
572.43374978386692
 21
789.19365693033808
  0
LINE
  8
_0-0_計極細
  6
CONTINUOUS
 62
    2
 10
577.43374978386692
 20
775.19365693033819
 11
577.43374978386692
 21
769.19365693033774
  0
LINE
  8
_0-0_計極細
  6
CONTINUOUS
 62
    2
 10
572.43374978386692
 20
769.19365693033774
 11
572.43374978386692
 21
775.19365693033819
  0
LINE
  8
_0-0_計極細
  6
CONTINUOUS
 62
    2
 10
577.43374978386692
 20
761.19365693033819
 11
577.43374978386692
 21
755.19365693033762
  0
LINE
  8
_0-0_計極細
  6
CONTINUOUS
 62
    2
 10
572.43374978386692
 20
755.19365693033762
 11
572.43374978386692
 21
761.19365693033819
  0
LINE
  8
_0-0_計極細
  6
CONTINUOUS
 62
    2
 10
577.43374978386692
 20
747.19365693033762
 11
577.43374978386692
 21
741.19365693033774
  0
LINE
  8
_0-0_計極細
  6
CONTINUOUS
 62
    2
 10
572.43374978386692
 20
741.19365693033717
 11
572.43374978386692
 21
747.19365693033762
  0
LINE
  8
_0-0_計極細
  6
CONTINUOUS
 62
    2
 10
577.43374978386692
 20
733.19365693033762
 11
577.43374978386692
 21
727.19365693033762
  0
LINE
  8
_0-0_計極細
  6
CONTINUOUS
 62
    2
 10
572.43374978386692
 20
727.19365693033728
 11
572.43374978386692
 21
733.19365693033762
  0
LINE
  8
_0-0_計極細
  6
CONTINUOUS
 62
    2
 10
577.43374978386692
 20
719.19365693033774
 11
577.43374978386692
 21
713.19365693033762
  0
LINE
  8
_0-0_計極細
  6
CONTINUOUS
 62
    2
 10
572.43374978386692
 20
713.19365693033717
 11
572.43374978386692
 21
719.19365693033774
  0
LINE
  8
_0-0_計極細
  6
CONTINUOUS
 62
    2
 10
677.43374978386692
 20
789.19365693033808
 11
677.43374978386692
 21
783.19365693033819
  0
LINE
  8
_0-0_計極細
  6
CONTINUOUS
 62
    2
 10
672.43374978386692
 20
783.19365693033774
 11
672.43374978386692
 21
789.19365693033808
  0
LINE
  8
_0-0_計極細
  6
CONTINUOUS
 62
    2
 10
677.43374978386692
 20
775.19365693033819
 11
677.43374978386692
 21
769.19365693033774
  0
LINE
  8
_0-0_計極細
  6
CONTINUOUS
 62
    2
 10
672.43374978386692
 20
769.19365693033774
 11
672.43374978386692
 21
775.19365693033819
  0
LINE
  8
_0-0_計極細
  6
CONTINUOUS
 62
    2
 10
677.43374978386692
 20
761.19365693033819
 11
677.43374978386692
 21
755.19365693033762
  0
LINE
  8
_0-0_計極細
  6
CONTINUOUS
 62
    2
 10
672.43374978386692
 20
755.19365693033762
 11
672.43374978386692
 21
761.19365693033819
  0
LINE
  8
_0-0_計極細
  6
CONTINUOUS
 62
    2
 10
677.43374978386692
 20
747.19365693033762
 11
677.43374978386692
 21
741.19365693033774
  0
LINE
  8
_0-0_計極細
  6
CONTINUOUS
 62
    2
 10
672.43374978386692
 20
741.19365693033717
 11
672.43374978386692
 21
747.19365693033762
  0
LINE
  8
_0-0_計極細
  6
CONTINUOUS
 62
    2
 10
677.43374978386692
 20
733.19365693033762
 11
677.43374978386692
 21
727.19365693033762
  0
LINE
  8
_0-0_計極細
  6
CONTINUOUS
 62
    2
 10
672.43374978386692
 20
727.19365693033728
 11
672.43374978386692
 21
733.19365693033762
  0
LINE
  8
_0-0_計極細
  6
CONTINUOUS
 62
    2
 10
677.43374978386692
 20
719.19365693033774
 11
677.43374978386692
 21
713.19365693033762
  0
LINE
  8
_0-0_計極細
  6
CONTINUOUS
 62
    2
 10
672.43374978386692
 20
713.19365693033717
 11
672.43374978386692
 21
719.19365693033774
  0
LINE
  8
_0-0_計極細
  6
CONTINUOUS
 62
    2
 10
777.43374978386692
 20
789.19365693033808
 11
777.43374978386692
 21
783.19365693033819
  0
LINE
  8
_0-0_計極細
  6
CONTINUOUS
 62
    2
 10
772.43374978386692
 20
783.19365693033774
 11
772.43374978386692
 21
789.19365693033808
  0
LINE
  8
_0-0_計極細
  6
CONTINUOUS
 62
    2
 10
777.43374978386692
 20
775.19365693033819
 11
777.43374978386692
 21
769.19365693033774
  0
LINE
  8
_0-0_計極細
  6
CONTINUOUS
 62
    2
 10
772.43374978386692
 20
769.19365693033774
 11
772.43374978386692
 21
775.19365693033819
  0
LINE
  8
_0-0_計極細
  6
CONTINUOUS
 62
    2
 10
777.43374978386692
 20
761.19365693033819
 11
777.43374978386692
 21
755.19365693033762
  0
LINE
  8
_0-0_計極細
  6
CONTINUOUS
 62
    2
 10
772.43374978386692
 20
755.19365693033762
 11
772.43374978386692
 21
761.19365693033819
  0
LINE
  8
_0-0_計極細
  6
CONTINUOUS
 62
    2
 10
777.43374978386692
 20
747.19365693033762
 11
777.43374978386692
 21
741.19365693033774
  0
LINE
  8
_0-0_計極細
  6
CONTINUOUS
 62
    2
 10
772.43374978386692
 20
741.19365693033717
 11
772.43374978386692
 21
747.19365693033762
  0
LINE
  8
_0-0_計極細
  6
CONTINUOUS
 62
    2
 10
777.43374978386692
 20
733.19365693033762
 11
777.43374978386692
 21
727.19365693033762
  0
LINE
  8
_0-0_計極細
  6
CONTINUOUS
 62
    2
 10
772.43374978386692
 20
727.19365693033728
 11
772.43374978386692
 21
733.19365693033762
  0
LINE
  8
_0-0_計極細
  6
CONTINUOUS
 62
    2
 10
777.43374978386692
 20
719.19365693033774
 11
777.43374978386692
 21
713.19365693033762
  0
LINE
  8
_0-0_計極細
  6
CONTINUOUS
 62
    2
 10
772.43374978386692
 20
713.19365693033717
 11
772.43374978386692
 21
719.19365693033774
  0
LINE
  8
_0-0_計極細
  6
CONTINUOUS
 62
    2
 10
877.43374978386692
 20
789.19365693033808
 11
877.43374978386692
 21
783.19365693033819
  0
LINE
  8
_0-0_計極細
  6
CONTINUOUS
 62
    2
 10
872.43374978386692
 20
783.19365693033774
 11
872.43374978386692
 21
789.19365693033808
  0
LINE
  8
_0-0_計極細
  6
CONTINUOUS
 62
    2
 10
877.43374978386692
 20
775.19365693033819
 11
877.43374978386692
 21
769.19365693033774
  0
LINE
  8
_0-0_計極細
  6
CONTINUOUS
 62
    2
 10
872.43374978386692
 20
769.19365693033774
 11
872.43374978386692
 21
775.19365693033819
  0
LINE
  8
_0-0_計極細
  6
CONTINUOUS
 62
    2
 10
877.43374978386692
 20
761.19365693033819
 11
877.43374978386692
 21
755.19365693033762
  0
LINE
  8
_0-0_計極細
  6
CONTINUOUS
 62
    2
 10
872.43374978386692
 20
755.19365693033762
 11
872.43374978386692
 21
761.19365693033819
  0
LINE
  8
_0-0_計極細
  6
CONTINUOUS
 62
    2
 10
877.43374978386692
 20
747.19365693033762
 11
877.43374978386692
 21
741.19365693033774
  0
LINE
  8
_0-0_計極細
  6
CONTINUOUS
 62
    2
 10
872.43374978386692
 20
741.19365693033717
 11
872.43374978386692
 21
747.19365693033762
  0
LINE
  8
_0-0_計極細
  6
CONTINUOUS
 62
    2
 10
877.43374978386692
 20
733.19365693033762
 11
877.43374978386692
 21
727.19365693033762
  0
LINE
  8
_0-0_計極細
  6
CONTINUOUS
 62
    2
 10
872.43374978386692
 20
727.19365693033728
 11
872.43374978386692
 21
733.19365693033762
  0
LINE
  8
_0-0_計極細
  6
CONTINUOUS
 62
    2
 10
877.43374978386692
 20
719.19365693033774
 11
877.43374978386692
 21
713.19365693033762
  0
LINE
  8
_0-0_計極細
  6
CONTINUOUS
 62
    2
 10
872.43374978386692
 20
713.19365693033717
 11
872.43374978386692
 21
719.19365693033774
  0
LINE
  8
_0-1_計細線
  6
CONTINUOUS
 62
    3
 10
478.43374978386692
 20
699.19365693033808
 11
478.43374978386692
 21
691.19365693033819
  0
LINE
  8
_0-1_計細線
  6
CONTINUOUS
 62
    3
 10
478.43374978386692
 20
691.19365693033819
 11
971.43374978386703
 21
691.19365693033819
  0
LINE
  8
_0-1_計細線
  6
CONTINUOUS
 62
    3
 10
971.43374978386703
 20
691.19365693033819
 11
971.43374978386703
 21
699.19365693033808
  0
LINE
  8
_0-1_計細線
  6
CONTINUOUS
 62
    3
 10
971.43374978386703
 20
699.19365693033808
 11
478.43374978386692
 21
699.19365693033808
  0
LINE
  8
_0-0_計極細
  6
CONTINUOUS
 62
    2
 10
577.43374978386692
 20
705.19365693033762
 11
577.43374978386692
 21
699.19365693033774
  0
LINE
  8
_0-0_計極細
  6
CONTINUOUS
 62
    2
 10
572.43374978386692
 20
699.19365693033728
 11
572.43374978386692
 21
705.19365693033762
  0
LINE
  8
_0-0_計極細
  6
CONTINUOUS
 62
    2
 10
677.43374978386692
 20
705.19365693033762
 11
677.43374978386692
 21
699.19365693033774
  0
LINE
  8
_0-0_計極細
  6
CONTINUOUS
 62
    2
 10
672.43374978386692
 20
699.19365693033728
 11
672.43374978386692
 21
705.19365693033762
  0
LINE
  8
_0-0_計極細
  6
CONTINUOUS
 62
    2
 10
777.43374978386692
 20
705.19365693033762
 11
777.43374978386692
 21
699.19365693033774
  0
LINE
  8
_0-0_計極細
  6
CONTINUOUS
 62
    2
 10
772.43374978386692
 20
699.19365693033728
 11
772.43374978386692
 21
705.19365693033762
  0
LINE
  8
_0-0_計極細
  6
CONTINUOUS
 62
    2
 10
877.43374978386692
 20
705.19365693033762
 11
877.43374978386692
 21
699.19365693033774
  0
LINE
  8
_0-0_計極細
  6
CONTINUOUS
 62
    2
 10
872.43374978386692
 20
699.19365693033728
 11
872.43374978386692
 21
705.19365693033762
  0
LINE
  8
_0-1_計細線
  6
CONTINUOUS
 62
    3
 10
478.43374978386692
 20
685.19365693033808
 11
478.43374978386692
 21
677.19365693033808
  0
LINE
  8
_0-1_計細線
  6
CONTINUOUS
 62
    3
 10
478.43374978386692
 20
677.19365693033808
 11
971.43374978386703
 21
677.19365693033808
  0
LINE
  8
_0-1_計細線
  6
CONTINUOUS
 62
    3
 10
971.43374978386703
 20
677.19365693033808
 11
971.43374978386703
 21
685.19365693033808
  0
LINE
  8
_0-1_計細線
  6
CONTINUOUS
 62
    3
 10
971.43374978386703
 20
685.19365693033808
 11
478.43374978386692
 21
685.19365693033808
  0
LINE
  8
_0-0_計極細
  6
CONTINUOUS
 62
    2
 10
577.43374978386692
 20
691.19365693033774
 11
577.43374978386692
 21
685.19365693033762
  0
LINE
  8
_0-0_計極細
  6
CONTINUOUS
 62
    2
 10
572.43374978386692
 20
685.19365693033717
 11
572.43374978386692
 21
691.19365693033774
  0
LINE
  8
_0-0_計極細
  6
CONTINUOUS
 62
    2
 10
677.43374978386692
 20
691.19365693033774
 11
677.43374978386692
 21
685.19365693033762
  0
LINE
  8
_0-0_計極細
  6
CONTINUOUS
 62
    2
 10
672.43374978386692
 20
685.19365693033717
 11
672.43374978386692
 21
691.19365693033774
  0
LINE
  8
_0-0_計極細
  6
CONTINUOUS
 62
    2
 10
777.43374978386692
 20
691.19365693033774
 11
777.43374978386692
 21
685.19365693033762
  0
LINE
  8
_0-0_計極細
  6
CONTINUOUS
 62
    2
 10
772.43374978386692
 20
685.19365693033717
 11
772.43374978386692
 21
691.19365693033774
  0
LINE
  8
_0-0_計極細
  6
CONTINUOUS
 62
    2
 10
877.43374978386692
 20
691.19365693033774
 11
877.43374978386692
 21
685.19365693033762
  0
LINE
  8
_0-0_計極細
  6
CONTINUOUS
 62
    2
 10
872.43374978386692
 20
685.19365693033717
 11
872.43374978386692
 21
691.19365693033774
  0
LINE
  8
_0-1_計細線
  6
CONTINUOUS
 62
    3
 10
478.43374978386692
 20
671.19365693033819
 11
478.43374978386692
 21
663.19365693033819
  0
LINE
  8
_0-1_計細線
  6
CONTINUOUS
 62
    3
 10
478.43374978386692
 20
663.19365693033819
 11
971.43374978386703
 21
663.19365693033819
  0
LINE
  8
_0-1_計細線
  6
CONTINUOUS
 62
    3
 10
971.43374978386703
 20
663.19365693033819
 11
971.43374978386703
 21
671.19365693033819
  0
LINE
  8
_0-1_計細線
  6
CONTINUOUS
 62
    3
 10
971.43374978386703
 20
671.19365693033819
 11
478.43374978386692
 21
671.19365693033819
  0
LINE
  8
_0-0_計極細
  6
CONTINUOUS
 62
    2
 10
577.43374978386692
 20
677.19365693033762
 11
577.43374978386692
 21
671.19365693033774
  0
LINE
  8
_0-0_計極細
  6
CONTINUOUS
 62
    2
 10
572.43374978386692
 20
671.19365693033717
 11
572.43374978386692
 21
677.19365693033762
  0
LINE
  8
_0-0_計極細
  6
CONTINUOUS
 62
    2
 10
677.43374978386692
 20
677.19365693033762
 11
677.43374978386692
 21
671.19365693033774
  0
LINE
  8
_0-0_計極細
  6
CONTINUOUS
 62
    2
 10
672.43374978386692
 20
671.19365693033717
 11
672.43374978386692
 21
677.19365693033762
  0
LINE
  8
_0-0_計極細
  6
CONTINUOUS
 62
    2
 10
777.43374978386692
 20
677.19365693033762
 11
777.43374978386692
 21
671.19365693033774
  0
LINE
  8
_0-0_計極細
  6
CONTINUOUS
 62
    2
 10
772.43374978386692
 20
671.19365693033717
 11
772.43374978386692
 21
677.19365693033762
  0
LINE
  8
_0-0_計極細
  6
CONTINUOUS
 62
    2
 10
877.43374978386692
 20
677.19365693033762
 11
877.43374978386692
 21
671.19365693033774
  0
LINE
  8
_0-0_計極細
  6
CONTINUOUS
 62
    2
 10
872.43374978386692
 20
671.19365693033717
 11
872.43374978386692
 21
677.19365693033762
  0
LINE
  8
_0-1_計細線
  6
CONTINUOUS
 62
    3
 10
478.43374978386692
 20
657.19365693033808
 11
478.43374978386692
 21
649.19365693033808
  0
LINE
  8
_0-1_計細線
  6
CONTINUOUS
 62
    3
 10
478.43374978386692
 20
649.19365693033808
 11
971.43374978386703
 21
649.19365693033808
  0
LINE
  8
_0-1_計細線
  6
CONTINUOUS
 62
    3
 10
971.43374978386703
 20
649.19365693033808
 11
971.43374978386703
 21
657.19365693033808
  0
LINE
  8
_0-1_計細線
  6
CONTINUOUS
 62
    3
 10
971.43374978386703
 20
657.19365693033808
 11
478.43374978386692
 21
657.19365693033808
  0
LINE
  8
_0-0_計極細
  6
CONTINUOUS
 62
    2
 10
577.43374978386692
 20
663.19365693033762
 11
577.43374978386692
 21
657.19365693033762
  0
LINE
  8
_0-0_計極細
  6
CONTINUOUS
 62
    2
 10
572.43374978386692
 20
657.19365693033728
 11
572.43374978386692
 21
663.19365693033762
  0
LINE
  8
_0-0_計極細
  6
CONTINUOUS
 62
    2
 10
677.43374978386692
 20
663.19365693033762
 11
677.43374978386692
 21
657.19365693033762
  0
LINE
  8
_0-0_計極細
  6
CONTINUOUS
 62
    2
 10
672.43374978386692
 20
657.19365693033728
 11
672.43374978386692
 21
663.19365693033762
  0
LINE
  8
_0-0_計極細
  6
CONTINUOUS
 62
    2
 10
777.43374978386692
 20
663.19365693033762
 11
777.43374978386692
 21
657.19365693033762
  0
LINE
  8
_0-0_計極細
  6
CONTINUOUS
 62
    2
 10
772.43374978386692
 20
657.19365693033728
 11
772.43374978386692
 21
663.19365693033762
  0
LINE
  8
_0-0_計極細
  6
CONTINUOUS
 62
    2
 10
877.43374978386692
 20
663.19365693033762
 11
877.43374978386692
 21
657.19365693033762
  0
LINE
  8
_0-0_計極細
  6
CONTINUOUS
 62
    2
 10
872.43374978386692
 20
657.19365693033728
 11
872.43374978386692
 21
663.19365693033762
  0
LINE
  8
_0-1_計細線
  6
CONTINUOUS
 62
    3
 10
478.43374978386692
 20
643.19365693033819
 11
478.43374978386692
 21
635.19365693033808
  0
LINE
  8
_0-1_計細線
  6
CONTINUOUS
 62
    3
 10
478.43374978386692
 20
635.19365693033808
 11
971.43374978386703
 21
635.19365693033808
  0
LINE
  8
_0-1_計細線
  6
CONTINUOUS
 62
    3
 10
971.43374978386703
 20
635.19365693033808
 11
971.43374978386703
 21
643.19365693033819
  0
LINE
  8
_0-1_計細線
  6
CONTINUOUS
 62
    3
 10
971.43374978386703
 20
643.19365693033819
 11
478.43374978386692
 21
643.19365693033819
  0
LINE
  8
_0-0_計極細
  6
CONTINUOUS
 62
    2
 10
577.43374978386692
 20
649.19365693033774
 11
577.43374978386692
 21
643.19365693033762
  0
LINE
  8
_0-0_計極細
  6
CONTINUOUS
 62
    2
 10
572.43374978386692
 20
643.19365693033717
 11
572.43374978386692
 21
649.19365693033774
  0
LINE
  8
_0-0_計極細
  6
CONTINUOUS
 62
    2
 10
677.43374978386692
 20
649.19365693033774
 11
677.43374978386692
 21
643.19365693033762
  0
LINE
  8
_0-0_計極細
  6
CONTINUOUS
 62
    2
 10
672.43374978386692
 20
643.19365693033717
 11
672.43374978386692
 21
649.19365693033774
  0
LINE
  8
_0-0_計極細
  6
CONTINUOUS
 62
    2
 10
777.43374978386692
 20
649.19365693033774
 11
777.43374978386692
 21
643.19365693033762
  0
LINE
  8
_0-0_計極細
  6
CONTINUOUS
 62
    2
 10
772.43374978386692
 20
643.19365693033717
 11
772.43374978386692
 21
649.19365693033774
  0
LINE
  8
_0-0_計極細
  6
CONTINUOUS
 62
    2
 10
877.43374978386692
 20
649.19365693033774
 11
877.43374978386692
 21
643.19365693033762
  0
LINE
  8
_0-0_計極細
  6
CONTINUOUS
 62
    2
 10
872.43374978386692
 20
643.19365693033717
 11
872.43374978386692
 21
649.19365693033774
  0
LINE
  8
_0-1_計細線
  6
CONTINUOUS
 62
    3
 10
478.43374978386692
 20
629.19365693033808
 11
478.43374978386692
 21
621.19365693033819
  0
LINE
  8
_0-1_計細線
  6
CONTINUOUS
 62
    3
 10
478.43374978386692
 20
621.19365693033819
 11
971.43374978386703
 21
621.19365693033819
  0
LINE
  8
_0-1_計細線
  6
CONTINUOUS
 62
    3
 10
971.43374978386703
 20
621.19365693033819
 11
971.43374978386703
 21
629.19365693033808
  0
LINE
  8
_0-1_計細線
  6
CONTINUOUS
 62
    3
 10
971.43374978386703
 20
629.19365693033808
 11
478.43374978386692
 21
629.19365693033808
  0
LINE
  8
_0-0_計極細
  6
CONTINUOUS
 62
    2
 10
577.43374978386692
 20
635.19365693033762
 11
577.43374978386692
 21
629.19365693033774
  0
LINE
  8
_0-0_計極細
  6
CONTINUOUS
 62
    2
 10
572.43374978386692
 20
629.19365693033717
 11
572.43374978386692
 21
635.19365693033762
  0
LINE
  8
_0-0_計極細
  6
CONTINUOUS
 62
    2
 10
677.43374978386692
 20
635.19365693033762
 11
677.43374978386692
 21
629.19365693033774
  0
LINE
  8
_0-0_計極細
  6
CONTINUOUS
 62
    2
 10
672.43374978386692
 20
629.19365693033717
 11
672.43374978386692
 21
635.19365693033762
  0
LINE
  8
_0-0_計極細
  6
CONTINUOUS
 62
    2
 10
777.43374978386692
 20
635.19365693033762
 11
777.43374978386692
 21
629.19365693033774
  0
LINE
  8
_0-0_計極細
  6
CONTINUOUS
 62
    2
 10
772.43374978386692
 20
629.19365693033717
 11
772.43374978386692
 21
635.19365693033762
  0
LINE
  8
_0-0_計極細
  6
CONTINUOUS
 62
    2
 10
877.43374978386692
 20
635.19365693033762
 11
877.43374978386692
 21
629.19365693033774
  0
LINE
  8
_0-0_計極細
  6
CONTINUOUS
 62
    2
 10
872.43374978386692
 20
629.19365693033717
 11
872.43374978386692
 21
635.19365693033762
  0
LINE
  8
_0-1_計細線
  6
CONTINUOUS
 62
    3
 10
478.43374978386692
 20
615.19365693033808
 11
478.43374978386692
 21
607.19365693033808
  0
LINE
  8
_0-1_計細線
  6
CONTINUOUS
 62
    3
 10
478.43374978386692
 20
607.19365693033808
 11
971.43374978386703
 21
607.19365693033808
  0
LINE
  8
_0-1_計細線
  6
CONTINUOUS
 62
    3
 10
971.43374978386703
 20
607.19365693033808
 11
971.43374978386703
 21
615.19365693033808
  0
LINE
  8
_0-1_計細線
  6
CONTINUOUS
 62
    3
 10
971.43374978386703
 20
615.19365693033808
 11
478.43374978386692
 21
615.19365693033808
  0
LINE
  8
_0-0_計極細
  6
CONTINUOUS
 62
    2
 10
577.43374978386692
 20
621.19365693033762
 11
577.43374978386692
 21
615.19365693033762
  0
LINE
  8
_0-0_計極細
  6
CONTINUOUS
 62
    2
 10
572.43374978386692
 20
615.19365693033717
 11
572.43374978386692
 21
621.19365693033762
  0
LINE
  8
_0-0_計極細
  6
CONTINUOUS
 62
    2
 10
677.43374978386692
 20
621.19365693033762
 11
677.43374978386692
 21
615.19365693033762
  0
LINE
  8
_0-0_計極細
  6
CONTINUOUS
 62
    2
 10
672.43374978386692
 20
615.19365693033717
 11
672.43374978386692
 21
621.19365693033762
  0
LINE
  8
_0-0_計極細
  6
CONTINUOUS
 62
    2
 10
777.43374978386692
 20
621.19365693033762
 11
777.43374978386692
 21
615.19365693033762
  0
LINE
  8
_0-0_計極細
  6
CONTINUOUS
 62
    2
 10
772.43374978386692
 20
615.19365693033717
 11
772.43374978386692
 21
621.19365693033762
  0
LINE
  8
_0-0_計極細
  6
CONTINUOUS
 62
    2
 10
877.43374978386692
 20
621.19365693033762
 11
877.43374978386692
 21
615.19365693033762
  0
LINE
  8
_0-0_計極細
  6
CONTINUOUS
 62
    2
 10
872.43374978386692
 20
615.19365693033717
 11
872.43374978386692
 21
621.19365693033762
  0
LINE
  8
_0-1_計細線
  6
CONTINUOUS
 62
    3
 10
478.43374978386692
 20
601.19365693033819
 11
478.43374978386692
 21
593.19365693033808
  0
LINE
  8
_0-1_計細線
  6
CONTINUOUS
 62
    3
 10
478.43374978386692
 20
593.19365693033808
 11
971.43374978386703
 21
593.19365693033808
  0
LINE
  8
_0-1_計細線
  6
CONTINUOUS
 62
    3
 10
971.43374978386703
 20
593.19365693033808
 11
971.43374978386703
 21
601.19365693033819
  0
LINE
  8
_0-1_計細線
  6
CONTINUOUS
 62
    3
 10
971.43374978386703
 20
601.19365693033819
 11
478.43374978386692
 21
601.19365693033819
  0
LINE
  8
_0-0_計極細
  6
CONTINUOUS
 62
    2
 10
577.43374978386692
 20
607.19365693033762
 11
577.43374978386692
 21
601.19365693033762
  0
LINE
  8
_0-0_計極細
  6
CONTINUOUS
 62
    2
 10
572.43374978386692
 20
601.19365693033717
 11
572.43374978386692
 21
607.19365693033762
  0
LINE
  8
_0-0_計極細
  6
CONTINUOUS
 62
    2
 10
677.43374978386692
 20
607.19365693033762
 11
677.43374978386692
 21
601.19365693033762
  0
LINE
  8
_0-0_計極細
  6
CONTINUOUS
 62
    2
 10
672.43374978386692
 20
601.19365693033717
 11
672.43374978386692
 21
607.19365693033762
  0
LINE
  8
_0-0_計極細
  6
CONTINUOUS
 62
    2
 10
777.43374978386692
 20
607.19365693033762
 11
777.43374978386692
 21
601.19365693033762
  0
LINE
  8
_0-0_計極細
  6
CONTINUOUS
 62
    2
 10
772.43374978386692
 20
601.19365693033717
 11
772.43374978386692
 21
607.19365693033762
  0
LINE
  8
_0-0_計極細
  6
CONTINUOUS
 62
    2
 10
877.43374978386692
 20
607.19365693033762
 11
877.43374978386692
 21
601.19365693033762
  0
LINE
  8
_0-0_計極細
  6
CONTINUOUS
 62
    2
 10
872.43374978386692
 20
601.19365693033717
 11
872.43374978386692
 21
607.19365693033762
  0
LINE
  8
_0-0_計極細
  6
CONTINUOUS
 62
    2
 10
377.43374978386692
 20
789.19365693033808
 11
377.43374978386692
 21
783.19365693033819
  0
LINE
  8
_0-0_計極細
  6
CONTINUOUS
 62
    2
 10
372.43374978386692
 20
783.19365693033774
 11
372.43374978386692
 21
789.19365693033808
  0
LINE
  8
_0-0_計極細
  6
CONTINUOUS
 62
    2
 10
377.43374978386692
 20
775.19365693033819
 11
377.43374978386692
 21
769.19365693033774
  0
LINE
  8
_0-0_計極細
  6
CONTINUOUS
 62
    2
 10
372.43374978386692
 20
769.19365693033774
 11
372.43374978386692
 21
775.19365693033819
  0
LINE
  8
_0-0_計極細
  6
CONTINUOUS
 62
    2
 10
377.43374978386692
 20
761.19365693033819
 11
377.43374978386692
 21
755.19365693033762
  0
LINE
  8
_0-0_計極細
  6
CONTINUOUS
 62
    2
 10
372.43374978386692
 20
755.19365693033762
 11
372.43374978386692
 21
761.19365693033819
  0
LINE
  8
_0-0_計極細
  6
CONTINUOUS
 62
    2
 10
377.43374978386692
 20
747.19365693033762
 11
377.43374978386692
 21
741.19365693033774
  0
LINE
  8
_0-0_計極細
  6
CONTINUOUS
 62
    2
 10
372.43374978386692
 20
741.19365693033717
 11
372.43374978386692
 21
747.19365693033762
  0
LINE
  8
_0-0_計極細
  6
CONTINUOUS
 62
    2
 10
377.43374978386692
 20
733.19365693033762
 11
377.43374978386692
 21
727.19365693033762
  0
LINE
  8
_0-0_計極細
  6
CONTINUOUS
 62
    2
 10
372.43374978386692
 20
727.19365693033728
 11
372.43374978386692
 21
733.19365693033762
  0
LINE
  8
_0-0_計極細
  6
CONTINUOUS
 62
    2
 10
377.43374978386692
 20
719.19365693033774
 11
377.43374978386692
 21
713.19365693033762
  0
LINE
  8
_0-0_計極細
  6
CONTINUOUS
 62
    2
 10
372.43374978386692
 20
713.19365693033717
 11
372.43374978386692
 21
719.19365693033774
  0
LINE
  8
_0-0_計極細
  6
CONTINUOUS
 62
    2
 10
377.43374978386692
 20
705.19365693033762
 11
377.43374978386692
 21
699.19365693033774
  0
LINE
  8
_0-0_計極細
  6
CONTINUOUS
 62
    2
 10
372.43374978386692
 20
699.19365693033728
 11
372.43374978386692
 21
705.19365693033762
  0
LINE
  8
_0-0_計極細
  6
CONTINUOUS
 62
    2
 10
377.43374978386692
 20
691.19365693033774
 11
377.43374978386692
 21
685.19365693033762
  0
LINE
  8
_0-0_計極細
  6
CONTINUOUS
 62
    2
 10
372.43374978386692
 20
685.19365693033717
 11
372.43374978386692
 21
691.19365693033774
  0
LINE
  8
_0-0_計極細
  6
CONTINUOUS
 62
    2
 10
377.43374978386692
 20
677.19365693033762
 11
377.43374978386692
 21
671.19365693033774
  0
LINE
  8
_0-0_計極細
  6
CONTINUOUS
 62
    2
 10
372.43374978386692
 20
671.19365693033717
 11
372.43374978386692
 21
677.19365693033762
  0
LINE
  8
_0-0_計極細
  6
CONTINUOUS
 62
    2
 10
377.43374978386692
 20
663.19365693033762
 11
377.43374978386692
 21
657.19365693033762
  0
LINE
  8
_0-0_計極細
  6
CONTINUOUS
 62
    2
 10
372.43374978386692
 20
657.19365693033728
 11
372.43374978386692
 21
663.19365693033762
  0
LINE
  8
_0-1_計細線
  6
CONTINUOUS
 62
    3
 10
324.93374978386692
 20
797.19365693033808
 11
471.43374978386737
 21
797.19365693033808
  0
LINE
  8
_0-0_計極細
  6
CONTINUOUS
 62
    2
 10
377.43374978386692
 20
649.19365693033774
 11
377.43374978386692
 21
643.19365693033762
  0
LINE
  8
_0-0_計極細
  6
CONTINUOUS
 62
    2
 10
372.43374978386692
 20
643.19365693033717
 11
372.43374978386692
 21
649.19365693033774
  0
LINE
  8
_0-0_計極細
  6
CONTINUOUS
 62
    2
 10
377.43374978386692
 20
635.19365693033762
 11
377.43374978386692
 21
629.19365693033774
  0
LINE
  8
_0-0_計極細
  6
CONTINUOUS
 62
    2
 10
372.43374978386692
 20
629.19365693033717
 11
372.43374978386692
 21
635.19365693033762
  0
LINE
  8
_0-0_計極細
  6
CONTINUOUS
 62
    2
 10
377.43374978386692
 20
621.19365693033762
 11
377.43374978386692
 21
615.19365693033762
  0
LINE
  8
_0-0_計極細
  6
CONTINUOUS
 62
    2
 10
372.43374978386692
 20
615.19365693033717
 11
372.43374978386692
 21
621.19365693033762
  0
LINE
  8
_0-0_計極細
  6
CONTINUOUS
 62
    2
 10
377.43374978386692
 20
607.19365693033762
 11
377.43374978386692
 21
601.19365693033762
  0
LINE
  8
_0-0_計極細
  6
CONTINUOUS
 62
    2
 10
372.43374978386692
 20
601.19365693033717
 11
372.43374978386692
 21
607.19365693033762
  0
LINE
  8
_0-0_計極細
  6
CONTINUOUS
 62
    2
 10
1077.4337497838669
 20
789.19365693033853
 11
1077.4337497838669
 21
783.19365693033819
  0
LINE
  8
_0-0_計極細
  6
CONTINUOUS
 62
    2
 10
1072.4337497838669
 20
783.19365693033819
 11
1072.4337497838669
 21
789.19365693033853
  0
LINE
  8
_0-0_計極細
  6
CONTINUOUS
 62
    2
 10
1077.4337497838669
 20
775.19365693033865
 11
1077.4337497838669
 21
769.19365693033808
  0
LINE
  8
_0-0_計極細
  6
CONTINUOUS
 62
    2
 10
1072.4337497838669
 20
769.19365693033808
 11
1072.4337497838669
 21
775.19365693033865
  0
LINE
  8
_0-0_計極細
  6
CONTINUOUS
 62
    2
 10
1077.4337497838669
 20
761.19365693033853
 11
1077.4337497838669
 21
755.19365693033808
  0
LINE
  8
_0-0_計極細
  6
CONTINUOUS
 62
    2
 10
1072.4337497838669
 20
755.19365693033808
 11
1072.4337497838669
 21
761.19365693033853
  0
LINE
  8
_0-0_計極細
  6
CONTINUOUS
 62
    2
 10
1077.4337497838669
 20
747.19365693033808
 11
1077.4337497838669
 21
741.19365693033774
  0
LINE
  8
_0-0_計極細
  6
CONTINUOUS
 62
    2
 10
1072.4337497838669
 20
741.19365693033774
 11
1072.4337497838669
 21
747.19365693033808
  0
LINE
  8
_0-0_計極細
  6
CONTINUOUS
 62
    2
 10
1077.4337497838669
 20
733.19365693033819
 11
1077.4337497838669
 21
727.19365693033762
  0
LINE
  8
_0-0_計極細
  6
CONTINUOUS
 62
    2
 10
1072.4337497838669
 20
727.19365693033762
 11
1072.4337497838669
 21
733.19365693033819
  0
LINE
  8
_0-0_計極細
  6
CONTINUOUS
 62
    2
 10
1077.4337497838669
 20
719.19365693033808
 11
1077.4337497838669
 21
713.19365693033762
  0
LINE
  8
_0-0_計極細
  6
CONTINUOUS
 62
    2
 10
1072.4337497838669
 20
713.19365693033762
 11
1072.4337497838669
 21
719.19365693033808
  0
LINE
  8
_0-0_計極細
  6
CONTINUOUS
 62
    2
 10
1077.4337497838669
 20
705.19365693033808
 11
1077.4337497838669
 21
699.19365693033774
  0
LINE
  8
_0-0_計極細
  6
CONTINUOUS
 62
    2
 10
1072.4337497838669
 20
699.19365693033774
 11
1072.4337497838669
 21
705.19365693033808
  0
LINE
  8
_0-0_計極細
  6
CONTINUOUS
 62
    2
 10
1077.4337497838669
 20
691.19365693033819
 11
1077.4337497838669
 21
685.19365693033762
  0
LINE
  8
_0-0_計極細
  6
CONTINUOUS
 62
    2
 10
1072.4337497838669
 20
685.19365693033762
 11
1072.4337497838669
 21
691.19365693033819
  0
LINE
  8
_0-0_計極細
  6
CONTINUOUS
 62
    2
 10
1077.4337497838669
 20
677.19365693033808
 11
1077.4337497838669
 21
671.19365693033774
  0
LINE
  8
_0-0_計極細
  6
CONTINUOUS
 62
    2
 10
1072.4337497838669
 20
671.19365693033774
 11
1072.4337497838669
 21
677.19365693033808
  0
LINE
  8
_0-0_計極細
  6
CONTINUOUS
 62
    2
 10
1077.4337497838669
 20
663.19365693033819
 11
1077.4337497838669
 21
657.19365693033762
  0
LINE
  8
_0-0_計極細
  6
CONTINUOUS
 62
    2
 10
1072.4337497838669
 20
657.19365693033762
 11
1072.4337497838669
 21
663.19365693033819
  0
LINE
  8
_0-1_計細線
  6
CONTINUOUS
 62
    3
 10
1124.9337497838669
 20
797.19365693033808
 11
978.43374978386692
 21
797.19365693033808
  0
LINE
  8
_0-0_計極細
  6
CONTINUOUS
 62
    2
 10
1077.4337497838669
 20
649.19365693033808
 11
1077.4337497838669
 21
643.19365693033762
  0
LINE
  8
_0-0_計極細
  6
CONTINUOUS
 62
    2
 10
1072.4337497838669
 20
643.19365693033762
 11
1072.4337497838669
 21
649.19365693033808
  0
LINE
  8
_0-0_計極細
  6
CONTINUOUS
 62
    2
 10
1077.4337497838669
 20
635.19365693033808
 11
1077.4337497838669
 21
629.19365693033774
  0
LINE
  8
_0-0_計極細
  6
CONTINUOUS
 62
    2
 10
1072.4337497838669
 20
629.19365693033774
 11
1072.4337497838669
 21
635.19365693033808
  0
LINE
  8
_0-0_計極細
  6
CONTINUOUS
 62
    2
 10
1077.4337497838669
 20
621.19365693033819
 11
1077.4337497838669
 21
615.19365693033762
  0
LINE
  8
_0-0_計極細
  6
CONTINUOUS
 62
    2
 10
1072.4337497838669
 20
615.19365693033762
 11
1072.4337497838669
 21
621.19365693033819
  0
LINE
  8
_0-0_計極細
  6
CONTINUOUS
 62
    2
 10
1077.4337497838669
 20
607.19365693033808
 11
1077.4337497838669
 21
601.19365693033762
  0
LINE
  8
_0-0_計極細
  6
CONTINUOUS
 62
    2
 10
1072.4337497838669
 20
601.19365693033762
 11
1072.4337497838669
 21
607.19365693033808
  0
LINE
  8
_0-1_計細線
  6
CONTINUOUS
 62
    3
 10
478.43374978386692
 20
587.19365693033808
 11
478.43374978386692
 21
579.19365693033808
  0
LINE
  8
_0-1_計細線
  6
CONTINUOUS
 62
    3
 10
478.43374978386692
 20
579.19365693033808
 11
971.43374978386703
 21
579.19365693033808
  0
LINE
  8
_0-1_計細線
  6
CONTINUOUS
 62
    3
 10
971.43374978386703
 20
579.19365693033808
 11
971.43374978386703
 21
587.19365693033808
  0
LINE
  8
_0-1_計細線
  6
CONTINUOUS
 62
    3
 10
971.43374978386703
 20
587.19365693033808
 11
478.43374978386692
 21
587.19365693033808
  0
LINE
  8
_0-0_計極細
  6
CONTINUOUS
 62
    2
 10
577.43374978386692
 20
593.19365693033762
 11
577.43374978386692
 21
587.19365693033762
  0
LINE
  8
_0-0_計極細
  6
CONTINUOUS
 62
    2
 10
572.43374978386692
 20
587.19365693033728
 11
572.43374978386692
 21
593.19365693033762
  0
LINE
  8
_0-0_計極細
  6
CONTINUOUS
 62
    2
 10
677.43374978386692
 20
593.19365693033762
 11
677.43374978386692
 21
587.19365693033762
  0
LINE
  8
_0-0_計極細
  6
CONTINUOUS
 62
    2
 10
672.43374978386692
 20
587.19365693033728
 11
672.43374978386692
 21
593.19365693033762
  0
LINE
  8
_0-0_計極細
  6
CONTINUOUS
 62
    2
 10
777.43374978386692
 20
593.19365693033762
 11
777.43374978386692
 21
587.19365693033762
  0
LINE
  8
_0-0_計極細
  6
CONTINUOUS
 62
    2
 10
772.43374978386692
 20
587.19365693033728
 11
772.43374978386692
 21
593.19365693033762
  0
LINE
  8
_0-0_計極細
  6
CONTINUOUS
 62
    2
 10
877.43374978386692
 20
593.19365693033762
 11
877.43374978386692
 21
587.19365693033762
  0
LINE
  8
_0-0_計極細
  6
CONTINUOUS
 62
    2
 10
872.43374978386692
 20
587.19365693033728
 11
872.43374978386692
 21
593.19365693033762
  0
LINE
  8
_0-1_計細線
  6
CONTINUOUS
 62
    3
 10
478.43374978386692
 20
573.19365693033808
 11
478.43374978386692
 21
565.19365693033808
  0
LINE
  8
_0-1_計細線
  6
CONTINUOUS
 62
    3
 10
478.43374978386692
 20
565.19365693033808
 11
971.43374978386703
 21
565.19365693033808
  0
LINE
  8
_0-1_計細線
  6
CONTINUOUS
 62
    3
 10
971.43374978386703
 20
565.19365693033808
 11
971.43374978386703
 21
573.19365693033808
  0
LINE
  8
_0-1_計細線
  6
CONTINUOUS
 62
    3
 10
971.43374978386703
 20
573.19365693033808
 11
478.43374978386692
 21
573.19365693033808
  0
LINE
  8
_0-0_計極細
  6
CONTINUOUS
 62
    2
 10
577.43374978386692
 20
579.19365693033774
 11
577.43374978386692
 21
573.19365693033762
  0
LINE
  8
_0-0_計極細
  6
CONTINUOUS
 62
    2
 10
572.43374978386692
 20
573.19365693033717
 11
572.43374978386692
 21
579.19365693033774
  0
LINE
  8
_0-0_計極細
  6
CONTINUOUS
 62
    2
 10
677.43374978386692
 20
579.19365693033774
 11
677.43374978386692
 21
573.19365693033762
  0
LINE
  8
_0-0_計極細
  6
CONTINUOUS
 62
    2
 10
672.43374978386692
 20
573.19365693033717
 11
672.43374978386692
 21
579.19365693033774
  0
LINE
  8
_0-0_計極細
  6
CONTINUOUS
 62
    2
 10
777.43374978386692
 20
579.19365693033774
 11
777.43374978386692
 21
573.19365693033762
  0
LINE
  8
_0-0_計極細
  6
CONTINUOUS
 62
    2
 10
772.43374978386692
 20
573.19365693033717
 11
772.43374978386692
 21
579.19365693033774
  0
LINE
  8
_0-0_計極細
  6
CONTINUOUS
 62
    2
 10
877.43374978386692
 20
579.19365693033774
 11
877.43374978386692
 21
573.19365693033762
  0
LINE
  8
_0-0_計極細
  6
CONTINUOUS
 62
    2
 10
872.43374978386692
 20
573.19365693033717
 11
872.43374978386692
 21
579.19365693033774
  0
LINE
  8
_0-1_計細線
  6
CONTINUOUS
 62
    3
 10
478.43374978386692
 20
559.19365693033808
 11
478.43374978386692
 21
551.19365693033819
  0
LINE
  8
_0-1_計細線
  6
CONTINUOUS
 62
    3
 10
478.43374978386692
 20
551.19365693033819
 11
971.43374978386703
 21
551.19365693033819
  0
LINE
  8
_0-1_計細線
  6
CONTINUOUS
 62
    3
 10
971.43374978386703
 20
551.19365693033819
 11
971.43374978386703
 21
559.19365693033808
  0
LINE
  8
_0-1_計細線
  6
CONTINUOUS
 62
    3
 10
971.43374978386703
 20
559.19365693033808
 11
478.43374978386692
 21
559.19365693033808
  0
LINE
  8
_0-0_計極細
  6
CONTINUOUS
 62
    2
 10
577.43374978386692
 20
565.19365693033762
 11
577.43374978386692
 21
559.19365693033774
  0
LINE
  8
_0-0_計極細
  6
CONTINUOUS
 62
    2
 10
572.43374978386692
 20
559.19365693033717
 11
572.43374978386692
 21
565.19365693033762
  0
LINE
  8
_0-0_計極細
  6
CONTINUOUS
 62
    2
 10
677.43374978386692
 20
565.19365693033762
 11
677.43374978386692
 21
559.19365693033774
  0
LINE
  8
_0-0_計極細
  6
CONTINUOUS
 62
    2
 10
672.43374978386692
 20
559.19365693033717
 11
672.43374978386692
 21
565.19365693033762
  0
LINE
  8
_0-0_計極細
  6
CONTINUOUS
 62
    2
 10
777.43374978386692
 20
565.19365693033762
 11
777.43374978386692
 21
559.19365693033774
  0
LINE
  8
_0-0_計極細
  6
CONTINUOUS
 62
    2
 10
772.43374978386692
 20
559.19365693033717
 11
772.43374978386692
 21
565.19365693033762
  0
LINE
  8
_0-0_計極細
  6
CONTINUOUS
 62
    2
 10
877.43374978386692
 20
565.19365693033762
 11
877.43374978386692
 21
559.19365693033774
  0
LINE
  8
_0-0_計極細
  6
CONTINUOUS
 62
    2
 10
872.43374978386692
 20
559.19365693033717
 11
872.43374978386692
 21
565.19365693033762
  0
LINE
  8
_0-0_計極細
  6
CONTINUOUS
 62
    2
 10
377.43374978386692
 20
593.19365693033762
 11
377.43374978386692
 21
587.19365693033762
  0
LINE
  8
_0-0_計極細
  6
CONTINUOUS
 62
    2
 10
372.43374978386692
 20
587.19365693033728
 11
372.43374978386692
 21
593.19365693033762
  0
LINE
  8
_0-0_計極細
  6
CONTINUOUS
 62
    2
 10
377.43374978386692
 20
579.19365693033774
 11
377.43374978386692
 21
573.19365693033762
  0
LINE
  8
_0-0_計極細
  6
CONTINUOUS
 62
    2
 10
372.43374978386692
 20
573.19365693033717
 11
372.43374978386692
 21
579.19365693033774
  0
LINE
  8
_0-0_計極細
  6
CONTINUOUS
 62
    2
 10
377.43374978386692
 20
565.19365693033762
 11
377.43374978386692
 21
559.19365693033774
  0
LINE
  8
_0-0_計極細
  6
CONTINUOUS
 62
    2
 10
372.43374978386692
 20
559.19365693033717
 11
372.43374978386692
 21
565.19365693033762
  0
LINE
  8
_0-0_計極細
  6
CONTINUOUS
 62
    2
 10
1077.4337497838669
 20
593.19365693033808
 11
1077.4337497838669
 21
587.19365693033762
  0
LINE
  8
_0-0_計極細
  6
CONTINUOUS
 62
    2
 10
1072.4337497838669
 20
587.19365693033762
 11
1072.4337497838669
 21
593.19365693033808
  0
LINE
  8
_0-0_計極細
  6
CONTINUOUS
 62
    2
 10
1077.4337497838669
 20
579.19365693033808
 11
1077.4337497838669
 21
573.19365693033762
  0
LINE
  8
_0-0_計極細
  6
CONTINUOUS
 62
    2
 10
1072.4337497838669
 20
573.19365693033762
 11
1072.4337497838669
 21
579.19365693033808
  0
LINE
  8
_0-0_計極細
  6
CONTINUOUS
 62
    2
 10
1077.4337497838669
 20
565.19365693033808
 11
1077.4337497838669
 21
559.19365693033774
  0
LINE
  8
_0-0_計極細
  6
CONTINUOUS
 62
    2
 10
1072.4337497838669
 20
559.19365693033774
 11
1072.4337497838669
 21
565.19365693033808
  0
LINE
  8
_0-1_計細線
  6
CONTINUOUS
 62
    3
 10
471.43374978386737
 20
789.19365693033808
 11
323.39711773664527
 21
789.19365693033808
  0
LINE
  8
_0-1_計細線
  6
CONTINUOUS
 62
    3
 10
322.28341305830918
 20
783.19365693033819
 11
471.43374978386737
 21
783.19365693033819
  0
LINE
  8
_0-1_計細線
  6
CONTINUOUS
 62
    3
 10
471.43374978386737
 20
775.19365693033819
 11
320.89949277869846
 21
775.19365693033819
  0
LINE
  8
_0-1_計細線
  6
CONTINUOUS
 62
    3
 10
319.97838258920592
 20
769.19365693033808
 11
471.43374978386737
 21
769.19365693033808
  0
LINE
  8
_0-1_計細線
  6
CONTINUOUS
 62
    3
 10
471.43374978386737
 20
761.19365693033853
 11
318.94065385472868
 21
761.19365693033853
  0
LINE
  8
_0-1_計細線
  6
CONTINUOUS
 62
    3
 10
318.33689891749236
 20
755.19365693033808
 11
471.43374978386737
 21
755.19365693033808
  0
LINE
  8
_0-1_計細線
  6
CONTINUOUS
 62
    3
 10
978.43374978386692
 20
789.19365693033853
 11
1126.4703818310891
 21
789.19365693033853
  0
LINE
  8
_0-1_計細線
  6
CONTINUOUS
 62
    3
 10
1127.5840865094247
 20
783.19365693033819
 11
978.43374978386692
 21
783.19365693033819
  0
LINE
  8
_0-1_計細線
  6
CONTINUOUS
 62
    3
 10
978.43374978386692
 20
775.19365693033865
 11
1128.9680067890358
 21
775.19365693033865
  0
LINE
  8
_0-1_計細線
  6
CONTINUOUS
 62
    3
 10
1129.8891169785279
 20
769.19365693033853
 11
978.43374978386692
 21
769.19365693033853
  0
LINE
  8
_0-1_計細線
  6
CONTINUOUS
 62
    3
 10
978.43374978386692
 20
761.19365693033899
 11
1130.9268457130056
 21
761.19365693033899
  0
LINE
  8
_0-1_計細線
  6
CONTINUOUS
 62
    3
 10
478.43374978386692
 20
545.19365693033808
 11
478.43374978386692
 21
537.19365693033808
  0
LINE
  8
_0-1_計細線
  6
CONTINUOUS
 62
    3
 10
478.43374978386692
 20
537.19365693033808
 11
971.43374978386703
 21
537.19365693033808
  0
LINE
  8
_0-1_計細線
  6
CONTINUOUS
 62
    3
 10
971.43374978386703
 20
537.19365693033808
 11
971.43374978386703
 21
545.19365693033808
  0
LINE
  8
_0-1_計細線
  6
CONTINUOUS
 62
    3
 10
971.43374978386703
 20
545.19365693033808
 11
478.43374978386692
 21
545.19365693033808
  0
LINE
  8
_0-0_計極細
  6
CONTINUOUS
 62
    2
 10
577.43374978386692
 20
551.19365693033762
 11
577.43374978386692
 21
545.19365693033762
  0
LINE
  8
_0-0_計極細
  6
CONTINUOUS
 62
    2
 10
572.43374978386692
 20
545.19365693033717
 11
572.43374978386692
 21
551.19365693033762
  0
LINE
  8
_0-0_計極細
  6
CONTINUOUS
 62
    2
 10
677.43374978386692
 20
551.19365693033762
 11
677.43374978386692
 21
545.19365693033762
  0
LINE
  8
_0-0_計極細
  6
CONTINUOUS
 62
    2
 10
672.43374978386692
 20
545.19365693033717
 11
672.43374978386692
 21
551.19365693033762
  0
LINE
  8
_0-0_計極細
  6
CONTINUOUS
 62
    2
 10
777.43374978386692
 20
551.19365693033762
 11
777.43374978386692
 21
545.19365693033762
  0
LINE
  8
_0-0_計極細
  6
CONTINUOUS
 62
    2
 10
772.43374978386692
 20
545.19365693033717
 11
772.43374978386692
 21
551.19365693033762
  0
LINE
  8
_0-0_計極細
  6
CONTINUOUS
 62
    2
 10
877.43374978386692
 20
551.19365693033762
 11
877.43374978386692
 21
545.19365693033762
  0
LINE
  8
_0-0_計極細
  6
CONTINUOUS
 62
    2
 10
872.43374978386692
 20
545.19365693033717
 11
872.43374978386692
 21
551.19365693033762
  0
LINE
  8
_0-0_計極細
  6
CONTINUOUS
 62
    2
 10
377.43374978386692
 20
551.19365693033762
 11
377.43374978386692
 21
545.19365693033762
  0
LINE
  8
_0-0_計極細
  6
CONTINUOUS
 62
    2
 10
372.43374978386692
 20
545.19365693033717
 11
372.43374978386692
 21
551.19365693033762
  0
LINE
  8
_0-0_計極細
  6
CONTINUOUS
 62
    2
 10
1077.4337497838669
 20
551.19365693033819
 11
1077.4337497838669
 21
545.19365693033762
  0
LINE
  8
_0-0_計極細
  6
CONTINUOUS
 62
    2
 10
1072.4337497838669
 20
545.19365693033762
 11
1072.4337497838669
 21
551.19365693033819
  0
LINE
  8
_0-1_計細線
  6
CONTINUOUS
 62
    3
 10
478.43374978386692
 20
531.19365693033819
 11
478.43374978386692
 21
523.19365693033808
  0
LINE
  8
_0-1_計細線
  6
CONTINUOUS
 62
    3
 10
478.43374978386692
 20
523.19365693033808
 11
971.43374978386703
 21
523.19365693033808
  0
LINE
  8
_0-1_計細線
  6
CONTINUOUS
 62
    3
 10
971.43374978386703
 20
523.19365693033808
 11
971.43374978386703
 21
531.19365693033819
  0
LINE
  8
_0-1_計細線
  6
CONTINUOUS
 62
    3
 10
971.43374978386703
 20
531.19365693033819
 11
478.43374978386692
 21
531.19365693033819
  0
LINE
  8
_0-0_計極細
  6
CONTINUOUS
 62
    2
 10
577.43374978386692
 20
537.19365693033762
 11
577.43374978386692
 21
531.19365693033762
  0
LINE
  8
_0-0_計極細
  6
CONTINUOUS
 62
    2
 10
572.43374978386692
 20
531.19365693033717
 11
572.43374978386692
 21
537.19365693033762
  0
LINE
  8
_0-0_計極細
  6
CONTINUOUS
 62
    2
 10
677.43374978386692
 20
537.19365693033762
 11
677.43374978386692
 21
531.19365693033762
  0
LINE
  8
_0-0_計極細
  6
CONTINUOUS
 62
    2
 10
672.43374978386692
 20
531.19365693033717
 11
672.43374978386692
 21
537.19365693033762
  0
LINE
  8
_0-0_計極細
  6
CONTINUOUS
 62
    2
 10
777.43374978386692
 20
537.19365693033762
 11
777.43374978386692
 21
531.19365693033762
  0
LINE
  8
_0-0_計極細
  6
CONTINUOUS
 62
    2
 10
772.43374978386692
 20
531.19365693033717
 11
772.43374978386692
 21
537.19365693033762
  0
LINE
  8
_0-0_計極細
  6
CONTINUOUS
 62
    2
 10
877.43374978386692
 20
537.19365693033762
 11
877.43374978386692
 21
531.19365693033762
  0
LINE
  8
_0-0_計極細
  6
CONTINUOUS
 62
    2
 10
872.43374978386692
 20
531.19365693033717
 11
872.43374978386692
 21
537.19365693033762
  0
LINE
  8
_0-0_計極細
  6
CONTINUOUS
 62
    2
 10
377.43374978386692
 20
537.19365693033762
 11
377.43374978386692
 21
531.19365693033762
  0
LINE
  8
_0-0_計極細
  6
CONTINUOUS
 62
    2
 10
372.43374978386692
 20
531.19365693033717
 11
372.43374978386692
 21
537.19365693033762
  0
LINE
  8
_0-0_計極細
  6
CONTINUOUS
 62
    2
 10
1077.4337497838669
 20
537.19365693033808
 11
1077.4337497838669
 21
531.19365693033762
  0
LINE
  8
_0-0_計極細
  6
CONTINUOUS
 62
    2
 10
1072.4337497838669
 20
531.19365693033762
 11
1072.4337497838669
 21
537.19365693033808
  0
LINE
  8
_0-1_計細線
  6
CONTINUOUS
 62
    3
 10
478.43374978386692
 20
517.19365693033808
 11
478.43374978386692
 21
509.19365693033808
  0
LINE
  8
_0-1_計細線
  6
CONTINUOUS
 62
    3
 10
478.43374978386692
 20
509.19365693033808
 11
971.43374978386703
 21
509.19365693033808
  0
LINE
  8
_0-1_計細線
  6
CONTINUOUS
 62
    3
 10
971.43374978386703
 20
509.19365693033808
 11
971.43374978386703
 21
517.19365693033808
  0
LINE
  8
_0-1_計細線
  6
CONTINUOUS
 62
    3
 10
971.43374978386703
 20
517.19365693033808
 11
478.43374978386692
 21
517.19365693033808
  0
LINE
  8
_0-0_計極細
  6
CONTINUOUS
 62
    2
 10
577.43374978386692
 20
523.19365693033762
 11
577.43374978386692
 21
517.19365693033762
  0
LINE
  8
_0-0_計極細
  6
CONTINUOUS
 62
    2
 10
572.43374978386692
 20
517.19365693033728
 11
572.43374978386692
 21
523.19365693033762
  0
LINE
  8
_0-0_計極細
  6
CONTINUOUS
 62
    2
 10
677.43374978386692
 20
523.19365693033762
 11
677.43374978386692
 21
517.19365693033762
  0
LINE
  8
_0-0_計極細
  6
CONTINUOUS
 62
    2
 10
672.43374978386692
 20
517.19365693033728
 11
672.43374978386692
 21
523.19365693033762
  0
LINE
  8
_0-0_計極細
  6
CONTINUOUS
 62
    2
 10
777.43374978386692
 20
523.19365693033762
 11
777.43374978386692
 21
517.19365693033762
  0
LINE
  8
_0-0_計極細
  6
CONTINUOUS
 62
    2
 10
772.43374978386692
 20
517.19365693033728
 11
772.43374978386692
 21
523.19365693033762
  0
LINE
  8
_0-0_計極細
  6
CONTINUOUS
 62
    2
 10
877.43374978386692
 20
523.19365693033762
 11
877.43374978386692
 21
517.19365693033762
  0
LINE
  8
_0-0_計極細
  6
CONTINUOUS
 62
    2
 10
872.43374978386692
 20
517.19365693033728
 11
872.43374978386692
 21
523.19365693033762
  0
LINE
  8
_0-0_計極細
  6
CONTINUOUS
 62
    2
 10
377.43374978386692
 20
523.19365693033762
 11
377.43374978386692
 21
517.19365693033762
  0
LINE
  8
_0-0_計極細
  6
CONTINUOUS
 62
    2
 10
372.43374978386692
 20
517.19365693033728
 11
372.43374978386692
 21
523.19365693033762
  0
LINE
  8
_0-0_計極細
  6
CONTINUOUS
 62
    2
 10
1077.4337497838669
 20
523.19365693033808
 11
1077.4337497838669
 21
517.19365693033762
  0
LINE
  8
_0-0_計極細
  6
CONTINUOUS
 62
    2
 10
1072.4337497838669
 20
517.19365693033762
 11
1072.4337497838669
 21
523.19365693033808
  0
LINE
  8
_0-1_計細線
  6
CONTINUOUS
 62
    3
 10
478.43374978386692
 20
503.19365693033808
 11
478.43374978386692
 21
495.19365693033814
  0
LINE
  8
_0-1_計細線
  6
CONTINUOUS
 62
    3
 10
478.43374978386692
 20
495.19365693033814
 11
971.43374978386703
 21
495.19365693033814
  0
LINE
  8
_0-1_計細線
  6
CONTINUOUS
 62
    3
 10
971.43374978386703
 20
495.19365693033814
 11
971.43374978386703
 21
503.19365693033808
  0
LINE
  8
_0-1_計細線
  6
CONTINUOUS
 62
    3
 10
971.43374978386703
 20
503.19365693033808
 11
478.43374978386692
 21
503.19365693033808
  0
LINE
  8
_0-0_計極細
  6
CONTINUOUS
 62
    2
 10
577.43374978386692
 20
509.19365693033768
 11
577.43374978386692
 21
503.19365693033768
  0
LINE
  8
_0-0_計極細
  6
CONTINUOUS
 62
    2
 10
572.43374978386692
 20
503.19365693033717
 11
572.43374978386692
 21
509.19365693033768
  0
LINE
  8
_0-0_計極細
  6
CONTINUOUS
 62
    2
 10
677.43374978386692
 20
509.19365693033768
 11
677.43374978386692
 21
503.19365693033768
  0
LINE
  8
_0-0_計極細
  6
CONTINUOUS
 62
    2
 10
672.43374978386692
 20
503.19365693033717
 11
672.43374978386692
 21
509.19365693033768
  0
LINE
  8
_0-0_計極細
  6
CONTINUOUS
 62
    2
 10
777.43374978386692
 20
509.19365693033768
 11
777.43374978386692
 21
503.19365693033768
  0
LINE
  8
_0-0_計極細
  6
CONTINUOUS
 62
    2
 10
772.43374978386692
 20
503.19365693033717
 11
772.43374978386692
 21
509.19365693033768
  0
LINE
  8
_0-0_計極細
  6
CONTINUOUS
 62
    2
 10
877.43374978386692
 20
509.19365693033768
 11
877.43374978386692
 21
503.19365693033768
  0
LINE
  8
_0-0_計極細
  6
CONTINUOUS
 62
    2
 10
872.43374978386692
 20
503.19365693033717
 11
872.43374978386692
 21
509.19365693033768
  0
LINE
  8
_0-0_計極細
  6
CONTINUOUS
 62
    2
 10
377.43374978386692
 20
509.19365693033768
 11
377.43374978386692
 21
503.19365693033768
  0
LINE
  8
_0-0_計極細
  6
CONTINUOUS
 62
    2
 10
372.43374978386692
 20
503.19365693033717
 11
372.43374978386692
 21
509.19365693033768
  0
LINE
  8
_0-1_計細線
  6
CONTINUOUS
 62
    3
 10
471.43374978386737
 20
495.19365693033814
 11
324.8953907759319
 21
495.19365693033814
  0
LINE
  8
_0-0_計極細
  6
CONTINUOUS
 62
    2
 10
1077.4337497838669
 20
509.19365693033808
 11
1077.4337497838669
 21
503.19365693033768
  0
LINE
  8
_0-0_計極細
  6
CONTINUOUS
 62
    2
 10
1072.4337497838669
 20
503.19365693033768
 11
1072.4337497838669
 21
509.19365693033808
  0
LINE
  8
_0-1_計細線
  6
CONTINUOUS
 62
    3
 10
978.43374978386692
 20
495.19365693033853
 11
1124.998890090199
 21
495.19365693033853
  0
LINE
  8
_0-1_計細線
  6
CONTINUOUS
 62
    3
 10
326.60164199436531
 20
503.19365693033808
 11
471.43374978386737
 21
503.19365693033808
  0
LINE
  8
_0-1_計細線
  6
CONTINUOUS
 62
    3
 10
1131.8177699190501
 20
755.19365693033865
 11
978.43374978386692
 21
755.19365693033865
  0
LINE
  8
_0-1_計細線
  6
CONTINUOUS
 62
    3
 10
978.43374978386692
 20
747.19365693033853
 11
1132.7421607419228
 21
747.19365693033853
  0
LINE
  8
_0-1_計細線
  6
CONTINUOUS
 62
    3
 10
1133.3129668224092
 20
741.19365693033853
 11
978.43374978386692
 21
741.19365693033853
  0
LINE
  8
_0-1_計細線
  6
CONTINUOUS
 62
    3
 10
978.43374978386692
 20
733.19365693033865
 11
1133.8875213349743
 21
733.19365693033865
  0
LINE
  8
_0-1_計細線
  6
CONTINUOUS
 62
    3
 10
1134.1345008826893
 20
727.19365693033808
 11
978.43374978386692
 21
727.19365693033808
  0
LINE
  8
_0-1_計細線
  6
CONTINUOUS
 62
    3
 10
978.43374978386692
 20
719.19365693033853
 11
1134.2254328770714
 21
719.19365693033853
  0
LINE
  8
_0-1_計細線
  6
CONTINUOUS
 62
    3
 10
1134.0899534897362
 20
713.19365693033819
 11
978.43374978386692
 21
713.19365693033819
  0
LINE
  8
_0-1_計細線
  6
CONTINUOUS
 62
    3
 10
978.43374978386692
 20
705.19365693033865
 11
1133.6564181668823
 21
705.19365693033865
  0
LINE
  8
_0-1_計細線
  6
CONTINUOUS
 62
    3
 10
1133.1730746386111
 20
699.19365693033808
 11
978.43374978386692
 21
699.19365693033808
  0
LINE
  8
_0-1_計細線
  6
CONTINUOUS
 62
    3
 10
978.43374978386692
 20
691.19365693033853
 11
1132.3245358277259
 21
691.19365693033853
  0
LINE
  8
_0-1_計細線
  6
CONTINUOUS
 62
    3
 10
1131.5627234347739
 20
685.19365693033808
 11
978.43374978386692
 21
685.19365693033808
  0
LINE
  8
_0-1_計細線
  6
CONTINUOUS
 62
    3
 10
978.43374978386692
 20
677.19365693033853
 11
1130.3975290092744
 21
677.19365693033853
  0
LINE
  8
_0-1_計細線
  6
CONTINUOUS
 62
    3
 10
1129.4366084292756
 20
671.19365693033819
 11
978.43374978386692
 21
671.19365693033819
  0
LINE
  8
_0-1_計細線
  6
CONTINUOUS
 62
    3
 10
978.43374978386692
 20
663.19365693033865
 11
1128.0654981581561
 21
663.19365693033865
  0
LINE
  8
_0-1_計細線
  6
CONTINUOUS
 62
    3
 10
1126.9805574778875
 20
657.19365693033808
 11
978.43374978386692
 21
657.19365693033808
  0
LINE
  8
_0-1_計細線
  6
CONTINUOUS
 62
    3
 10
978.43374978386692
 20
649.19365693033853
 11
1125.4959700112327
 21
649.19365693033853
  0
LINE
  8
_0-1_計細線
  6
CONTINUOUS
 62
    3
 10
1124.3715295565016
 20
643.19365693033819
 11
978.43374978386692
 21
643.19365693033819
  0
LINE
  8
_0-1_計細線
  6
CONTINUOUS
 62
    3
 10
978.43374978386692
 20
635.19365693033853
 11
1122.8869420898473
 21
635.19365693033853
  0
LINE
  8
_0-1_計細線
  6
CONTINUOUS
 62
    3
 10
1121.8020014095787
 20
629.19365693033808
 11
978.43374978386692
 21
629.19365693033808
  0
LINE
  8
_0-1_計細線
  6
CONTINUOUS
 62
    3
 10
978.43374978386692
 20
621.19365693033853
 11
1120.4308911384587
 21
621.19365693033853
  0
LINE
  8
_0-1_計細線
  6
CONTINUOUS
 62
    3
 10
1119.4699705584599
 20
615.19365693033808
 11
978.43374978386692
 21
615.19365693033808
  0
LINE
  8
_0-1_計細線
  6
CONTINUOUS
 62
    3
 10
978.43374978386692
 20
607.19365693033853
 11
1118.3450710058878
 21
607.19365693033853
  0
LINE
  8
_0-1_計細線
  6
CONTINUOUS
 62
    3
 10
1117.5429637400084
 20
601.19365693033819
 11
978.43374978386692
 21
601.19365693033819
  0
LINE
  8
_0-1_計細線
  6
CONTINUOUS
 62
    3
 10
978.43374978386692
 20
593.19365693033865
 11
1116.6944249291232
 21
593.19365693033865
  0
LINE
  8
_0-1_計細線
  6
CONTINUOUS
 62
    3
 10
1116.211081400852
 20
587.19365693033808
 11
978.43374978386692
 21
587.19365693033808
  0
LINE
  8
_0-1_計細線
  6
CONTINUOUS
 62
    3
 10
978.43374978386692
 20
579.19365693033853
 11
1115.7775460779976
 21
579.19365693033853
  0
LINE
  8
_0-1_計細線
  6
CONTINUOUS
 62
    3
 10
1115.6420666906629
 20
573.19365693033808
 11
978.43374978386692
 21
573.19365693033808
  0
LINE
  8
_0-1_計細線
  6
CONTINUOUS
 62
    3
 10
978.43374978386692
 20
565.19365693033853
 11
1115.7329986850445
 21
565.19365693033853
  0
LINE
  8
_0-1_計細線
  6
CONTINUOUS
 62
    3
 10
1115.9799782327595
 20
559.19365693033808
 11
978.43374978386692
 21
559.19365693033808
  0
LINE
  8
_0-1_計細線
  6
CONTINUOUS
 62
    3
 10
978.43374978386692
 20
551.19365693033853
 11
1116.5545327453247
 21
551.19365693033853
  0
LINE
  8
_0-1_計細線
  6
CONTINUOUS
 62
    3
 10
1117.125338825811
 20
545.19365693033808
 11
978.43374978386692
 21
545.19365693033808
  0
LINE
  8
_0-1_計細線
  6
CONTINUOUS
 62
    3
 10
978.43374978386692
 20
537.19365693033853
 11
1118.0497296486838
 21
537.19365693033853
  0
LINE
  8
_0-1_計細線
  6
CONTINUOUS
 62
    3
 10
1118.8620187470788
 20
531.19365693033819
 11
978.43374978386692
 21
531.19365693033819
  0
LINE
  8
_0-1_計細線
  6
CONTINUOUS
 62
    3
 10
978.43374978386692
 20
523.19365693033865
 11
1120.0638851788467
 21
523.19365693033865
  0
LINE
  8
_0-1_計細線
  6
CONTINUOUS
 62
    3
 10
1121.0397987054935
 20
517.19365693033808
 11
978.43374978386692
 21
517.19365693033808
  0
LINE
  8
_0-1_計細線
  6
CONTINUOUS
 62
    3
 10
978.43374978386692
 20
509.19365693033853
 11
1122.4153806671534
 21
509.19365693033853
  0
LINE
  8
_0-1_計細線
  6
CONTINUOUS
 62
    3
 10
1123.4825768124697
 20
503.19365693033808
 11
978.43374978386692
 21
503.19365693033808
  0
LINE
  8
_0-1_計細線
  6
CONTINUOUS
 62
    3
 10
471.43374978386737
 20
747.19365693033853
 11
317.12533882581147
 21
747.19365693033853
  0
LINE
  8
_0-1_計細線
  6
CONTINUOUS
 62
    3
 10
316.5545327453251
 20
741.19365693033819
 11
471.43374978386737
 21
741.19365693033819
  0
LINE
  8
_0-1_計細線
  6
CONTINUOUS
 62
    3
 10
471.43374978386737
 20
733.19365693033865
 11
315.97997823275961
 21
733.19365693033865
  0
LINE
  8
_0-1_計細線
  6
CONTINUOUS
 62
    3
 10
315.73299868504506
 20
727.19365693033808
 11
471.43374978386737
 21
727.19365693033808
  0
LINE
  8
_0-1_計細線
  6
CONTINUOUS
 62
    3
 10
471.43374978386737
 20
719.19365693033808
 11
315.64206669066294
 21
719.19365693033808
  0
LINE
  8
_0-1_計細線
  6
CONTINUOUS
 62
    3
 10
315.77754607799761
 20
713.19365693033819
 11
471.43374978386737
 21
713.19365693033819
  0
LINE
  8
_0-1_計細線
  6
CONTINUOUS
 62
    3
 10
471.43374978386737
 20
705.19365693033808
 11
316.21108140085175
 21
705.19365693033808
  0
LINE
  8
_0-1_計細線
  6
CONTINUOUS
 62
    3
 10
316.69442492912322
 20
699.19365693033808
 11
471.43374978386737
 21
699.19365693033808
  0
LINE
  8
_0-1_計細線
  6
CONTINUOUS
 62
    3
 10
471.43374978386737
 20
691.19365693033819
 11
317.54296374000802
 21
691.19365693033819
  0
LINE
  8
_0-1_計細線
  6
CONTINUOUS
 62
    3
 10
318.3047761329604
 20
685.19365693033808
 11
471.43374978386737
 21
685.19365693033808
  0
LINE
  8
_0-1_計細線
  6
CONTINUOUS
 62
    3
 10
471.43374978386737
 20
677.19365693033808
 11
319.46997055845941
 21
677.19365693033808
  0
LINE
  8
_0-1_計細線
  6
CONTINUOUS
 62
    3
 10
320.43089113845832
 20
671.19365693033819
 11
471.43374978386737
 21
671.19365693033819
  0
LINE
  8
_0-1_計細線
  6
CONTINUOUS
 62
    3
 10
471.43374978386737
 20
663.19365693033819
 11
321.44083964499941
 21
663.19365693033819
  0
LINE
  8
_0-1_計細線
  6
CONTINUOUS
 62
    3
 10
322.8869420898468
 20
657.19365693033808
 11
471.43374978386737
 21
657.19365693033808
  0
LINE
  8
_0-1_計細線
  6
CONTINUOUS
 62
    3
 10
471.43374978386737
 20
649.19365693033808
 11
324.37152955650117
 21
649.19365693033808
  0
LINE
  8
_0-1_計細線
  6
CONTINUOUS
 62
    3
 10
325.49597001123226
 20
643.19365693033819
 11
471.43374978386737
 21
643.19365693033819
  0
LINE
  8
_0-1_計細線
  6
CONTINUOUS
 62
    3
 10
471.43374978386737
 20
635.19365693033808
 11
326.98055747788709
 21
635.19365693033808
  0
LINE
  8
_0-1_計細線
  6
CONTINUOUS
 62
    3
 10
328.06549815815566
 20
629.19365693033808
 11
471.43374978386737
 21
629.19365693033808
  0
LINE
  8
_0-1_計細線
  6
CONTINUOUS
 62
    3
 10
471.43374978386737
 20
621.19365693033819
 11
329.43660842927557
 21
621.19365693033819
  0
LINE
  8
_0-1_計細線
  6
CONTINUOUS
 62
    3
 10
330.39752900927448
 20
615.19365693033808
 11
471.43374978386737
 21
615.19365693033808
  0
LINE
  8
_0-1_計細線
  6
CONTINUOUS
 62
    3
 10
471.43374978386737
 20
607.19365693033808
 11
331.56272343477349
 21
607.19365693033808
  0
LINE
  8
_0-1_計細線
  6
CONTINUOUS
 62
    3
 10
332.32453582772587
 20
601.19365693033819
 11
471.43374978386737
 21
601.19365693033819
  0
LINE
  8
_0-1_計細線
  6
CONTINUOUS
 62
    3
 10
471.43374978386737
 20
593.19365693033808
 11
333.17307463861107
 21
593.19365693033808
  0
LINE
  8
_0-1_計細線
  6
CONTINUOUS
 62
    3
 10
333.6564181668823
 20
587.19365693033808
 11
471.43374978386737
 21
587.19365693033808
  0
LINE
  8
_0-1_計細線
  6
CONTINUOUS
 62
    3
 10
471.43374978386737
 20
579.19365693033808
 11
334.08995348973627
 21
579.19365693033808
  0
LINE
  8
_0-1_計細線
  6
CONTINUOUS
 62
    3
 10
334.22543287707094
 20
573.19365693033808
 11
471.43374978386737
 21
573.19365693033808
  0
LINE
  8
_0-1_計細線
  6
CONTINUOUS
 62
    3
 10
471.43374978386737
 20
565.19365693033808
 11
334.13450088268928
 21
565.19365693033808
  0
LINE
  8
_0-1_計細線
  6
CONTINUOUS
 62
    3
 10
333.88752133497428
 20
559.19365693033808
 11
471.43374978386737
 21
559.19365693033808
  0
LINE
  8
_0-1_計細線
  6
CONTINUOUS
 62
    3
 10
471.43374978386737
 20
551.19365693033819
 11
333.31296682240969
 21
551.19365693033819
  0
LINE
  8
_0-1_計細線
  6
CONTINUOUS
 62
    3
 10
332.74216074192282
 20
545.19365693033808
 11
471.43374978386737
 21
545.19365693033808
  0
LINE
  8
_0-1_計細線
  6
CONTINUOUS
 62
    3
 10
471.43374978386737
 20
537.19365693033808
 11
331.81776991905053
 21
537.19365693033808
  0
LINE
  8
_0-1_計細線
  6
CONTINUOUS
 62
    3
 10
331.00548082065507
 20
531.19365693033819
 11
471.43374978386737
 21
531.19365693033819
  0
LINE
  8
_0-1_計細線
  6
CONTINUOUS
 62
    3
 10
471.43374978386737
 20
523.19365693033808
 11
329.80361438888758
 21
523.19365693033808
  0
LINE
  8
_0-1_計細線
  6
CONTINUOUS
 62
    3
 10
328.82770086224036
 20
517.19365693033808
 11
471.43374978386737
 21
517.19365693033808
  0
LINE
  8
_0-1_計細線
  6
CONTINUOUS
 62
    3
 10
471.43374978386737
 20
509.19365693033808
 11
327.45211890058044
 21
509.19365693033808
  0
TEXT
  8
_0-5_寸法線
 62
    7
 10
593.67073217880852
 20
434.67813740263381
 40
15
 41
0.8000000000000001
 50
0
  1
ＧＳＬ－２０
  0
TEXT
  8
_0-5_寸法線
 62
    7
 10
813.27081851323283
 20
434.67813740263381
 40
15
 41
0.8000000000000001
 50
0
  1
ＧＳＴ－２０Ｗ３０２
  0
TEXT
  8
_0-7_枠細線
 62
    5
 10
422.40020943573489
 20
121.56774102292232
 40
25
 41
0.8
 50
0
  1
断面詳細図
  0
TEXT
  8
_0-7_枠細線
 62
    5
 10
545.87584585156924
 20
124.03394087318873
 40
20
 41
0.6
 50
0
  1
Ｓ＝１：３
  0
LINE
  8
_0-5_寸法線
  6
CONTINUOUS
 62
    7
 10
1176.9337497838696
 20
490.19365693033672
 11
1221.9337497838696
 21
490.19365693033649
  0
LINE
  8
_0-5_寸法線
  6
CONTINUOUS
 62
    7
 10
1216.9337497838696
 20
490.19365693033649
 11
1219.5219402348948
 21
480.53439866744583
  0
LINE
  8
_0-5_寸法線
  6
CONTINUOUS
 62
    7
 10
1216.9337497838696
 20
490.19365693033649
 11
1214.3455593328445
 21
480.53439866744583
  0
LINE
  8
_0-5_寸法線
  6
CONTINUOUS
 62
    7
 10
1176.9337497838696
 20
493.19365693033808
 11
1221.9337497838696
 21
493.19365693033808
  0
CIRCLE
  8
_0-5_寸法線
  6
CONTINUOUS
 62
    1
 10
1216.9337497838696
 20
493.19365693033808
 40
1.5000000000000002
  0
LINE
  8
_0-5_寸法線
  6
CONTINUOUS
 62
    7
 10
1216.9337497838696
 20
465.19365693033649
 11
1216.9337497838696
 21
493.19365693033808
  0
TEXT
  8
_0-5_寸法線
 62
    7
 10
1216.9337497838696
 20
468.99312588831242
 40
15
 41
1
 50
90
  1
3
  0
LINE
  8
_0-5_寸法線
  6
CONTINUOUS
 62
    7
 10
1176.9337497838696
 20
495.19365693033785
 11
1221.9337497838696
 21
495.19365693033762
  0
LINE
  8
_0-5_寸法線
  6
CONTINUOUS
 62
    7
 10
1216.9337497838696
 20
493.19365693033808
 11
1216.9337497838696
 21
495.19365693033762
  0
TEXT
  8
_0-5_寸法線
 62
    7
 10
1235.5381002323209
 20
493.19365693033808
 40
15
 41
1
 50
90
  1
2
  0
LINE
  8
_0-5_寸法線
  6
CONTINUOUS
 62
    7
 10
1216.9337497838696
 20
495.19365693033762
 11
1214.3455593328445
 21
504.85291519322828
  0
LINE
  8
_0-5_寸法線
  6
CONTINUOUS
 62
    7
 10
1216.9337497838696
 20
495.19365693033762
 11
1219.5219402348948
 21
504.85291519322828
  0
LINE
  8
_0-5_寸法線
  6
CONTINUOUS
 62
    7
 10
1176.9337497838696
 20
797.19365693033797
 11
1221.9337497838696
 21
797.19365693033762
  0
LINE
  8
_0-5_寸法線
  6
CONTINUOUS
 62
    7
 10
1216.9337497838696
 20
797.19365693033762
 11
1219.5219402348948
 21
787.53439866744702
  0
LINE
  8
_0-5_寸法線
  6
CONTINUOUS
 62
    7
 10
1216.9337497838696
 20
797.19365693033762
 11
1214.3455593328445
 21
787.53439866744702
  0
LINE
  8
_0-5_寸法線
  6
CONTINUOUS
 62
    7
 10
1216.9337497838696
 20
495.19365693033762
 11
1216.9337497838696
 21
797.19365693033762
  0
TEXT
  8
_0-5_寸法線
 62
    7
 10
1216.9337497838696
 20
634.94365693033762
 40
15
 41
1
 50
90
  1
302
  0
LINE
  8
_0-5_寸法線
  6
CONTINUOUS
 62
    7
 10
1176.9337497838696
 20
799.19365693033808
 11
1221.9337497838696
 21
799.19365693033797
  0
CIRCLE
  8
_0-5_寸法線
  6
CONTINUOUS
 62
    1
 10
1216.9337497838696
 20
799.19365693033797
 40
1.5000000000000002
  0
LINE
  8
_0-5_寸法線
  6
CONTINUOUS
 62
    7
 10
1216.9337497838696
 20
797.19365693033762
 11
1216.9337497838696
 21
799.19365693033797
  0
TEXT
  8
_0-5_寸法線
 62
    7
 10
1235.3322029917354
 20
791.69365693033808
 40
15
 41
1
 50
90
  1
2
  0
LINE
  8
_0-5_寸法線
  6
CONTINUOUS
 62
    7
 10
1176.9337497838696
 20
802.19365693033683
 11
1221.9337497838696
 21
802.19365693033649
  0
LINE
  8
_0-5_寸法線
  6
CONTINUOUS
 62
    7
 10
1216.9337497838696
 20
802.19365693033649
 11
1214.3455593328445
 21
811.85291519322732
  0
LINE
  8
_0-5_寸法線
  6
CONTINUOUS
 62
    7
 10
1216.9337497838696
 20
802.19365693033649
 11
1219.5219402348948
 21
811.85291519322732
  0
LINE
  8
_0-5_寸法線
  6
CONTINUOUS
 62
    7
 10
1216.9337497838696
 20
799.19365693033797
 11
1216.9337497838696
 21
827.19365693033649
  0
TEXT
  8
_0-5_寸法線
 62
    7
 10
1216.9337497838696
 20
818.65161501837417
 40
15
 41
1
 50
90
  1
3
  0
LINE
  8
_0-d_寸法3
  6
CONTINUOUS
 62
    7
 10
210.4306597701725
 20
371.56810435625584
 11
200.77140150728178
 21
368.97991390523066
  0
LINE
  8
_0-d_寸法3
  6
CONTINUOUS
 62
    7
 10
210.4306597701725
 20
371.56810435625584
 11
200.77140150728184
 21
374.15629480728109
  0
LINE
  8
_0-d_寸法3
  6
CONTINUOUS
 62
    7
 10
215.4306597701725
 20
300.73477269126693
 11
215.4306597701725
 21
376.56810435625584
  0
CIRCLE
  8
_0-d_寸法3
  6
CONTINUOUS
 62
    1
 10
215.4306597701725
 20
371.56810435625584
 40
1.5000000000000002
  0
LINE
  8
_0-d_寸法3
  6
CONTINUOUS
 62
    7
 10
185.4306597701725
 20
371.56810435625584
 11
215.4306597701725
 21
371.56810435625584
  0
TEXT
  8
_0-d_寸法3
 62
    7
 10
189.28599182624922
 20
371.56810435625584
 40
15
 41
1
 50
0
  1
3
  0
LINE
  8
_0-d_寸法3
  6
CONTINUOUS
 62
    7
 10
218.7639931035055
 20
298.23477102292259
 11
218.76399310350592
 21
376.56810435625584
  0
LINE
  8
_0-d_寸法3
  6
CONTINUOUS
 62
    7
 10
215.4306597701725
 20
371.56810435625584
 11
218.76399310350592
 21
371.56810435625584
  0
TEXT
  8
_0-d_寸法3
 62
    7
 10
213.34732643683893
 20
371.56810435625584
 40
15
 41
1
 50
0
  1
2
  0
LINE
  8
_0-d_寸法3
  6
CONTINUOUS
 62
    7
 10
218.76399310350592
 20
371.56810435625584
 11
228.42325136639658
 21
374.15629480728109
  0
LINE
  8
_0-d_寸法3
  6
CONTINUOUS
 62
    7
 10
218.76399310350592
 20
371.56810435625584
 11
228.42325136639658
 21
368.97991390523066
  0
LINE
  8
_0-d_寸法3
  6
CONTINUOUS
 62
    7
 10
722.09732643683901
 20
298.23477102292259
 11
722.09732643683901
 21
376.56810435625584
  0
LINE
  8
_0-d_寸法3
  6
CONTINUOUS
 62
    7
 10
722.09732643683901
 20
371.56810435625584
 11
712.4380681739483
 21
368.97991390523066
  0
LINE
  8
_0-d_寸法3
  6
CONTINUOUS
 62
    7
 10
722.09732643683901
 20
371.56810435625584
 11
712.4380681739483
 21
374.15629480728109
  0
LINE
  8
_0-d_寸法3
  6
CONTINUOUS
 62
    7
 10
218.76399310350592
 20
371.56810435625584
 11
722.09732643683901
 21
371.56810435625584
  0
TEXT
  8
_0-d_寸法3
 62
    7
 10
459.1806597701725
 20
371.56810435625584
 40
15
 41
1
 50
0
  1
302
  0
LINE
  8
_0-d_寸法3
  6
CONTINUOUS
 62
    7
 10
725.43065977017204
 20
300.73477269126693
 11
725.4306597701725
 21
376.56810435625584
  0
CIRCLE
  8
_0-d_寸法3
  6
CONTINUOUS
 62
    1
 10
725.4306597701725
 20
371.56810435625584
 40
1.5000000000000002
  0
LINE
  8
_0-d_寸法3
  6
CONTINUOUS
 62
    7
 10
722.09732643683901
 20
371.56810435625584
 11
725.4306597701725
 21
371.56810435625584
  0
TEXT
  8
_0-d_寸法3
 62
    7
 10
720.01399310350553
 20
371.56810435625584
 40
15
 41
1
 50
0
  1
2
  0
LINE
  8
_0-d_寸法3
  6
CONTINUOUS
 62
    7
 10
730.4306597701725
 20
371.56810435625584
 11
740.08991803306333
 21
374.15629480728103
  0
LINE
  8
_0-d_寸法3
  6
CONTINUOUS
 62
    7
 10
730.4306597701725
 20
371.56810435625584
 11
740.08991803306333
 21
368.9799139052306
  0
LINE
  8
_0-d_寸法3
  6
CONTINUOUS
 62
    7
 10
725.4306597701725
 20
371.56810435625584
 11
755.4306597701725
 21
371.56810435625584
  0
TEXT
  8
_0-d_寸法3
 62
    7
 10
743.07457807919945
 20
371.56810435625584
 40
15
 41
1
 50
0
  1
3
  0
ENDSEC
  0
EOF
