  0
SECTION
  2
HEADER
  9
$ACADVER
  1
AC1009
  9
$INSBASE
 10
0
 20
0
 30
0
  9
$EXTMIN
 10
0
 20
0
  9
$EXTMAX
 10
1485
 20
1050
  9
$LIMMIN
 10
0
 20
0
  9
$LIMMAX
 10
1485
 20
1050
  9
$LTSCALE
 40
5
  0
ENDSEC
  0
SECTION
  2
TABLES
  0
TABLE
  2
LTYPE
 70
     9
  0
LTYPE
  2
CONTINUOUS
 70
    64
  3
実線
 72
    65
 73
     0
 40
0.0
  0
LTYPE
  2
DASHED1
 70
    64
  3
--  --  --  --  --  --  --  --  
 72
    65
 73
     2
 40
2.5
 49
1.25
 49
-1.25
  0
LTYPE
  2
DASHED2
 70
    64
  3
----    ----    ----    ----    
 72
    65
 73
     2
 40
5.0
 49
2.5
 49
-2.5
  0
LTYPE
  2
DASHED3
 70
    64
  3
------  ------  ------  ------  
 72
    65
 73
     2
 40
5.0
 49
3.75
 49
-1.25
  0
LTYPE
  2
CENTER1
 70
    64
  3
----- - ----- - ----- - ----- - 
 72
    65
 73
     4
 40
10.0
 49
6.25
 49
-1.25
 49
1.25
 49
-1.25
  0
LTYPE
  2
CENTER2
 70
    64
  3
----------  --  ----------  --  
 72
    65
 73
     4
 40
20.0
 49
12.5
 49
-2.5
 49
2.5
 49
-2.5
  0
LTYPE
  2
PHANTOM1
 70
    64
  3
--- - - --- - - --- - - --- - - 
 72
    65
 73
     6
 40
10.0
 49
3.25
 49
-1.25
 49
1.25
 49
-1.25
 49
1.25
 49
-1.25
  0
LTYPE
  2
PHANTOM2
 70
    64
  3
--------  -  -  --------  -  -  
 72
    65
 73
     6
 40
20.0
 49
10.0
 49
-2.5
 49
1.25
 49
-2.5
 49
1.25
 49
-2.5
  0
LTYPE
  2
DOT
 70
    64
  3
-   -   -   -   -   -   -   -   
 72
    65
 73
     2
 40
2.5
 49
0.625
 49
-1.875
  0
LTYPE
  2
DUMMY
 70
    64
  3
ダミー
 72
    65
 73
     0
 40
0.0
  0
LTYPE
  2
RAND1
 70
    64
  3
ランダム線1
 72
    65
 73
     4
 40
10.0
 49
1.0
 49
-2.0
 49
3.0
 49
-4.0
  0
LTYPE
  2
RAND2
 70
    64
  3
ランダム線2
 72
    65
 73
     4
 40
14.0
 49
2.0
 49
-3.0
 49
4.0
 49
-5.0
  0
LTYPE
  2
RAND3
 70
    64
  3
ランダム線3
 72
    65
 73
     4
 40
18.0
 49
3.0
 49
-4.0
 49
5.0
 49
-6.0
  0
LTYPE
  2
RAND4
 70
    64
  3
ランダム線4
 72
    65
 73
     4
 40
22.0
 49
4.0
 49
-5.0
 49
6.0
 49
-7.0
  0
LTYPE
  2
RAND5
 70
    64
  3
ランダム線5
 72
    65
 73
     4
 40
26.0
 49
5.0
 49
-6.0
 49
7.0
 49
-8.0
  0
LTYPE
  2
LONG1
 70
    64
  3
----------  --  ----------  --  
 72
    65
 73
     4
 40
40.0
 49
32.5
 49
-2.5
 49
2.5
 49
-2.5
  0
LTYPE
  2
LONG2
 70
    64
  3
--------  -  -  --------  -  -  
 72
    65
 73
     6
 40
40.0
 49
30.0
 49
-2.5
 49
1.25
 49
-2.5
 49
1.25
 49
-2.5
  0
LTYPE
  2
LONG3
 70
    64
  3
+++++++++++++++..+++++++++++++++
 72
    65
 73
     2
 40
40.0
 49
37.5
 49
-2.5
  0
LTYPE
  2
LONG4
 70
    64
  3
+++++++++++++++..+++++++++++++++
 72
    65
 73
     2
 40
80.0
 49
75.0
 49
-5.0
  0
LTYPE
  2
LONG5
 70
    64
  3
----------  --  ----------  --  
 72
    65
 73
     4
 40
60.0
 49
37.5
 49
-7.5
 49
7.5
 49
-7.5
  0
LTYPE
  2
dashed
 70
   64
  3
-------   -------------   ------
 72
   65
 73
    2
 40
7.5
 49
6
 49
-1.5
  0
LTYPE
  2
dashed_spaced
 70
   64
  3
----        --------        ----
 72
   65
 73
    2
 40
12
 49
6
 49
-6
  0
LTYPE
  2
long_dashed_dotted
 70
   64
  3
------------- --- --------------
 72
   65
 73
    4
 40
15.25
 49
12
 49
-1.5
 49
0.25
 49
-1.5
  0
LTYPE
  2
long_dashed_double-dotted
 70
   64
  3
----------- --- --- ------------
 72
   65
 73
    6
 40
17
 49
12
 49
-1.5
 49
0.25
 49
-1.5
 49
0.25
 49
-1.5
  0
LTYPE
  2
long_dashed_triplicate-dotted
 70
   64
  3
--------- --- --- --- ----------
 72
   65
 73
    8
 40
18.75
 49
12
 49
-1.5
 49
0.25
 49
-1.5
 49
0.25
 49
-1.5
 49
0.25
 49
-1.5
  0
LTYPE
  2
dotted
 70
   64
  3
   -       -       -       -    
 72
   65
 73
    2
 40
1.75
 49
0.25
 49
-1.5
  0
LTYPE
  2
chain
 70
   64
  3
-------------- -- --------------
 72
   65
 73
    4
 40
18.5
 49
12
 49
-1.5
 49
3.5
 49
-1.5
  0
LTYPE
  2
chain_double_dash
 70
   64
  3
------------ -- -- -------------
 72
   65
 73
    6
 40
23.5
 49
12
 49
-1.5
 49
3.5
 49
-1.5
 49
3.5
 49
-1.5
  0
LTYPE
  2
dashed_dotted
 70
   64
  3
-----------     -     ----------
 72
   65
 73
    4
 40
9.25
 49
6
 49
-1.5
 49
0.25
 49
-1.5
  0
LTYPE
  2
double-dashed_dotted
 70
   64
  3
------   -----------   -   -----
 72
   65
 73
    6
 40
16.75
 49
6
 49
-1.5
 49
6
 49
-1.5
 49
0.25
 49
-1.5
  0
LTYPE
  2
dashed_double-dotted
 70
   64
  3
---------    -    -    ---------
 72
   65
 73
    6
 40
11
 49
6
 49
-1.5
 49
0.25
 49
-1.5
 49
0.25
 49
-1.5
  0
LTYPE
  2
double-dashed_double-dotted
 70
   64
  3
-----   ---------   -   -   ----
 72
   65
 73
    8
 40
18.5
 49
6
 49
-1.5
 49
6
 49
-1.5
 49
0.25
 49
-1.5
 49
0.25
 49
-1.5
  0
LTYPE
  2
dashed_triplicate-dotted
 70
   64
  3
-------    -    -    -    ------
 72
   65
 73
    8
 40
12.75
 49
6
 49
-1.5
 49
0.25
 49
-1.5
 49
0.25
 49
-1.5
 49
0.25
 49
-1.5
  0
LTYPE
  2
double-dashed_triplicate-dotted
 70
   64
  3
-----  ---------  -  -  -  -----
 72
   65
 73
   10
 40
20.25
 49
6
 49
-1.5
 49
6
 49
-1.5
 49
0.25
 49
-1.5
 49
0.25
 49
-1.5
 49
0.25
 49
-1.5
  0
LTYPE
  2
undefined
 70
   64
  3
--------------------------------
 72
   65
 73
    0
 40
0
  0
ENDTAB
  0
TABLE
  2
STYLE
  5
3
100
AcDbSymbolTable
 70
     1
  0
STYLE
  5
10
100
AcDbSymbolTableRecord
100
AcDbTextStyleTableRecord
  2
STANDARD
 70
     0
 40
0.0
 41
1.0
 50
0.0
 71
     0
 42
0.2
  3
txt
  4
bigfont.shx
  0
STYLE
  5
26
100
AcDbSymbolTableRecord
100
AcDbTextStyleTableRecord
  2
TATEGAKI
 70
    68
 40
0.0
 41
1.0
 50
0.0
 71
     0
 42
1.0
  3
txt
  4
bigfont.shx
  0
ENDTAB
  0
TABLE
  2
LAYER
 70
   10
  0
LAYER
  2
_0-0_計極細
 70
   64
 62
    7
  6
CONTINUOUS
  0
LAYER
  2
_0-1_計細線
 70
   64
 62
    7
  6
CONTINUOUS
  0
LAYER
  2
_0-5_寸法線
 70
   64
 62
    7
  6
CONTINUOUS
  0
LAYER
  2
_0-7_枠細線
 70
   64
 62
    7
  6
CONTINUOUS
  0
LAYER
  2
_0-8_枠中線
 70
   64
 62
    7
  6
CONTINUOUS
  0
LAYER
  2
_0-9_枠極太
 70
   64
 62
    7
  6
CONTINUOUS
  0
LAYER
  2
_0-a_極細3
 70
   64
 62
    7
  6
CONTINUOUS
  0
LAYER
  2
_0-b_細線3
 70
   64
 62
    7
  6
CONTINUOUS
  0
LAYER
  2
_0-d_寸法3
 70
   64
 62
    7
  6
CONTINUOUS
  0
LAYER
  2
ADD_LINE
 70
   64
 62
    7
  6
CONTINUOUS
  0
ENDTAB
  0
ENDSEC
  0
SECTION
  2
BLOCKS
  0
ENDSEC
  0
SECTION
  2
ENTITIES
  0
LINE
  8
_0-7_枠細線
  6
CONTINUOUS
 62
    5
 10
1425
 20
942.5
 11
890
 21
942.5
  0
TEXT
  8
_0-7_枠細線
 62
    5
 10
895
 20
945
 40
12.5
 41
1
 50
0
  1
記号
  0
TEXT
  8
_0-7_枠細線
 62
    5
 10
996.875
 20
945
 40
12.5
 41
1
 50
0
  1
訂　 正　 記　 事
  0
TEXT
  8
_0-7_枠細線
 62
    5
 10
1181.25
 20
945
 40
12.5
 41
1
 50
0
  1
訂 正 年 月 日
  0
TEXT
  8
_0-7_枠細線
 62
    5
 10
1306.25
 20
945
 40
12.5
 41
1
 50
0
  1
備　　　　　考
  0
LINE
  8
_0-7_枠細線
  6
CONTINUOUS
 62
    5
 10
1185
 20
180
 11
1185
 21
100
  0
TEXT
  8
_0-7_枠細線
 62
    5
 10
937.5
 20
97.5
 40
17.5
 41
1
 50
0
  1
備考
  7
TATEGAKI
  0
TEXT
  8
_0-7_枠細線
 62
    5
 10
937.5
 20
137.5
 40
17.5
 41
1
 50
0
  1
品番
  7
TATEGAKI
  0
TEXT
  8
_0-7_枠細線
 62
    5
 10
937.5
 20
177.5
 40
17.5
 41
1
 50
0
  1
品名
  7
TATEGAKI
  0
LINE
  8
_0-7_枠細線
  6
CONTINUOUS
 62
    5
 10
1185
 20
140
 11
925
 21
140
  0
LINE
  8
_0-7_枠細線
  6
CONTINUOUS
 62
    5
 10
950
 20
180
 11
950
 21
60
  0
LINE
  8
_0-8_枠中線
  6
CONTINUOUS
 62
    5
 10
1425
 20
180
 11
925
 21
180
  0
LINE
  8
_0-8_枠中線
  6
CONTINUOUS
 62
    5
 10
925
 20
180
 11
925
 21
60
  0
LINE
  8
_0-7_枠細線
  6
CONTINUOUS
 62
    5
 10
1245
 20
180
 11
1245
 21
60
  0
TEXT
  8
_0-7_枠細線
 62
    5
 10
1192.5
 20
160
 40
15
 41
1
 50
0
  1
縮　尺
  0
TEXT
  8
_0-7_枠細線
 62
    5
 10
1194
 20
117.5
 40
20
 41
0.7000000000000001
 50
0
  1
１：５
  0
LINE
  8
_0-7_枠細線
  6
CONTINUOUS
 62
    5
 10
1185
 20
155
 11
1245
 21
155
  0
LINE
  8
_0-7_枠細線
  6
CONTINUOUS
 62
    5
 10
1245
 20
100
 11
925
 21
100
  0
LINE
  8
_0-7_枠細線
  6
CONTINUOUS
 62
    5
 10
1425
 20
90
 11
1245
 21
90
  0
LINE
  8
_0-7_枠細線
  6
CONTINUOUS
 62
    5
 10
1245
 20
120
 11
1425
 21
120
  0
LINE
  8
_0-7_枠細線
  6
CONTINUOUS
 62
    5
 10
1425
 20
140
 11
1245
 21
140
  0
TEXT
  8
_0-7_枠細線
 62
    5
 10
1255
 20
147.5
 40
25
 41
0.8
 50
0
  1
株式会社シマブン
  0
TEXT
  8
_0-7_枠細線
 62
    5
 10
1252.5
 20
60
 40
15
 41
1
 50
0
  1
年月日
  0
TEXT
  8
_0-7_枠細線
 62
    5
 10
1252.5
 20
75
 40
15
 41
1
 50
0
  1
作　成
  0
TEXT
  8
_0-7_枠細線
 62
    5
 10
1256.25
 20
122.5
 40
15
 41
1
 50
0
  1
承 認
  0
LINE
  8
_0-7_枠細線
  6
CONTINUOUS
 62
    5
 10
1305
 20
140
 11
1305
 21
60
  0
TEXT
  8
_0-7_枠細線
 62
    5
 10
1316.25
 20
122.5
 40
15
 41
1
 50
0
  1
検 図
  0
LINE
  8
_0-7_枠細線
  6
CONTINUOUS
 62
    5
 10
1365
 20
140
 11
1365
 21
90
  0
TEXT
  8
_0-7_枠細線
 62
    5
 10
1375
 20
95
 40
20
 41
1
 50
0
  1
藤戸
  0
TEXT
  8
_0-7_枠細線
 62
    5
 10
1376.25
 20
122.5
 40
15
 41
1
 50
0
  1
設 計
  0
TEXT
  8
_0-7_枠細線
 62
    5
 10
1255
 20
95
 40
20
 41
1
 50
0
  1
隠塚
  0
TEXT
  8
_0-7_枠細線
 62
    5
 10
1315
 20
95
 40
20
 41
1
 50
0
  1
渋田
  0
TEXT
  8
_0-7_枠細線
 62
    5
 10
965.50000000000011
 20
150
 40
20
 41
0.5
 50
0
  1
Ｔバー ステンレスグレーチング Ｈ２０タイプ
  0
TEXT
  8
_0-7_枠細線
 62
    5
 10
1310
 20
67.5
 40
15
 41
0.6666666666666666
 50
0
  1
２０１２年０２月２９日
  0
LINE
  8
_0-7_枠細線
  6
CONTINUOUS
 62
    5
 10
1425
 20
925
 11
890
 21
925
  0
TEXT
  8
_0-7_枠細線
 62
    5
 10
938.85037037037023
 20
927.5
 40
12.500000000000002
 41
1
 50
0
  1
品番変更
  0
TEXT
  8
_0-7_枠細線
 62
    5
 10
1180
 20
927.5
 40
12.5
 41
0.7199999999999999
 50
0
  1
２０１５．０４．０１
  0
TEXT
  8
_0-7_枠細線
 62
    5
 10
965.50000000000011
 20
110
 40
20
 41
0.6
 50
0
  1
ＧＳＴ－２０Ｗ３４４
  0
TEXT
  8
_0-7_枠細線
 62
    5
 10
965.49999999999966
 20
70
 40
20.000000000000004
 41
0.5999999999999997
 50
0
  1
表面形状については記号表参照のこと
  0
LINE
  8
_0-9_枠極太
  6
CONTINUOUS
 62
    5
 10
60
 20
60
 11
60
 21
960
  0
LINE
  8
_0-9_枠極太
  6
CONTINUOUS
 62
    5
 10
60
 20
960
 11
1425
 21
960
  0
LINE
  8
_0-9_枠極太
  6
CONTINUOUS
 62
    5
 10
1425
 20
960
 11
1425
 21
60
  0
LINE
  8
_0-9_枠極太
  6
CONTINUOUS
 62
    5
 10
1425
 20
60
 11
60
 21
60
  0
LINE
  8
_0-7_枠細線
  6
CONTINUOUS
 62
    5
 10
1409.4018171150183
 20
303.50294361941468
 11
1409.4018171150183
 21
198.50294361941513
  0
TEXT
  8
_0-7_枠細線
 62
    5
 10
1318.4018171150192
 20
283.50294361941468
 40
15.000000000000002
 41
0.8
 50
0
  1
ノンスリップ
  0
TEXT
  8
_0-7_枠細線
 62
    5
 10
1330.4018171150185
 20
258.50294361941474
 40
15.000000000000002
 41
0.8
 50
0
  1
品番－Ｄ
  0
LINE
  8
_0-7_枠細線
  6
CONTINUOUS
 62
    5
 10
1299.4018171150178
 20
303.50294361941468
 11
1299.4018171150178
 21
198.50294361941513
  0
TEXT
  8
_0-7_枠細線
 62
    5
 10
1220.4018171150178
 20
283.50294361941479
 40
15.000000000000002
 41
0.8
 50
0
  1
プレーン
  0
TEXT
  8
_0-7_枠細線
 62
    5
 10
1220.4018171150185
 20
258.50294361941474
 40
15.000000000000002
 41
0.8
 50
0
  1
品番－Ｆ
  0
TEXT
  8
_0-7_枠細線
 62
    5
 10
1140.4018171150183
 20
283.50294361941468
 40
15.000000000000002
 41
0.8
 50
0
  1
タ イ プ
  0
LINE
  8
_0-7_枠細線
  6
CONTINUOUS
 62
    5
 10
1139.4018171150174
 20
253.50294361941476
 11
1409.4018171150183
 21
253.50294361941476
  0
LINE
  8
_0-7_枠細線
  6
CONTINUOUS
 62
    5
 10
1139.4018171150174
 20
278.50294361941468
 11
1409.4018171150183
 21
278.50294361941468
  0
LINE
  8
_0-7_枠細線
  6
CONTINUOUS
 62
    5
 10
1139.4018171150174
 20
303.50294361941468
 11
1409.4018171150183
 21
303.50294361941468
  0
LINE
  8
_0-7_枠細線
  6
CONTINUOUS
 62
    5
 10
1139.4018171150174
 20
198.50294361941513
 11
1409.4018171150183
 21
198.50294361941513
  0
LINE
  8
_0-7_枠細線
  6
CONTINUOUS
 62
    5
 10
1189.4018171150183
 20
303.50294361941468
 11
1189.4018171150183
 21
198.50294361941513
  0
LINE
  8
_0-7_枠細線
  6
CONTINUOUS
 62
    5
 10
1139.4018171150174
 20
303.50294361941468
 11
1139.4018171150174
 21
198.50294361941513
  0
TEXT
  8
_0-7_枠細線
 62
    5
 10
1140.4018171150183
 20
218.50294361941494
 40
15.000000000000002
 41
0.8
 50
0
  1
表面形状
  0
TEXT
  8
_0-7_枠細線
 62
    5
 10
1147.1760284558286
 20
306.00294361941479
 40
17.500000000000004
 41
0.7999999999999996
 50
0
  1
記号表
  0
TEXT
  8
_0-7_枠細線
 62
    5
 10
1140.4018171150183
 20
258.50294361941485
 40
15.000000000000002
 41
0.8
 50
0
  1
記　　号
  0
ARC
  8
_0-7_枠細線
  6
CONTINUOUS
 62
    5
 10
1282.9664605906703
 20
217.88750054572134
 40
12.026499332130607
 50
317.5616290000047
 51
42.438370999994966
  0
ARC
  8
_0-7_枠細線
  6
CONTINUOUS
 62
    5
 10
1300.7176602555628
 20
234.11838654409848
 40
12.026499332130607
 50
137.56162900000001
 51
222.43837100000297
  0
ARC
  8
_0-7_枠細線
  6
CONTINUOUS
 62
    5
 10
1188.0859738141417
 20
217.88750054572134
 40
12.026499332130607
 50
317.5616290000047
 51
42.438370999994966
  0
ARC
  8
_0-7_枠細線
  6
CONTINUOUS
 62
    5
 10
1205.8371734790342
 20
234.11838654409848
 40
12.026499332130607
 50
137.56162900000001
 51
222.43837100000297
  0
LINE
  8
_0-7_枠細線
  6
CONTINUOUS
 62
    5
 10
1194.4553061852557
 20
238.00294354490973
 11
1289.3357929617841
 21
238.00294354490973
  0
LINE
  8
_0-7_枠細線
  6
CONTINUOUS
 62
    5
 10
1294.3483278844485
 20
214.00294354490973
 11
1199.4678411079201
 21
214.00294354490973
  0
ARC
  8
_0-7_枠細線
  6
CONTINUOUS
 62
    5
 10
1392.966460590671
 20
217.88750054572134
 40
12.026499332130607
 50
317.5616290000047
 51
42.438370999994966
  0
ARC
  8
_0-7_枠細線
  6
CONTINUOUS
 62
    5
 10
1410.7176602555635
 20
234.11838654409848
 40
12.026499332130607
 50
137.56162900000001
 51
222.43837100000297
  0
ARC
  8
_0-7_枠細線
  6
CONTINUOUS
 62
    5
 10
1298.0859738141421
 20
217.88750054572134
 40
12.026499332130607
 50
317.5616290000047
 51
42.438370999994966
  0
ARC
  8
_0-7_枠細線
  6
CONTINUOUS
 62
    5
 10
1315.8371734790348
 20
234.11838654409848
 40
12.026499332130607
 50
137.56162900000001
 51
222.43837100000297
  0
LINE
  8
_0-7_枠細線
  6
CONTINUOUS
 62
    5
 10
1304.4553061852562
 20
238.00294354490973
 11
1399.3357929617846
 21
238.00294354490973
  0
LINE
  8
_0-7_枠細線
  6
CONTINUOUS
 62
    5
 10
1404.3483278844492
 20
214.00294354490973
 11
1309.4678411079208
 21
214.00294354490973
  0
LINE
  8
_0-7_枠細線
  6
CONTINUOUS
 62
    5
 10
1310.0055655050667
 20
219.48750682926459
 11
1315.4901287894213
 21
214.00294354490993
  0
LINE
  8
_0-7_枠細線
  6
CONTINUOUS
 62
    5
 10
1304.3960893257238
 20
237.82490506996544
 11
1328.218050850779
 21
214.0029435449099
  0
LINE
  8
_0-7_枠細線
  6
CONTINUOUS
 62
    5
 10
1316.9459729121372
 20
238.0029435449099
 11
1340.9459729121368
 21
214.00294354490984
  0
LINE
  8
_0-7_枠細線
  6
CONTINUOUS
 62
    5
 10
1329.6738949734947
 20
238.00294354490987
 11
1353.6738949734945
 21
214.00294354490984
  0
LINE
  8
_0-7_枠細線
  6
CONTINUOUS
 62
    5
 10
1342.4018170348527
 20
238.00294354490987
 11
1366.4018170348525
 21
214.00294354490981
  0
LINE
  8
_0-7_枠細線
  6
CONTINUOUS
 62
    5
 10
1355.1297390962102
 20
238.00294354490978
 11
1379.12973909621
 21
214.00294354490981
  0
LINE
  8
_0-7_枠細線
  6
CONTINUOUS
 62
    5
 10
1367.8576611575681
 20
238.00294354490978
 11
1391.8576611575677
 21
214.00294354490981
  0
LINE
  8
_0-7_枠細線
  6
CONTINUOUS
 62
    5
 10
1380.5855832189261
 20
238.00294354490978
 11
1404.4075447439814
 21
214.18098201985387
  0
LINE
  8
_0-7_枠細線
  6
CONTINUOUS
 62
    5
 10
1393.3135052802836
 20
238.00294354490973
 11
1398.7980685646389
 21
232.51838026055449
  0
LINE
  8
_0-7_枠細線
  6
CONTINUOUS
 62
    5
 10
1393.3135052802843
 20
214.00294354490981
 11
1403.3188705607763
 21
224.00830882540174
  0
LINE
  8
_0-7_枠細線
  6
CONTINUOUS
 62
    5
 10
1380.5855832189263
 20
214.00294354490981
 11
1398.8365633238182
 21
232.25392364980144
  0
LINE
  8
_0-7_枠細線
  6
CONTINUOUS
 62
    5
 10
1367.8576611575684
 20
214.00294354490981
 11
1391.8576611575686
 21
238.00294354490973
  0
LINE
  8
_0-7_枠細線
  6
CONTINUOUS
 62
    5
 10
1355.1297390962109
 20
214.00294354490984
 11
1379.1297390962106
 21
238.00294354490978
  0
LINE
  8
_0-7_枠細線
  6
CONTINUOUS
 62
    5
 10
1342.4018170348527
 20
214.00294354490984
 11
1366.4018170348527
 21
238.00294354490978
  0
LINE
  8
_0-7_枠細線
  6
CONTINUOUS
 62
    5
 10
1329.673894973495
 20
214.0029435449099
 11
1353.673894973495
 21
238.00294354490978
  0
LINE
  8
_0-7_枠細線
  6
CONTINUOUS
 62
    5
 10
1316.9459729121374
 20
214.00294354490993
 11
1340.9459729121372
 21
238.00294354490987
  0
LINE
  8
_0-7_枠細線
  6
CONTINUOUS
 62
    5
 10
1309.9670707458877
 20
219.75196344001805
 11
1328.2180508507793
 21
238.00294354490987
  0
LINE
  8
_0-7_枠細線
  6
CONTINUOUS
 62
    5
 10
1305.4847635089297
 20
227.99757826441791
 11
1315.4901287894218
 21
238.0029435449099
  0
LINE
  8
_0-7_枠細線
  6
CONTINUOUS
 62
    5
 10
1139.4018171150183
 20
336.62080723770765
 11
1139.4018171150183
 21
416.62080723770765
  0
LINE
  8
_0-7_枠細線
  6
CONTINUOUS
 62
    5
 10
1229.4018171150183
 20
336.62080723770765
 11
1229.4018171150183
 21
416.62080723770765
  0
TEXT
  8
_0-7_枠細線
 62
    5
 10
1251.9018171150183
 20
394.12080723770765
 40
15
 41
1
 50
0
  1
蓋重量
  0
LINE
  8
_0-7_枠細線
  6
CONTINUOUS
 62
    5
 10
1319.4018171150183
 20
336.62080723770765
 11
1319.4018171150183
 21
416.62080723770765
  0
TEXT
  8
_0-7_枠細線
 62
    5
 10
1341.9018171150183
 20
394.12080723770765
 40
15
 41
1
 50
0
  1
枠重量
  0
LINE
  8
_0-7_枠細線
  6
CONTINUOUS
 62
    5
 10
1139.4018171150183
 20
386.62080723770765
 11
1409.4018171150183
 21
386.62080723770765
  0
LINE
  8
_0-7_枠細線
  6
CONTINUOUS
 62
    5
 10
1139.4018171150183
 20
416.62080723770765
 11
1409.4018171150183
 21
416.62080723770765
  0
LINE
  8
_0-7_枠細線
  6
CONTINUOUS
 62
    5
 10
1139.4018171150183
 20
336.62080723770765
 11
1409.4018171150183
 21
336.62080723770765
  0
LINE
  8
_0-7_枠細線
  6
CONTINUOUS
 62
    5
 10
1409.4018171150183
 20
336.62080723770765
 11
1409.4018171150183
 21
416.62080723770765
  0
TEXT
  8
_0-7_枠細線
 62
    5
 10
1154.4018171150183
 20
394.12080723770765
 40
15
 41
1
 50
0
  1
適用荷重
  0
TEXT
  8
_0-7_枠細線
 62
    5
 10
1161.9018171150183
 20
364.12080723770765
 40
15
 41
1
 50
0
  1
歩道用
  0
TEXT
  8
_0-7_枠細線
 62
    5
 10
1139.4018171150183
 20
344.12080723770765
 40
15
 41
1
 50
0
  1
（5.0kN/㎡）
  0
TEXT
  8
_0-7_枠細線
 62
    5
 10
1250.4018171150187
 20
355.37080723770765
 40
15
 41
0.8000000000000001
 50
0
  1
3.7kg/枚
  0
TEXT
  8
_0-7_枠細線
 62
    5
 10
1334.4018171150183
 20
355.37080723770765
 40
15
 41
0.8000000000000001
 50
0
  1
2.4kg/ｍ組
  0
LINE
  8
_0-1_計細線
  6
CONTINUOUS
 62
    3
 10
978.43374986367235
 20
680.96000651416705
 11
978.43374986367235
 21
674.96000651416693
  0
LINE
  8
_0-1_計細線
  6
CONTINUOUS
 62
    3
 10
978.43374986367235
 20
667.96000651416693
 11
978.43374986367235
 21
661.96000651416693
  0
LINE
  8
_0-1_計細線
  6
CONTINUOUS
 62
    3
 10
978.43374986367235
 20
654.96000651416693
 11
978.43374986367235
 21
648.96000651416693
  0
LINE
  8
_0-1_計細線
  6
CONTINUOUS
 62
    3
 10
978.43374986367235
 20
641.96000651416693
 11
978.43374986367235
 21
635.96000651416693
  0
LINE
  8
_0-1_計細線
  6
CONTINUOUS
 62
    3
 10
978.43374986367235
 20
628.96000651416693
 11
978.43374986367235
 21
622.96000651416693
  0
LINE
  8
_0-1_計細線
  6
CONTINUOUS
 62
    3
 10
978.43374986367235
 20
615.96000651416693
 11
978.43374986367235
 21
609.96000651416693
  0
LINE
  8
_0-0_計極細
  6
CENTER2
 62
    2
 10
284.53432977753141
 20
632.46000651416693
 11
1169.355070518272
 21
632.46000651416693
  0
LINE
  8
_0-1_計細線
  6
CONTINUOUS
 62
    3
 10
471.43374986367286
 20
680.96000651416705
 11
471.43374986367286
 21
674.96000651416693
  0
LINE
  8
_0-1_計細線
  6
CONTINUOUS
 62
    3
 10
471.43374986367286
 20
667.96000651416693
 11
471.43374986367286
 21
661.96000651416693
  0
LINE
  8
_0-1_計細線
  6
CONTINUOUS
 62
    3
 10
471.43374986367286
 20
654.96000651416693
 11
471.43374986367286
 21
648.96000651416693
  0
LINE
  8
_0-1_計細線
  6
CONTINUOUS
 62
    3
 10
471.43374986367286
 20
641.96000651416693
 11
471.43374986367286
 21
635.96000651416693
  0
LINE
  8
_0-1_計細線
  6
CONTINUOUS
 62
    3
 10
471.43374986367286
 20
628.96000651416693
 11
471.43374986367286
 21
622.96000651416693
  0
LINE
  8
_0-1_計細線
  6
CONTINUOUS
 62
    3
 10
471.43374986367286
 20
615.96000651416693
 11
471.43374986367286
 21
609.96000651416693
  0
LINE
  8
_0-1_計細線
  6
CONTINUOUS
 62
    3
 10
978.43374986367235
 20
713.46000651416705
 11
978.43374986367235
 21
707.46000651416693
  0
LINE
  8
_0-1_計細線
  6
CONTINUOUS
 62
    3
 10
978.43374986367235
 20
700.46000651416693
 11
978.43374986367235
 21
694.46000651416693
  0
LINE
  8
_0-1_計細線
  6
CONTINUOUS
 62
    3
 10
978.43374986367235
 20
687.46000651416693
 11
978.43374986367235
 21
681.46000651416693
  0
LINE
  8
_0-1_計細線
  6
CONTINUOUS
 62
    3
 10
978.43374986367235
 20
739.46000651416693
 11
978.43374986367235
 21
733.46000651416705
  0
LINE
  8
_0-1_計細線
  6
CONTINUOUS
 62
    3
 10
978.43374986367235
 20
726.46000651416693
 11
978.43374986367235
 21
720.46000651416693
  0
LINE
  8
_0-1_計細線
  6
CONTINUOUS
 62
    3
 10
1164.9337498636719
 20
809.46000651416693
 11
284.93374986367286
 21
809.46000651416693
  0
ARC
  8
_0-1_計細線
  6
CONTINUOUS
 62
    3
 10
1151.871249863691
 20
801.96000651416875
 40
15.062499999984542
 50
330.13716564368235
 51
29.862834356304496
  0
ARC
  8
_0-1_計細線
  6
CONTINUOUS
 62
    3
 10
1177.996249863691
 20
786.96000651416875
 40
15.062500000017272
 50
150.1371656437675
 51
209.86283435624458
  0
LINE
  8
_0-5_寸法線
  6
CONTINUOUS
 62
    7
 10
475.4337498636728
 20
819.46000651416568
 11
475.4337498636728
 21
899.46000651416693
  0
LINE
  8
_0-5_寸法線
  6
CONTINUOUS
 62
    7
 10
475.4337498636728
 20
894.46000651416693
 11
485.09300812656352
 21
897.04819696519223
  0
LINE
  8
_0-5_寸法線
  6
CONTINUOUS
 62
    7
 10
475.4337498636728
 20
894.46000651416693
 11
485.09300812656352
 21
891.87181606314186
  0
LINE
  8
_0-5_寸法線
  6
CONTINUOUS
 62
    7
 10
974.43374986367292
 20
819.46000651416568
 11
974.43374986367292
 21
899.46000651416693
  0
LINE
  8
_0-5_寸法線
  6
CONTINUOUS
 62
    7
 10
974.43374986367292
 20
894.46000651416693
 11
964.77449160078208
 21
891.87181606314186
  0
LINE
  8
_0-5_寸法線
  6
CONTINUOUS
 62
    7
 10
974.43374986367292
 20
894.46000651416693
 11
964.77449160078208
 21
897.04819696519223
  0
LINE
  8
_0-5_寸法線
  6
CONTINUOUS
 62
    7
 10
475.4337498636728
 20
894.46000651416693
 11
974.43374986367292
 21
894.46000651416693
  0
TEXT
  8
_0-5_寸法線
 62
    7
 10
713.6837498636728
 20
894.46000651416693
 40
15
 41
1
 50
0
  1
499
  0
LINE
  8
_0-5_寸法線
  6
CONTINUOUS
 62
    7
 10
475.4337498636728
 20
819.46000651416693
 11
475.4337498636728
 21
864.46000651416693
  0
LINE
  8
_0-5_寸法線
  6
CONTINUOUS
 62
    7
 10
475.4337498636728
 20
859.46000651416693
 11
485.09300812656352
 21
862.04819696519223
  0
LINE
  8
_0-5_寸法線
  6
CONTINUOUS
 62
    7
 10
475.4337498636728
 20
859.46000651416693
 11
485.09300812656352
 21
856.87181606314186
  0
LINE
  8
_0-5_寸法線
  6
CONTINUOUS
 62
    7
 10
574.9337498636728
 20
819.46000651416693
 11
574.9337498636728
 21
864.46000651416693
  0
LINE
  8
_0-5_寸法線
  6
CONTINUOUS
 62
    7
 10
574.9337498636728
 20
859.46000651416693
 11
565.27449160078208
 21
856.87181606314186
  0
LINE
  8
_0-5_寸法線
  6
CONTINUOUS
 62
    7
 10
574.9337498636728
 20
859.46000651416693
 11
565.27449160078208
 21
862.04819696519223
  0
LINE
  8
_0-5_寸法線
  6
CONTINUOUS
 62
    7
 10
475.4337498636728
 20
859.46000651416693
 11
574.9337498636728
 21
859.46000651416693
  0
TEXT
  8
_0-5_寸法線
 62
    7
 10
510.18374986367286
 20
859.46000651416693
 40
15
 41
1
 50
0
  1
99.5
  0
LINE
  8
_0-5_寸法線
  6
CONTINUOUS
 62
    7
 10
574.9337498636728
 20
859.46000651416693
 11
584.59300812656352
 21
862.04819696519223
  0
LINE
  8
_0-5_寸法線
  6
CONTINUOUS
 62
    7
 10
574.9337498636728
 20
859.46000651416693
 11
584.59300812656352
 21
856.87181606314175
  0
LINE
  8
_0-5_寸法線
  6
CONTINUOUS
 62
    7
 10
674.9337498636728
 20
819.46000651416693
 11
674.9337498636728
 21
864.46000651416693
  0
LINE
  8
_0-5_寸法線
  6
CONTINUOUS
 62
    7
 10
674.9337498636728
 20
859.46000651416693
 11
665.27449160078208
 21
856.87181606314186
  0
LINE
  8
_0-5_寸法線
  6
CONTINUOUS
 62
    7
 10
674.9337498636728
 20
859.46000651416693
 11
665.27449160078208
 21
862.04819696519223
  0
LINE
  8
_0-5_寸法線
  6
CONTINUOUS
 62
    7
 10
574.9337498636728
 20
859.46000651416693
 11
674.9337498636728
 21
859.46000651416693
  0
TEXT
  8
_0-5_寸法線
 62
    7
 10
613.6837498636728
 20
859.46000651416693
 40
15
 41
1
 50
0
  1
100
  0
LINE
  8
_0-5_寸法線
  6
CONTINUOUS
 62
    7
 10
674.9337498636728
 20
859.46000651416693
 11
684.59300812656352
 21
862.04819696519223
  0
LINE
  8
_0-5_寸法線
  6
CONTINUOUS
 62
    7
 10
674.9337498636728
 20
859.46000651416693
 11
684.59300812656352
 21
856.87181606314175
  0
LINE
  8
_0-5_寸法線
  6
CONTINUOUS
 62
    7
 10
774.93374986367246
 20
819.46000651416693
 11
774.93374986367246
 21
864.46000651416693
  0
LINE
  8
_0-5_寸法線
  6
CONTINUOUS
 62
    7
 10
774.93374986367246
 20
859.46000651416693
 11
765.27449160078163
 21
856.87181606314186
  0
LINE
  8
_0-5_寸法線
  6
CONTINUOUS
 62
    7
 10
774.93374986367246
 20
859.46000651416693
 11
765.27449160078163
 21
862.04819696519223
  0
LINE
  8
_0-5_寸法線
  6
CONTINUOUS
 62
    7
 10
674.9337498636728
 20
859.46000651416693
 11
774.93374986367246
 21
859.46000651416693
  0
TEXT
  8
_0-5_寸法線
 62
    7
 10
713.6837498636728
 20
859.46000651416693
 40
15
 41
1
 50
0
  1
100
  0
LINE
  8
_0-5_寸法線
  6
CONTINUOUS
 62
    7
 10
774.93374986367246
 20
859.46000651416693
 11
784.59300812656306
 21
862.04819696519223
  0
LINE
  8
_0-5_寸法線
  6
CONTINUOUS
 62
    7
 10
774.93374986367246
 20
859.46000651416693
 11
784.59300812656306
 21
856.87181606314175
  0
LINE
  8
_0-5_寸法線
  6
CONTINUOUS
 62
    7
 10
874.93374986367246
 20
819.46000651416693
 11
874.93374986367246
 21
864.46000651416693
  0
LINE
  8
_0-5_寸法線
  6
CONTINUOUS
 62
    7
 10
874.93374986367246
 20
859.46000651416693
 11
865.27449160078163
 21
856.87181606314186
  0
LINE
  8
_0-5_寸法線
  6
CONTINUOUS
 62
    7
 10
874.93374986367246
 20
859.46000651416693
 11
865.27449160078163
 21
862.04819696519223
  0
LINE
  8
_0-5_寸法線
  6
CONTINUOUS
 62
    7
 10
774.93374986367246
 20
859.46000651416693
 11
874.93374986367246
 21
859.46000651416693
  0
TEXT
  8
_0-5_寸法線
 62
    7
 10
813.68374986367246
 20
859.46000651416693
 40
15
 41
1
 50
0
  1
100
  0
LINE
  8
_0-5_寸法線
  6
CONTINUOUS
 62
    7
 10
874.93374986367246
 20
859.46000651416693
 11
884.59300812656306
 21
862.04819696519223
  0
LINE
  8
_0-5_寸法線
  6
CONTINUOUS
 62
    7
 10
874.93374986367246
 20
859.46000651416693
 11
884.59300812656306
 21
856.87181606314175
  0
LINE
  8
_0-5_寸法線
  6
CONTINUOUS
 62
    7
 10
974.43374986367292
 20
819.46000651416693
 11
974.43374986367292
 21
864.46000651416693
  0
LINE
  8
_0-5_寸法線
  6
CONTINUOUS
 62
    7
 10
974.43374986367292
 20
859.46000651416693
 11
964.77449160078208
 21
856.87181606314186
  0
LINE
  8
_0-5_寸法線
  6
CONTINUOUS
 62
    7
 10
974.43374986367292
 20
859.46000651416693
 11
964.77449160078208
 21
862.04819696519223
  0
LINE
  8
_0-5_寸法線
  6
CONTINUOUS
 62
    7
 10
874.93374986367246
 20
859.46000651416693
 11
974.43374986367292
 21
859.46000651416693
  0
TEXT
  8
_0-5_寸法線
 62
    7
 10
909.6837498636728
 20
859.46000651416693
 40
15
 41
1
 50
0
  1
99.5
  0
LINE
  8
_0-1_計細線
  6
CONTINUOUS
 62
    3
 10
978.43374986367235
 20
804.46000651416693
 11
978.43374986367235
 21
798.46000651416705
  0
LINE
  8
_0-1_計細線
  6
CONTINUOUS
 62
    3
 10
978.43374986367235
 20
791.46000651416693
 11
978.43374986367235
 21
785.46000651416705
  0
LINE
  8
_0-1_計細線
  6
CONTINUOUS
 62
    3
 10
978.43374986367235
 20
778.46000651416705
 11
978.43374986367235
 21
772.46000651416693
  0
LINE
  8
_0-1_計細線
  6
CONTINUOUS
 62
    3
 10
1166.2458422492005
 20
806.46000651416693
 11
283.6216574781447
 21
806.46000651416693
  0
LINE
  8
_0-1_計細線
  6
CONTINUOUS
 62
    3
 10
1164.9337498636719
 20
779.46000651416693
 11
1129.3370068364002
 21
779.46000651416693
  0
LINE
  8
_0-1_計細線
  6
CONTINUOUS
 62
    3
 10
978.43374986367235
 20
765.46000651416693
 11
978.43374986367235
 21
759.46000651416693
  0
LINE
  8
_0-1_計細線
  6
CONTINUOUS
 62
    3
 10
978.43374986367235
 20
752.46000651416693
 11
978.43374986367235
 21
746.46000651416693
  0
LINE
  8
_0-0_計極細
  6
CONTINUOUS
 62
    2
 10
1124.9337498636728
 20
632.46000651416693
 11
1125.0288782978141
 21
633.01322666021997
  0
LINE
  8
_0-0_計極細
  6
CONTINUOUS
 62
    2
 10
1125.0288782978141
 20
633.01322666021997
 11
1125.3115821444273
 21
634.65782695841028
  0
LINE
  8
_0-0_計極細
  6
CONTINUOUS
 62
    2
 10
1125.3115821444273
 20
634.65782695841028
 11
1125.7734027768663
 21
637.34920811896768
  0
LINE
  8
_0-0_計極細
  6
CONTINUOUS
 62
    2
 10
1125.7734027768663
 20
637.34920811896768
 11
1126.3990454892121
 21
641.01489893453038
  0
LINE
  8
_0-0_計極細
  6
CONTINUOUS
 62
    2
 10
1126.3990454892121
 20
641.01489893453038
 11
1127.1651749637983
 21
645.55709984013015
  0
LINE
  8
_0-0_計極細
  6
CONTINUOUS
 62
    2
 10
1127.1651749637983
 20
645.55709984013015
 11
1128.0397350956448
 21
650.85581076824565
  0
LINE
  8
_0-0_計極細
  6
CONTINUOUS
 62
    2
 10
1128.0397350956448
 20
650.85581076824565
 11
1128.9824355749681
 21
656.77223996788393
  0
LINE
  8
_0-0_計極細
  6
CONTINUOUS
 62
    2
 10
1128.9824355749681
 20
656.77223996788393
 11
1129.9468189370741
 21
663.15225158984856
  0
LINE
  8
_0-0_計極細
  6
CONTINUOUS
 62
    2
 10
1129.9468189370741
 20
663.15225158984856
 11
1130.8839427476414
 21
669.82972617789983
  0
LINE
  8
_0-0_計極細
  6
CONTINUOUS
 62
    2
 10
1130.8839427476414
 20
669.82972617789983
 11
1131.7472745025123
 21
676.62984793117312
  0
LINE
  8
_0-0_計極細
  6
CONTINUOUS
 62
    2
 10
1131.7472745025123
 20
676.62984793117312
 11
1132.4980131439374
 21
683.37245712134393
  0
LINE
  8
_0-0_計極細
  6
CONTINUOUS
 62
    2
 10
1132.4980131439374
 20
683.37245712134393
 11
1133.1098238928996
 21
689.87567960274066
  0
LINE
  8
_0-0_計極細
  6
CONTINUOUS
 62
    2
 10
1133.1098238928996
 20
689.87567960274066
 11
1133.5719710284391
 21
695.96004411069032
  0
LINE
  8
_0-0_計極細
  6
CONTINUOUS
 62
    2
 10
1133.5719710284391
 20
695.96004411069032
 11
1133.8900724972143
 21
701.4532163995566
  0
LINE
  8
_0-0_計極細
  6
CONTINUOUS
 62
    2
 10
1133.8900724972143
 20
701.4532163995566
 11
1134.0841389199313
 21
706.19533181253007
  0
LINE
  8
_0-0_計極細
  6
CONTINUOUS
 62
    2
 10
1134.0841389199313
 20
706.19533181253007
 11
1134.1841060997531
 21
710.04472644322209
  0
LINE
  8
_0-0_計極細
  6
CONTINUOUS
 62
    2
 10
1134.1841060997531
 20
710.04472644322209
 11
1134.2236038196579
 21
712.8836935678371
  0
LINE
  8
_0-0_計極細
  6
CONTINUOUS
 62
    2
 10
1134.2236038196579
 20
712.8836935678371
 11
1134.2331026143161
 21
714.62376874977531
  0
LINE
  8
_0-0_計極細
  6
CONTINUOUS
 62
    2
 10
1134.2331026143161
 20
714.62376874977531
 11
1134.2337498636725
 21
715.21000651416693
  0
LINE
  8
_0-0_計極細
  6
CONTINUOUS
 62
    2
 10
1134.2337498636725
 20
715.21000651416693
 11
1134.2331026143161
 21
715.79669665714107
  0
LINE
  8
_0-0_計極細
  6
CONTINUOUS
 62
    2
 10
1134.2331026143161
 20
715.79669665714107
 11
1134.2236038196579
 21
717.54341078158234
  0
LINE
  8
_0-0_計極細
  6
CONTINUOUS
 62
    2
 10
1134.2236038196579
 20
717.54341078158234
 11
1134.1841060997531
 21
720.40998383946419
  0
LINE
  8
_0-0_計極細
  6
CONTINUOUS
 62
    2
 10
1134.1841060997531
 20
720.40998383946419
 11
1134.0841389199315
 21
724.32924800444016
  0
LINE
  8
_0-0_計極細
  6
CONTINUOUS
 62
    2
 10
1134.0841389199315
 20
724.32924800444016
 11
1133.8900724972143
 21
729.20700123974302
  0
LINE
  8
_0-0_計極細
  6
CONTINUOUS
 62
    2
 10
1133.8900724972143
 20
729.20700123974302
 11
1133.5719710284391
 21
734.92250251216183
  0
LINE
  8
_0-0_計極細
  6
CONTINUOUS
 62
    2
 10
1133.5719710284391
 20
734.92250251216183
 11
1133.1098238928996
 21
741.32987308258521
  0
LINE
  8
_0-0_計極細
  6
CONTINUOUS
 62
    2
 10
1133.1098238928996
 20
741.32987308258521
 11
1132.4980131439374
 21
748.26070522723512
  0
LINE
  8
_0-0_計極細
  6
CONTINUOUS
 62
    2
 10
1132.4980131439374
 20
748.26070522723512
 11
1131.7472745025123
 21
755.52802422055254
  0
LINE
  8
_0-0_計極細
  6
CONTINUOUS
 62
    2
 10
1131.7472745025123
 20
755.52802422055254
 11
1130.8839427476414
 21
762.93154988852041
  0
LINE
  8
_0-0_計極細
  6
CONTINUOUS
 62
    2
 10
1130.8839427476414
 20
762.93154988852041
 11
1129.9468189370741
 21
770.26400348395737
  0
LINE
  8
_0-0_計極細
  6
CONTINUOUS
 62
    2
 10
1129.9468189370741
 20
770.26400348395737
 11
1128.9824355749679
 21
777.31804648803927
  0
LINE
  8
_0-0_計極細
  6
CONTINUOUS
 62
    2
 10
1128.9824355749679
 20
777.31804648803927
 11
1128.0397350956448
 21
783.89335236677425
  0
LINE
  8
_0-0_計極細
  6
CONTINUOUS
 62
    2
 10
1128.0397350956448
 20
783.89335236677425
 11
1127.1651749637983
 21
789.80331499994406
  0
LINE
  8
_0-0_計極細
  6
CONTINUOUS
 62
    2
 10
1127.1651749637983
 20
789.80331499994406
 11
1126.3990454892121
 21
794.88098274262029
  0
LINE
  8
_0-0_計極細
  6
CONTINUOUS
 62
    2
 10
1126.3990454892121
 20
794.88098274262029
 11
1125.7734027768663
 21
798.98395072272569
  0
LINE
  8
_0-0_計極細
  6
CONTINUOUS
 62
    2
 10
1125.7734027768663
 20
798.98395072272569
 11
1125.3115821444273
 21
801.99810974466504
  0
LINE
  8
_0-0_計極細
  6
CONTINUOUS
 62
    2
 10
1125.3115821444273
 20
801.99810974466504
 11
1125.0288782978141
 21
803.8402987528541
  0
LINE
  8
_0-0_計極細
  6
CONTINUOUS
 62
    2
 10
1125.0288782978141
 20
803.8402987528541
 11
1124.9337498636728
 21
804.46000651416693
  0
LINE
  8
_0-1_計細線
  6
CONTINUOUS
 62
    3
 10
471.43374986367286
 20
713.46000651416705
 11
471.43374986367286
 21
707.46000651416693
  0
LINE
  8
_0-1_計細線
  6
CONTINUOUS
 62
    3
 10
471.43374986367286
 20
700.46000651416693
 11
471.43374986367286
 21
694.46000651416693
  0
LINE
  8
_0-1_計細線
  6
CONTINUOUS
 62
    3
 10
471.43374986367286
 20
687.46000651416693
 11
471.43374986367286
 21
681.46000651416693
  0
LINE
  8
_0-1_計細線
  6
CONTINUOUS
 62
    3
 10
471.43374986367286
 20
739.46000651416693
 11
471.43374986367286
 21
733.46000651416705
  0
LINE
  8
_0-1_計細線
  6
CONTINUOUS
 62
    3
 10
471.43374986367286
 20
726.46000651416693
 11
471.43374986367286
 21
720.46000651416693
  0
ARC
  8
_0-1_計細線
  6
CONTINUOUS
 62
    3
 10
297.99624986365444
 20
801.96000651416875
 40
15.062499999984542
 50
150.13716564369517
 51
209.86283435631648
  0
ARC
  8
_0-1_計細線
  6
CONTINUOUS
 62
    3
 10
271.87124986365438
 20
786.96000651416875
 40
15.062500000017272
 50
330.13716564375426
 51
29.862834356232998
  0
LINE
  8
_0-1_計細線
  6
CONTINUOUS
 62
    3
 10
471.43374986367286
 20
804.46000651416693
 11
471.43374986367286
 21
798.46000651416705
  0
LINE
  8
_0-1_計細線
  6
CONTINUOUS
 62
    3
 10
471.43374986367286
 20
791.46000651416693
 11
471.43374986367286
 21
785.46000651416705
  0
LINE
  8
_0-1_計細線
  6
CONTINUOUS
 62
    3
 10
471.43374986367286
 20
778.46000651416705
 11
471.43374986367286
 21
772.46000651416693
  0
LINE
  8
_0-1_計細線
  6
CONTINUOUS
 62
    3
 10
284.93374986367326
 20
779.46000651416693
 11
320.53049289094497
 21
779.46000651416693
  0
LINE
  8
_0-1_計細線
  6
CONTINUOUS
 62
    3
 10
471.43374986367286
 20
765.46000651416693
 11
471.43374986367286
 21
759.46000651416693
  0
LINE
  8
_0-1_計細線
  6
CONTINUOUS
 62
    3
 10
471.43374986367286
 20
752.46000651416693
 11
471.43374986367286
 21
746.46000651416693
  0
LINE
  8
_0-0_計極細
  6
CONTINUOUS
 62
    2
 10
324.93374986367257
 20
632.46000651416693
 11
324.83862142953149
 21
633.01322666021997
  0
LINE
  8
_0-0_計極細
  6
CONTINUOUS
 62
    2
 10
324.83862142953149
 20
633.01322666021997
 11
324.55591758291797
 21
634.65782695841028
  0
LINE
  8
_0-0_計極細
  6
CONTINUOUS
 62
    2
 10
324.55591758291797
 20
634.65782695841028
 11
324.09409695047896
 21
637.34920811896768
  0
LINE
  8
_0-0_計極細
  6
CONTINUOUS
 62
    2
 10
324.09409695047896
 20
637.34920811896768
 11
323.46845423813329
 21
641.01489893453038
  0
LINE
  8
_0-0_計極細
  6
CONTINUOUS
 62
    2
 10
323.46845423813329
 20
641.01489893453038
 11
322.70232476354715
 21
645.55709984013015
  0
LINE
  8
_0-0_計極細
  6
CONTINUOUS
 62
    2
 10
322.70232476354715
 20
645.55709984013015
 11
321.82776463170052
 21
650.85581076824565
  0
LINE
  8
_0-0_計極細
  6
CONTINUOUS
 62
    2
 10
321.82776463170052
 20
650.85581076824565
 11
320.88506415237725
 21
656.77223996788393
  0
LINE
  8
_0-0_計極細
  6
CONTINUOUS
 62
    2
 10
320.88506415237725
 20
656.77223996788393
 11
319.92068079027121
 21
663.15225158984856
  0
LINE
  8
_0-0_計極細
  6
CONTINUOUS
 62
    2
 10
319.92068079027121
 20
663.15225158984856
 11
318.98355697970379
 21
669.82972617789983
  0
LINE
  8
_0-0_計極細
  6
CONTINUOUS
 62
    2
 10
318.98355697970379
 20
669.82972617789983
 11
318.12022522483295
 21
676.62984793117312
  0
LINE
  8
_0-0_計極細
  6
CONTINUOUS
 62
    2
 10
318.12022522483295
 20
676.62984793117312
 11
317.36948658340782
 21
683.37245712134393
  0
LINE
  8
_0-0_計極細
  6
CONTINUOUS
 62
    2
 10
317.36948658340782
 20
683.37245712134393
 11
316.75767583444559
 21
689.87567960274066
  0
LINE
  8
_0-0_計極細
  6
CONTINUOUS
 62
    2
 10
316.75767583444559
 20
689.87567960274066
 11
316.2955286989062
 21
695.96004411069032
  0
LINE
  8
_0-0_計極細
  6
CONTINUOUS
 62
    2
 10
316.2955286989062
 20
695.96004411069032
 11
315.97742723013073
 21
701.4532163995566
  0
LINE
  8
_0-0_計極細
  6
CONTINUOUS
 62
    2
 10
315.97742723013073
 20
701.4532163995566
 11
315.78336080741371
 21
706.19533181253007
  0
LINE
  8
_0-0_計極細
  6
CONTINUOUS
 62
    2
 10
315.78336080741371
 20
706.19533181253007
 11
315.68339362759218
 21
710.04472644322209
  0
LINE
  8
_0-0_計極細
  6
CONTINUOUS
 62
    2
 10
315.68339362759218
 20
710.04472644322209
 11
315.64389590768718
 21
712.8836935678371
  0
LINE
  8
_0-0_計極細
  6
CONTINUOUS
 62
    2
 10
315.64389590768718
 20
712.8836935678371
 11
315.63439711302919
 21
714.62376874977531
  0
LINE
  8
_0-0_計極細
  6
CONTINUOUS
 62
    2
 10
315.63439711302919
 20
714.62376874977531
 11
315.63374986367262
 21
715.21000651416693
  0
LINE
  8
_0-0_計極細
  6
CONTINUOUS
 62
    2
 10
315.63374986367262
 20
715.21000651416693
 11
315.63439711302919
 21
715.79669665714107
  0
LINE
  8
_0-0_計極細
  6
CONTINUOUS
 62
    2
 10
315.63439711302919
 20
715.79669665714107
 11
315.64389590768718
 21
717.54341078158234
  0
LINE
  8
_0-0_計極細
  6
CONTINUOUS
 62
    2
 10
315.64389590768718
 20
717.54341078158234
 11
315.68339362759218
 21
720.40998383946419
  0
LINE
  8
_0-0_計極細
  6
CONTINUOUS
 62
    2
 10
315.68339362759218
 20
720.40998383946419
 11
315.78336080741371
 21
724.32924800444016
  0
LINE
  8
_0-0_計極細
  6
CONTINUOUS
 62
    2
 10
315.78336080741371
 20
724.32924800444016
 11
315.97742723013073
 21
729.20700123974302
  0
LINE
  8
_0-0_計極細
  6
CONTINUOUS
 62
    2
 10
315.97742723013073
 20
729.20700123974302
 11
316.2955286989062
 21
734.92250251216183
  0
LINE
  8
_0-0_計極細
  6
CONTINUOUS
 62
    2
 10
316.2955286989062
 20
734.92250251216183
 11
316.75767583444559
 21
741.32987308258521
  0
LINE
  8
_0-0_計極細
  6
CONTINUOUS
 62
    2
 10
316.75767583444559
 20
741.32987308258521
 11
317.36948658340771
 21
748.26070522723512
  0
LINE
  8
_0-0_計極細
  6
CONTINUOUS
 62
    2
 10
317.36948658340771
 20
748.26070522723512
 11
318.12022522483289
 21
755.52802422055254
  0
LINE
  8
_0-0_計極細
  6
CONTINUOUS
 62
    2
 10
318.12022522483289
 20
755.52802422055254
 11
318.98355697970379
 21
762.93154988852041
  0
LINE
  8
_0-0_計極細
  6
CONTINUOUS
 62
    2
 10
318.98355697970379
 20
762.93154988852041
 11
319.92068079027121
 21
770.26400348395737
  0
LINE
  8
_0-0_計極細
  6
CONTINUOUS
 62
    2
 10
319.92068079027121
 20
770.26400348395737
 11
320.88506415237725
 21
777.31804648803927
  0
LINE
  8
_0-0_計極細
  6
CONTINUOUS
 62
    2
 10
320.88506415237725
 20
777.31804648803927
 11
321.82776463170052
 21
783.89335236677425
  0
LINE
  8
_0-0_計極細
  6
CONTINUOUS
 62
    2
 10
321.82776463170052
 20
783.89335236677425
 11
322.70232476354715
 21
789.80331499994406
  0
LINE
  8
_0-0_計極細
  6
CONTINUOUS
 62
    2
 10
322.70232476354715
 20
789.80331499994406
 11
323.46845423813329
 21
794.88098274262029
  0
LINE
  8
_0-0_計極細
  6
CONTINUOUS
 62
    2
 10
323.46845423813329
 20
794.88098274262029
 11
324.09409695047907
 21
798.98395072272569
  0
LINE
  8
_0-0_計極細
  6
CONTINUOUS
 62
    2
 10
324.09409695047907
 20
798.98395072272569
 11
324.55591758291797
 21
801.99810974466504
  0
LINE
  8
_0-0_計極細
  6
CONTINUOUS
 62
    2
 10
324.55591758291797
 20
801.99810974466504
 11
324.83862142953149
 21
803.8402987528541
  0
LINE
  8
_0-0_計極細
  6
CONTINUOUS
 62
    2
 10
324.83862142953149
 20
803.8402987528541
 11
324.93374986367257
 21
804.46000651416693
  0
LINE
  8
_0-1_計細線
  6
CONTINUOUS
 62
    3
 10
978.43374986367235
 20
602.96000651416693
 11
978.43374986367235
 21
603.46000651416693
  0
LINE
  8
_0-1_計細線
  6
CONTINUOUS
 62
    3
 10
978.43374986367235
 20
596.46000651416693
 11
978.43374986367235
 21
590.46000651416693
  0
LINE
  8
_0-1_計細線
  6
CONTINUOUS
 62
    3
 10
978.43374986367235
 20
583.46000651416693
 11
978.43374986367235
 21
577.46000651416693
  0
LINE
  8
_0-1_計細線
  6
CONTINUOUS
 62
    3
 10
978.43374986367235
 20
570.46000651416693
 11
978.43374986367235
 21
564.46000651416693
  0
LINE
  8
_0-1_計細線
  6
CONTINUOUS
 62
    3
 10
978.43374986367235
 20
557.46000651416693
 11
978.43374986367235
 21
551.46000651416693
  0
LINE
  8
_0-1_計細線
  6
CONTINUOUS
 62
    3
 10
978.43374986367235
 20
531.46000651416693
 11
978.43374986367235
 21
525.46000651416693
  0
LINE
  8
_0-1_計細線
  6
CONTINUOUS
 62
    3
 10
978.43374986367235
 20
544.46000651416693
 11
978.43374986367235
 21
538.46000651416693
  0
LINE
  8
_0-1_計細線
  6
CONTINUOUS
 62
    3
 10
1164.9337498636719
 20
455.46000651416699
 11
284.93374986367286
 21
455.46000651416699
  0
ARC
  8
_0-1_計細線
  6
CONTINUOUS
 62
    3
 10
1177.9962498636619
 20
462.96000651416875
 40
15.06249999999028
 50
150.13716564371197
 51
209.86283435630014
  0
ARC
  8
_0-1_計細線
  6
CONTINUOUS
 62
    3
 10
1151.8712498637055
 20
477.96000651415739
 40
15.062499999975882
 50
330.13716564369133
 51
29.862834356369991
  0
LINE
  8
_0-5_寸法線
  6
CONTINUOUS
 62
    7
 10
789.91333547298439
 20
580.11580072743732
 11
793.82852332642233
 21
570.91409957643862
  0
LINE
  8
_0-5_寸法線
  6
CONTINUOUS
 62
    7
 10
789.91333547298439
 20
580.11580072743732
 11
788.70313703915042
 21
570.18929984592091
  0
LINE
  8
_0-5_寸法線
  6
CONTINUOUS
 62
    7
 10
789.91333547298439
 20
580.11580072743732
 11
813.27081859303826
 21
414.94448698646266
  0
LINE
  8
_0-5_寸法線
  6
CONTINUOUS
 62
    7
 10
813.27081859303826
 20
414.94448698646266
 11
947.70983080815824
 21
414.94448698646266
  0
TEXT
  8
_0-5_寸法線
 62
    7
 10
815.70983080815824
 20
414.94448698646266
 40
15
 41
0.8000000000000001
 50
0
  1
ステンレスグレーチング
  0
LINE
  8
_0-5_寸法線
  6
CONTINUOUS
 62
    7
 10
582.48907006124455
 20
456.6750182057001
 11
587.48907006124455
 21
448.01476416785567
  0
LINE
  8
_0-5_寸法線
  6
CONTINUOUS
 62
    7
 10
582.48907006124455
 20
456.6750182057001
 11
582.48907006124455
 21
446.6750182057001
  0
LINE
  8
_0-5_寸法線
  6
CONTINUOUS
 62
    7
 10
582.48907006124455
 20
456.6750182057001
 11
593.67073220116072
 21
414.94448698646266
  0
LINE
  8
_0-5_寸法線
  6
CONTINUOUS
 62
    7
 10
593.67073220116072
 20
414.94448698646266
 11
701.72160541259518
 21
414.94448698646266
  0
TEXT
  8
_0-5_寸法線
 62
    7
 10
593.72160541259518
 20
414.94448698646266
 40
15
 41
0.8000000000000001
 50
0
  1
ＳＵＳアングル受枠
  0
LINE
  8
_0-1_計細線
  6
CONTINUOUS
 62
    3
 10
978.43374986367235
 20
492.46000651416693
 11
978.43374986367235
 21
486.46000651416699
  0
LINE
  8
_0-1_計細線
  6
CONTINUOUS
 62
    3
 10
978.43374986367235
 20
479.46000651416693
 11
978.43374986367235
 21
473.46000651416693
  0
LINE
  8
_0-1_計細線
  6
CONTINUOUS
 62
    3
 10
978.43374986367235
 20
466.46000651416699
 11
978.43374986367235
 21
460.46000651416699
  0
LINE
  8
_0-1_計細線
  6
CONTINUOUS
 62
    3
 10
286.24584224919801
 20
458.46000651416693
 11
1163.621657478147
 21
458.46000651416693
  0
LINE
  8
_0-1_計細線
  6
CONTINUOUS
 62
    3
 10
978.43374986367235
 20
505.46000651416699
 11
978.43374986367235
 21
499.46000651416693
  0
LINE
  8
_0-1_計細線
  6
CONTINUOUS
 62
    3
 10
978.43374986367235
 20
518.46000651416693
 11
978.43374986367235
 21
512.46000651416693
  0
LINE
  8
_0-0_計極細
  6
CONTINUOUS
 62
    2
 10
1124.9337498636728
 20
460.46000651416534
 11
1124.8386214295317
 21
461.07971427547824
  0
LINE
  8
_0-0_計極細
  6
CONTINUOUS
 62
    2
 10
1124.8386214295317
 20
461.07971427547824
 11
1124.5559175829183
 21
462.92190328366735
  0
LINE
  8
_0-0_計極細
  6
CONTINUOUS
 62
    2
 10
1124.5559175829183
 20
462.92190328366735
 11
1124.0940969504795
 21
465.93606230560675
  0
LINE
  8
_0-0_計極細
  6
CONTINUOUS
 62
    2
 10
1124.0940969504795
 20
465.93606230560675
 11
1123.4684542381337
 21
470.03903028571216
  0
LINE
  8
_0-0_計極細
  6
CONTINUOUS
 62
    2
 10
1123.4684542381337
 20
470.03903028571216
 11
1122.7023247635473
 21
475.11669802838838
  0
LINE
  8
_0-0_計極細
  6
CONTINUOUS
 62
    2
 10
1122.7023247635473
 20
475.11669802838838
 11
1121.8277646317006
 21
481.02666066155797
  0
LINE
  8
_0-0_計極細
  6
CONTINUOUS
 62
    2
 10
1121.8277646317006
 20
481.02666066155797
 11
1120.8850641523773
 21
487.60196654029306
  0
LINE
  8
_0-0_計極細
  6
CONTINUOUS
 62
    2
 10
1120.8850641523773
 20
487.60196654029306
 11
1119.9206807902713
 21
494.65600954437491
  0
LINE
  8
_0-0_計極細
  6
CONTINUOUS
 62
    2
 10
1119.9206807902713
 20
494.65600954437491
 11
1118.983556979704
 21
501.98846313981193
  0
LINE
  8
_0-0_計極細
  6
CONTINUOUS
 62
    2
 10
1118.983556979704
 20
501.98846313981193
 11
1118.1202252248329
 21
509.3919888077798
  0
LINE
  8
_0-0_計極細
  6
CONTINUOUS
 62
    2
 10
1118.1202252248329
 20
509.3919888077798
 11
1117.3694865834077
 21
516.65930780109716
  0
LINE
  8
_0-0_計極細
  6
CONTINUOUS
 62
    2
 10
1117.3694865834077
 20
516.65930780109716
 11
1116.7576758344458
 21
523.59013994574707
  0
LINE
  8
_0-0_計極細
  6
CONTINUOUS
 62
    2
 10
1116.7576758344458
 20
523.59013994574707
 11
1116.2955286989063
 21
529.99751051617068
  0
LINE
  8
_0-0_計極細
  6
CONTINUOUS
 62
    2
 10
1116.2955286989063
 20
529.99751051617068
 11
1115.9774272301306
 21
535.71301178858948
  0
LINE
  8
_0-0_計極細
  6
CONTINUOUS
 62
    2
 10
1115.9774272301306
 20
535.71301178858948
 11
1115.7833608074136
 21
540.59076502389212
  0
LINE
  8
_0-0_計極細
  6
CONTINUOUS
 62
    2
 10
1115.7833608074136
 20
540.59076502389212
 11
1115.6833936275921
 21
544.5100291888682
  0
LINE
  8
_0-0_計極細
  6
CONTINUOUS
 62
    2
 10
1115.6833936275921
 20
544.5100291888682
 11
1115.6438959076872
 21
547.37660224674994
  0
LINE
  8
_0-0_計極細
  6
CONTINUOUS
 62
    2
 10
1115.6438959076872
 20
547.37660224674994
 11
1115.6343971130291
 21
549.12331637119121
  0
LINE
  8
_0-0_計極細
  6
CONTINUOUS
 62
    2
 10
1115.6343971130291
 20
549.12331637119121
 11
1115.6337498636726
 21
549.71000651416534
  0
LINE
  8
_0-0_計極細
  6
CONTINUOUS
 62
    2
 10
1115.6337498636726
 20
549.71000651416534
 11
1115.6343971130291
 21
550.29624427855708
  0
LINE
  8
_0-0_計極細
  6
CONTINUOUS
 62
    2
 10
1115.6343971130291
 20
550.29624427855708
 11
1115.6438959076872
 21
552.03631946049529
  0
LINE
  8
_0-0_計極細
  6
CONTINUOUS
 62
    2
 10
1115.6438959076872
 20
552.03631946049529
 11
1115.6833936275921
 21
554.87528658511019
  0
LINE
  8
_0-0_計極細
  6
CONTINUOUS
 62
    2
 10
1115.6833936275921
 20
554.87528658511019
 11
1115.7833608074136
 21
558.72468121580232
  0
LINE
  8
_0-0_計極細
  6
CONTINUOUS
 62
    2
 10
1115.7833608074136
 20
558.72468121580232
 11
1115.9774272301308
 21
563.4667966287758
  0
LINE
  8
_0-0_計極細
  6
CONTINUOUS
 62
    2
 10
1115.9774272301308
 20
563.4667966287758
 11
1116.2955286989061
 21
568.95996891764196
  0
LINE
  8
_0-0_計極細
  6
CONTINUOUS
 62
    2
 10
1116.2955286989061
 20
568.95996891764196
 11
1116.7576758344458
 21
575.04433342559173
  0
LINE
  8
_0-0_計極細
  6
CONTINUOUS
 62
    2
 10
1116.7576758344458
 20
575.04433342559173
 11
1117.3694865834079
 21
581.54755590698846
  0
LINE
  8
_0-0_計極細
  6
CONTINUOUS
 62
    2
 10
1117.3694865834079
 20
581.54755590698846
 11
1118.1202252248329
 21
588.29016509715939
  0
LINE
  8
_0-0_計極細
  6
CONTINUOUS
 62
    2
 10
1118.1202252248329
 20
588.29016509715939
 11
1118.983556979704
 21
595.09028685043234
  0
LINE
  8
_0-0_計極細
  6
CONTINUOUS
 62
    2
 10
1118.983556979704
 20
595.09028685043234
 11
1119.9206807902713
 21
601.7677614384836
  0
LINE
  8
_0-0_計極細
  6
CONTINUOUS
 62
    2
 10
1119.9206807902713
 20
601.7677614384836
 11
1120.8850641523773
 21
608.14777306044834
  0
LINE
  8
_0-0_計極細
  6
CONTINUOUS
 62
    2
 10
1120.8850641523773
 20
608.14777306044834
 11
1121.8277646317006
 21
614.06420226008663
  0
LINE
  8
_0-0_計極細
  6
CONTINUOUS
 62
    2
 10
1121.8277646317006
 20
614.06420226008663
 11
1122.7023247635473
 21
619.36291318820213
  0
LINE
  8
_0-0_計極細
  6
CONTINUOUS
 62
    2
 10
1122.7023247635473
 20
619.36291318820213
 11
1123.4684542381337
 21
623.90511409380201
  0
LINE
  8
_0-0_計極細
  6
CONTINUOUS
 62
    2
 10
1123.4684542381337
 20
623.90511409380201
 11
1124.0940969504795
 21
627.57080490936471
  0
LINE
  8
_0-0_計極細
  6
CONTINUOUS
 62
    2
 10
1124.0940969504795
 20
627.57080490936471
 11
1124.555917582918
 21
630.262186069922
  0
LINE
  8
_0-0_計極細
  6
CONTINUOUS
 62
    2
 10
1124.555917582918
 20
630.262186069922
 11
1124.8386214295317
 21
631.90678636811242
  0
LINE
  8
_0-0_計極細
  6
CONTINUOUS
 62
    2
 10
1124.8386214295317
 20
631.90678636811242
 11
1124.9337498636728
 21
632.46000651416534
  0
LINE
  8
_0-1_計細線
  6
CONTINUOUS
 62
    3
 10
1164.9337498636719
 20
485.46000651416699
 11
1121.1322091889992
 21
485.46000651416699
  0
LINE
  8
_0-1_計細線
  6
CONTINUOUS
 62
    3
 10
471.43374986367286
 20
602.96000651416693
 11
471.43374986367286
 21
603.46000651416693
  0
LINE
  8
_0-1_計細線
  6
CONTINUOUS
 62
    3
 10
471.43374986367286
 20
596.46000651416693
 11
471.43374986367286
 21
590.46000651416693
  0
LINE
  8
_0-1_計細線
  6
CONTINUOUS
 62
    3
 10
471.43374986367286
 20
583.46000651416693
 11
471.43374986367286
 21
577.46000651416693
  0
LINE
  8
_0-1_計細線
  6
CONTINUOUS
 62
    3
 10
471.43374986367286
 20
570.46000651416693
 11
471.43374986367286
 21
564.46000651416693
  0
LINE
  8
_0-1_計細線
  6
CONTINUOUS
 62
    3
 10
471.43374986367286
 20
557.46000651416693
 11
471.43374986367286
 21
551.46000651416693
  0
LINE
  8
_0-1_計細線
  6
CONTINUOUS
 62
    3
 10
471.43374986367286
 20
531.46000651416693
 11
471.43374986367286
 21
525.46000651416693
  0
LINE
  8
_0-1_計細線
  6
CONTINUOUS
 62
    3
 10
471.43374986367286
 20
544.46000651416693
 11
471.43374986367286
 21
538.46000651416693
  0
ARC
  8
_0-1_計細線
  6
CONTINUOUS
 62
    3
 10
271.87124986368349
 20
462.96000651416875
 40
15.06249999999028
 50
330.13716564369918
 51
29.862834356288111
  0
ARC
  8
_0-1_計細線
  6
CONTINUOUS
 62
    3
 10
297.99624986363983
 20
477.96000651415739
 40
15.062499999975882
 50
150.13716564363008
 51
209.8628343563071
  0
LINE
  8
_0-1_計細線
  6
CONTINUOUS
 62
    3
 10
471.43374986367286
 20
492.46000651416693
 11
471.43374986367286
 21
486.46000651416699
  0
LINE
  8
_0-1_計細線
  6
CONTINUOUS
 62
    3
 10
471.43374986367286
 20
479.46000651416693
 11
471.43374986367286
 21
473.46000651416693
  0
LINE
  8
_0-1_計細線
  6
CONTINUOUS
 62
    3
 10
471.43374986367286
 20
466.46000651416699
 11
471.43374986367286
 21
460.46000651416699
  0
LINE
  8
_0-1_計細線
  6
CONTINUOUS
 62
    3
 10
471.43374986367286
 20
505.46000651416699
 11
471.43374986367286
 21
499.46000651416693
  0
LINE
  8
_0-1_計細線
  6
CONTINUOUS
 62
    3
 10
471.43374986367286
 20
518.46000651416693
 11
471.43374986367286
 21
512.46000651416693
  0
LINE
  8
_0-0_計極細
  6
CONTINUOUS
 62
    2
 10
324.93374986367257
 20
460.46000651416534
 11
325.02887829781366
 21
461.07971427547824
  0
LINE
  8
_0-0_計極細
  6
CONTINUOUS
 62
    2
 10
325.02887829781366
 20
461.07971427547824
 11
325.31158214442718
 21
462.92190328366735
  0
LINE
  8
_0-0_計極細
  6
CONTINUOUS
 62
    2
 10
325.31158214442718
 20
462.92190328366735
 11
325.77340277686625
 21
465.93606230560675
  0
LINE
  8
_0-0_計極細
  6
CONTINUOUS
 62
    2
 10
325.77340277686625
 20
465.93606230560675
 11
326.39904548921197
 21
470.03903028571216
  0
LINE
  8
_0-0_計極細
  6
CONTINUOUS
 62
    2
 10
326.39904548921197
 20
470.03903028571216
 11
327.16517496379799
 21
475.11669802838838
  0
LINE
  8
_0-0_計極細
  6
CONTINUOUS
 62
    2
 10
327.16517496379799
 20
475.11669802838838
 11
328.03973509564469
 21
481.02666066155797
  0
LINE
  8
_0-0_計極細
  6
CONTINUOUS
 62
    2
 10
328.03973509564469
 20
481.02666066155797
 11
328.98243557496789
 21
487.60196654029306
  0
LINE
  8
_0-0_計極細
  6
CONTINUOUS
 62
    2
 10
328.98243557496789
 20
487.60196654029306
 11
329.946818937074
 21
494.65600954437491
  0
LINE
  8
_0-0_計極細
  6
CONTINUOUS
 62
    2
 10
329.946818937074
 20
494.65600954437491
 11
330.88394274764136
 21
501.98846313981193
  0
LINE
  8
_0-0_計極細
  6
CONTINUOUS
 62
    2
 10
330.88394274764136
 20
501.98846313981193
 11
331.7472745025122
 21
509.3919888077798
  0
LINE
  8
_0-0_計極細
  6
CONTINUOUS
 62
    2
 10
331.7472745025122
 20
509.3919888077798
 11
332.49801314393744
 21
516.65930780109716
  0
LINE
  8
_0-0_計極細
  6
CONTINUOUS
 62
    2
 10
332.49801314393744
 20
516.65930780109716
 11
333.10982389289956
 21
523.59013994574707
  0
LINE
  8
_0-0_計極細
  6
CONTINUOUS
 62
    2
 10
333.10982389289956
 20
523.59013994574707
 11
333.57197102843907
 21
529.99751051617068
  0
LINE
  8
_0-0_計極細
  6
CONTINUOUS
 62
    2
 10
333.57197102843907
 20
529.99751051617068
 11
333.89007249721453
 21
535.71301178858948
  0
LINE
  8
_0-0_計極細
  6
CONTINUOUS
 62
    2
 10
333.89007249721453
 20
535.71301178858948
 11
334.08413891993143
 21
540.59076502389212
  0
LINE
  8
_0-0_計極細
  6
CONTINUOUS
 62
    2
 10
334.08413891993143
 20
540.59076502389212
 11
334.18410609975297
 21
544.5100291888682
  0
LINE
  8
_0-0_計極細
  6
CONTINUOUS
 62
    2
 10
334.18410609975297
 20
544.5100291888682
 11
334.22360381965797
 21
547.37660224674994
  0
LINE
  8
_0-0_計極細
  6
CONTINUOUS
 62
    2
 10
334.22360381965797
 20
547.37660224674994
 11
334.23310261431595
 21
549.12331637119121
  0
LINE
  8
_0-0_計極細
  6
CONTINUOUS
 62
    2
 10
334.23310261431595
 20
549.12331637119121
 11
334.23374986367259
 21
549.71000651416534
  0
LINE
  8
_0-0_計極細
  6
CONTINUOUS
 62
    2
 10
334.23374986367259
 20
549.71000651416534
 11
334.23310261431595
 21
550.29624427855708
  0
LINE
  8
_0-0_計極細
  6
CONTINUOUS
 62
    2
 10
334.23310261431595
 20
550.29624427855708
 11
334.22360381965797
 21
552.03631946049529
  0
LINE
  8
_0-0_計極細
  6
CONTINUOUS
 62
    2
 10
334.22360381965797
 20
552.03631946049529
 11
334.18410609975297
 21
554.87528658511019
  0
LINE
  8
_0-0_計極細
  6
CONTINUOUS
 62
    2
 10
334.18410609975297
 20
554.87528658511019
 11
334.08413891993143
 21
558.72468121580232
  0
LINE
  8
_0-0_計極細
  6
CONTINUOUS
 62
    2
 10
334.08413891993143
 20
558.72468121580232
 11
333.89007249721453
 21
563.4667966287758
  0
LINE
  8
_0-0_計極細
  6
CONTINUOUS
 62
    2
 10
333.89007249721453
 20
563.4667966287758
 11
333.57197102843907
 21
568.95996891764196
  0
LINE
  8
_0-0_計極細
  6
CONTINUOUS
 62
    2
 10
333.57197102843907
 20
568.95996891764196
 11
333.10982389289956
 21
575.04433342559173
  0
LINE
  8
_0-0_計極細
  6
CONTINUOUS
 62
    2
 10
333.10982389289956
 20
575.04433342559173
 11
332.49801314393744
 21
581.54755590698846
  0
LINE
  8
_0-0_計極細
  6
CONTINUOUS
 62
    2
 10
332.49801314393744
 20
581.54755590698846
 11
331.74727450251225
 21
588.29016509715939
  0
LINE
  8
_0-0_計極細
  6
CONTINUOUS
 62
    2
 10
331.74727450251225
 20
588.29016509715939
 11
330.88394274764136
 21
595.09028685043234
  0
LINE
  8
_0-0_計極細
  6
CONTINUOUS
 62
    2
 10
330.88394274764136
 20
595.09028685043234
 11
329.946818937074
 21
601.7677614384836
  0
LINE
  8
_0-0_計極細
  6
CONTINUOUS
 62
    2
 10
329.946818937074
 20
601.7677614384836
 11
328.98243557496801
 21
608.14777306044834
  0
LINE
  8
_0-0_計極細
  6
CONTINUOUS
 62
    2
 10
328.98243557496801
 20
608.14777306044834
 11
328.03973509564469
 21
614.06420226008663
  0
LINE
  8
_0-0_計極細
  6
CONTINUOUS
 62
    2
 10
328.03973509564469
 20
614.06420226008663
 11
327.16517496379799
 21
619.36291318820213
  0
LINE
  8
_0-0_計極細
  6
CONTINUOUS
 62
    2
 10
327.16517496379799
 20
619.36291318820213
 11
326.39904548921197
 21
623.90511409380201
  0
LINE
  8
_0-0_計極細
  6
CONTINUOUS
 62
    2
 10
326.39904548921197
 20
623.90511409380201
 11
325.77340277686619
 21
627.57080490936471
  0
LINE
  8
_0-0_計極細
  6
CONTINUOUS
 62
    2
 10
325.77340277686619
 20
627.57080490936471
 11
325.31158214442718
 21
630.262186069922
  0
LINE
  8
_0-0_計極細
  6
CONTINUOUS
 62
    2
 10
325.31158214442718
 20
630.262186069922
 11
325.02887829781366
 21
631.90678636811242
  0
LINE
  8
_0-0_計極細
  6
CONTINUOUS
 62
    2
 10
325.02887829781366
 20
631.90678636811242
 11
324.93374986367257
 21
632.46000651416534
  0
LINE
  8
_0-1_計細線
  6
CONTINUOUS
 62
    3
 10
284.93374986367326
 20
485.46000651416699
 11
328.73529053834596
 21
485.46000651416699
  0
LINE
  8
_0-1_計細線
  6
CONTINUOUS
 62
    3
 10
471.43374986367286
 20
804.46000651416693
 11
474.4337498636728
 21
804.46000651416693
  0
LINE
  8
_0-1_計細線
  6
CONTINUOUS
 62
    3
 10
474.4337498636728
 20
804.46000651416693
 11
474.4337498636728
 21
460.46000651416699
  0
LINE
  8
_0-1_計細線
  6
CONTINUOUS
 62
    3
 10
474.4337498636728
 20
460.46000651416699
 11
471.43374986367286
 21
460.46000651416699
  0
LINE
  8
_0-1_計細線
  6
CONTINUOUS
 62
    3
 10
471.43374986367286
 20
460.46000651416699
 11
471.43374986367286
 21
804.46000651416693
  0
LINE
  8
_0-1_計細線
  6
CONTINUOUS
 62
    3
 10
978.43374986367235
 20
804.46000651416693
 11
975.4337498636728
 21
804.46000651416693
  0
LINE
  8
_0-1_計細線
  6
CONTINUOUS
 62
    3
 10
975.4337498636728
 20
804.46000651416693
 11
975.4337498636728
 21
460.46000651416699
  0
LINE
  8
_0-1_計細線
  6
CONTINUOUS
 62
    3
 10
975.4337498636728
 20
460.46000651416699
 11
978.43374986367235
 21
460.46000651416699
  0
LINE
  8
_0-1_計細線
  6
CONTINUOUS
 62
    3
 10
978.43374986367235
 20
460.46000651416699
 11
978.43374986367235
 21
804.46000651416693
  0
LINE
  8
_0-1_計細線
  6
CONTINUOUS
 62
    3
 10
974.43374986367292
 20
804.46000651416693
 11
971.43374986367235
 21
804.46000651416693
  0
LINE
  8
_0-1_計細線
  6
CONTINUOUS
 62
    3
 10
971.43374986367235
 20
804.46000651416693
 11
971.43374986367235
 21
460.46000651416699
  0
LINE
  8
_0-1_計細線
  6
CONTINUOUS
 62
    3
 10
971.43374986367235
 20
460.46000651416699
 11
974.43374986367292
 21
460.46000651416699
  0
LINE
  8
_0-1_計細線
  6
CONTINUOUS
 62
    3
 10
974.43374986367292
 20
460.46000651416699
 11
974.43374986367292
 21
804.46000651416693
  0
LINE
  8
_0-1_計細線
  6
CONTINUOUS
 62
    3
 10
478.4337498636728
 20
804.46000651416693
 11
475.4337498636728
 21
804.46000651416693
  0
LINE
  8
_0-1_計細線
  6
CONTINUOUS
 62
    3
 10
475.4337498636728
 20
804.46000651416693
 11
475.4337498636728
 21
460.46000651416699
  0
LINE
  8
_0-1_計細線
  6
CONTINUOUS
 62
    3
 10
475.4337498636728
 20
460.46000651416699
 11
478.4337498636728
 21
460.46000651416699
  0
LINE
  8
_0-1_計細線
  6
CONTINUOUS
 62
    3
 10
478.4337498636728
 20
460.46000651416699
 11
478.4337498636728
 21
804.46000651416693
  0
LINE
  8
_0-0_計極細
  6
CENTER2
 62
    2
 10
1074.9337498636728
 20
798.46000651416705
 11
1074.9337498636728
 21
466.46000651416699
  0
LINE
  8
_0-0_計極細
  6
CENTER2
 62
    2
 10
874.93374986367246
 20
798.46000651416705
 11
874.93374986367246
 21
466.46000651416699
  0
LINE
  8
_0-0_計極細
  6
CENTER2
 62
    2
 10
774.93374986367246
 20
798.46000651416705
 11
774.93374986367246
 21
466.46000651416699
  0
LINE
  8
_0-0_計極細
  6
CENTER2
 62
    2
 10
674.9337498636728
 20
798.46000651416705
 11
674.9337498636728
 21
466.46000651416699
  0
LINE
  8
_0-0_計極細
  6
CENTER2
 62
    2
 10
574.9337498636728
 20
798.46000651416705
 11
574.9337498636728
 21
466.46000651416699
  0
LINE
  8
_0-5_寸法線
  6
CONTINUOUS
 62
    7
 10
272.93374986367053
 20
455.46000651416563
 11
227.93374986367056
 21
455.46000651416563
  0
LINE
  8
_0-5_寸法線
  6
CONTINUOUS
 62
    7
 10
232.93374986367056
 20
455.46000651416563
 11
230.34555941264534
 21
465.11926477705629
  0
LINE
  8
_0-5_寸法線
  6
CONTINUOUS
 62
    7
 10
232.93374986367056
 20
455.46000651416563
 11
235.52194031469577
 21
465.11926477705629
  0
LINE
  8
_0-5_寸法線
  6
CONTINUOUS
 62
    7
 10
272.93374986367053
 20
485.46000651416705
 11
227.93374986367056
 21
485.46000651416716
  0
LINE
  8
_0-5_寸法線
  6
CONTINUOUS
 62
    7
 10
232.93374986367056
 20
485.46000651416716
 11
235.52194031469568
 21
475.80074825127645
  0
LINE
  8
_0-5_寸法線
  6
CONTINUOUS
 62
    7
 10
232.93374986367056
 20
485.46000651416716
 11
230.34555941264529
 21
475.80074825127656
  0
LINE
  8
_0-5_寸法線
  6
CONTINUOUS
 62
    7
 10
232.93374986367056
 20
455.46000651416563
 11
232.93374986367056
 21
485.46000651416716
  0
TEXT
  8
_0-5_寸法線
 62
    7
 10
232.93374986367056
 20
462.96000651416648
 40
15
 41
1
 50
90
  1
30
  0
LINE
  8
_0-5_寸法線
  6
CONTINUOUS
 62
    7
 10
232.93374986367056
 20
485.46000651416716
 11
230.34555941264534
 21
495.11926477705788
  0
LINE
  8
_0-5_寸法線
  6
CONTINUOUS
 62
    7
 10
232.93374986367056
 20
485.46000651416716
 11
235.52194031469577
 21
495.11926477705788
  0
LINE
  8
_0-5_寸法線
  6
CONTINUOUS
 62
    7
 10
272.93374986367053
 20
779.46000651416693
 11
227.93374986367056
 21
779.46000651416693
  0
LINE
  8
_0-5_寸法線
  6
CONTINUOUS
 62
    7
 10
232.93374986367056
 20
779.46000651416693
 11
235.52194031469568
 21
769.80074825127633
  0
LINE
  8
_0-5_寸法線
  6
CONTINUOUS
 62
    7
 10
232.93374986367056
 20
779.46000651416693
 11
230.34555941264529
 21
769.80074825127633
  0
LINE
  8
_0-5_寸法線
  6
CONTINUOUS
 62
    7
 10
232.93374986367056
 20
485.46000651416716
 11
232.93374986367056
 21
779.46000651416693
  0
TEXT
  8
_0-5_寸法線
 62
    7
 10
232.93374986367056
 20
621.21000651416716
 40
15
 41
1
 50
90
  1
294
  0
LINE
  8
_0-5_寸法線
  6
CONTINUOUS
 62
    7
 10
232.93374986367056
 20
779.46000651416693
 11
230.34555941264534
 21
789.11926477705777
  0
LINE
  8
_0-5_寸法線
  6
CONTINUOUS
 62
    7
 10
232.93374986367056
 20
779.46000651416693
 11
235.52194031469577
 21
789.11926477705777
  0
LINE
  8
_0-5_寸法線
  6
CONTINUOUS
 62
    7
 10
272.93374986367053
 20
809.46000651416568
 11
227.93374986367056
 21
809.46000651416568
  0
LINE
  8
_0-5_寸法線
  6
CONTINUOUS
 62
    7
 10
232.93374986367056
 20
809.46000651416568
 11
235.52194031469568
 21
799.80074825127485
  0
LINE
  8
_0-5_寸法線
  6
CONTINUOUS
 62
    7
 10
232.93374986367056
 20
809.46000651416568
 11
230.34555941264529
 21
799.80074825127485
  0
LINE
  8
_0-5_寸法線
  6
CONTINUOUS
 62
    7
 10
232.93374986367056
 20
779.46000651416693
 11
232.93374986367056
 21
809.46000651416568
  0
TEXT
  8
_0-5_寸法線
 62
    7
 10
232.93374986367056
 20
786.96000651416625
 40
15
 41
1
 50
90
  1
30
  0
LINE
  8
_0-5_寸法線
  6
CONTINUOUS
 62
    7
 10
1176.9337498636755
 20
455.46000651416563
 11
1256.9337498636755
 21
455.46000651416534
  0
LINE
  8
_0-5_寸法線
  6
CONTINUOUS
 62
    7
 10
1251.9337498636755
 20
455.46000651416534
 11
1249.3455594126503
 21
465.119264777056
  0
LINE
  8
_0-5_寸法線
  6
CONTINUOUS
 62
    7
 10
1251.9337498636755
 20
455.46000651416534
 11
1254.5219403147007
 21
465.119264777056
  0
LINE
  8
_0-5_寸法線
  6
CONTINUOUS
 62
    7
 10
1176.9337498636755
 20
809.46000651416568
 11
1256.9337498636755
 21
809.46000651416534
  0
LINE
  8
_0-5_寸法線
  6
CONTINUOUS
 62
    7
 10
1251.9337498636755
 20
809.46000651416534
 11
1254.5219403147007
 21
799.80074825127474
  0
LINE
  8
_0-5_寸法線
  6
CONTINUOUS
 62
    7
 10
1251.9337498636755
 20
809.46000651416534
 11
1249.3455594126503
 21
799.80074825127474
  0
LINE
  8
_0-5_寸法線
  6
CONTINUOUS
 62
    7
 10
1251.9337498636755
 20
455.46000651416534
 11
1251.9337498636755
 21
809.46000651416534
  0
TEXT
  8
_0-5_寸法線
 62
    7
 10
1251.9337498636755
 20
621.21000651416512
 40
15
 41
1
 50
90
  1
354
  0
LINE
  8
_0-0_計極細
  6
CENTER2
 62
    2
 10
374.93374986367257
 20
798.46000651416705
 11
374.93374986367257
 21
466.46000651416699
  0
LINE
  8
_0-1_計細線
  6
CONTINUOUS
 62
    3
 10
478.4337498636728
 20
804.46000651416693
 11
478.4337498636728
 21
796.46000651416728
  0
LINE
  8
_0-1_計細線
  6
CONTINUOUS
 62
    3
 10
478.4337498636728
 20
796.46000651416728
 11
971.43374986367235
 21
796.46000651416728
  0
LINE
  8
_0-1_計細線
  6
CONTINUOUS
 62
    3
 10
971.43374986367235
 20
796.46000651416728
 11
971.43374986367235
 21
804.46000651416693
  0
LINE
  8
_0-1_計細線
  6
CONTINUOUS
 62
    3
 10
971.43374986367235
 20
804.46000651416693
 11
478.4337498636728
 21
804.46000651416693
  0
LINE
  8
_0-1_計細線
  6
CONTINUOUS
 62
    3
 10
478.4337498636728
 20
790.46000651416705
 11
478.4337498636728
 21
782.46000651416716
  0
LINE
  8
_0-1_計細線
  6
CONTINUOUS
 62
    3
 10
478.4337498636728
 20
782.46000651416716
 11
971.43374986367235
 21
782.46000651416716
  0
LINE
  8
_0-1_計細線
  6
CONTINUOUS
 62
    3
 10
971.43374986367235
 20
782.46000651416716
 11
971.43374986367235
 21
790.46000651416705
  0
LINE
  8
_0-1_計細線
  6
CONTINUOUS
 62
    3
 10
971.43374986367235
 20
790.46000651416705
 11
478.4337498636728
 21
790.46000651416705
  0
LINE
  8
_0-1_計細線
  6
CONTINUOUS
 62
    3
 10
478.4337498636728
 20
776.46000651416728
 11
478.4337498636728
 21
768.46000651416773
  0
LINE
  8
_0-1_計細線
  6
CONTINUOUS
 62
    3
 10
478.4337498636728
 20
768.46000651416773
 11
971.43374986367235
 21
768.46000651416773
  0
LINE
  8
_0-1_計細線
  6
CONTINUOUS
 62
    3
 10
971.43374986367235
 20
768.46000651416773
 11
971.43374986367235
 21
776.46000651416728
  0
LINE
  8
_0-1_計細線
  6
CONTINUOUS
 62
    3
 10
971.43374986367235
 20
776.46000651416728
 11
478.4337498636728
 21
776.46000651416728
  0
LINE
  8
_0-1_計細線
  6
CONTINUOUS
 62
    3
 10
478.4337498636728
 20
762.46000651416716
 11
478.4337498636728
 21
754.46000651416739
  0
LINE
  8
_0-1_計細線
  6
CONTINUOUS
 62
    3
 10
478.4337498636728
 20
754.46000651416739
 11
971.43374986367235
 21
754.46000651416739
  0
LINE
  8
_0-1_計細線
  6
CONTINUOUS
 62
    3
 10
971.43374986367235
 20
754.46000651416739
 11
971.43374986367235
 21
762.46000651416716
  0
LINE
  8
_0-1_計細線
  6
CONTINUOUS
 62
    3
 10
971.43374986367235
 20
762.46000651416716
 11
478.4337498636728
 21
762.46000651416716
  0
LINE
  8
_0-1_計細線
  6
CONTINUOUS
 62
    3
 10
478.4337498636728
 20
748.46000651416716
 11
478.4337498636728
 21
740.4600065141675
  0
LINE
  8
_0-1_計細線
  6
CONTINUOUS
 62
    3
 10
478.4337498636728
 20
740.4600065141675
 11
971.43374986367235
 21
740.4600065141675
  0
LINE
  8
_0-1_計細線
  6
CONTINUOUS
 62
    3
 10
971.43374986367235
 20
740.4600065141675
 11
971.43374986367235
 21
748.46000651416716
  0
LINE
  8
_0-1_計細線
  6
CONTINUOUS
 62
    3
 10
971.43374986367235
 20
748.46000651416716
 11
478.4337498636728
 21
748.46000651416716
  0
LINE
  8
_0-1_計細線
  6
CONTINUOUS
 62
    3
 10
478.4337498636728
 20
734.46000651416693
 11
478.4337498636728
 21
726.46000651416716
  0
LINE
  8
_0-1_計細線
  6
CONTINUOUS
 62
    3
 10
478.4337498636728
 20
726.46000651416716
 11
971.43374986367235
 21
726.46000651416716
  0
LINE
  8
_0-1_計細線
  6
CONTINUOUS
 62
    3
 10
971.43374986367235
 20
726.46000651416716
 11
971.43374986367235
 21
734.46000651416693
  0
LINE
  8
_0-1_計細線
  6
CONTINUOUS
 62
    3
 10
971.43374986367235
 20
734.46000651416693
 11
478.4337498636728
 21
734.46000651416693
  0
LINE
  8
_0-1_計細線
  6
CONTINUOUS
 62
    3
 10
478.4337498636728
 20
720.46000651416693
 11
478.4337498636728
 21
712.46000651416716
  0
LINE
  8
_0-1_計細線
  6
CONTINUOUS
 62
    3
 10
478.4337498636728
 20
712.46000651416716
 11
971.43374986367235
 21
712.46000651416716
  0
LINE
  8
_0-1_計細線
  6
CONTINUOUS
 62
    3
 10
971.43374986367235
 20
712.46000651416716
 11
971.43374986367235
 21
720.46000651416693
  0
LINE
  8
_0-1_計細線
  6
CONTINUOUS
 62
    3
 10
971.43374986367235
 20
720.46000651416693
 11
478.4337498636728
 21
720.46000651416693
  0
LINE
  8
_0-0_計極細
  6
CONTINUOUS
 62
    2
 10
577.4337498636728
 20
796.46000651416728
 11
577.4337498636728
 21
790.46000651416705
  0
LINE
  8
_0-0_計極細
  6
CONTINUOUS
 62
    2
 10
572.4337498636728
 20
790.46000651416671
 11
572.4337498636728
 21
796.46000651416728
  0
LINE
  8
_0-0_計極細
  6
CONTINUOUS
 62
    2
 10
577.4337498636728
 20
782.46000651416716
 11
577.4337498636728
 21
776.46000651416671
  0
LINE
  8
_0-0_計極細
  6
CONTINUOUS
 62
    2
 10
572.4337498636728
 20
776.46000651416671
 11
572.4337498636728
 21
782.46000651416716
  0
LINE
  8
_0-0_計極細
  6
CONTINUOUS
 62
    2
 10
577.4337498636728
 20
768.46000651416716
 11
577.4337498636728
 21
762.46000651416682
  0
LINE
  8
_0-0_計極細
  6
CONTINUOUS
 62
    2
 10
572.4337498636728
 20
762.46000651416682
 11
572.4337498636728
 21
768.46000651416716
  0
LINE
  8
_0-0_計極細
  6
CONTINUOUS
 62
    2
 10
577.4337498636728
 20
754.46000651416671
 11
577.4337498636728
 21
748.46000651416648
  0
LINE
  8
_0-0_計極細
  6
CONTINUOUS
 62
    2
 10
572.4337498636728
 20
748.46000651416625
 11
572.4337498636728
 21
754.46000651416671
  0
LINE
  8
_0-0_計極細
  6
CONTINUOUS
 62
    2
 10
577.4337498636728
 20
740.46000651416671
 11
577.4337498636728
 21
734.46000651416648
  0
LINE
  8
_0-0_計極細
  6
CONTINUOUS
 62
    2
 10
572.4337498636728
 20
734.46000651416625
 11
572.4337498636728
 21
740.46000651416671
  0
LINE
  8
_0-0_計極細
  6
CONTINUOUS
 62
    2
 10
577.4337498636728
 20
726.46000651416671
 11
577.4337498636728
 21
720.46000651416648
  0
LINE
  8
_0-0_計極細
  6
CONTINUOUS
 62
    2
 10
572.4337498636728
 20
720.46000651416637
 11
572.4337498636728
 21
726.46000651416671
  0
LINE
  8
_0-0_計極細
  6
CONTINUOUS
 62
    2
 10
677.4337498636728
 20
796.46000651416728
 11
677.4337498636728
 21
790.46000651416705
  0
LINE
  8
_0-0_計極細
  6
CONTINUOUS
 62
    2
 10
672.4337498636728
 20
790.46000651416671
 11
672.4337498636728
 21
796.46000651416728
  0
LINE
  8
_0-0_計極細
  6
CONTINUOUS
 62
    2
 10
677.4337498636728
 20
782.46000651416716
 11
677.4337498636728
 21
776.46000651416671
  0
LINE
  8
_0-0_計極細
  6
CONTINUOUS
 62
    2
 10
672.4337498636728
 20
776.46000651416671
 11
672.4337498636728
 21
782.46000651416716
  0
LINE
  8
_0-0_計極細
  6
CONTINUOUS
 62
    2
 10
677.4337498636728
 20
768.46000651416716
 11
677.4337498636728
 21
762.46000651416682
  0
LINE
  8
_0-0_計極細
  6
CONTINUOUS
 62
    2
 10
672.4337498636728
 20
762.46000651416682
 11
672.4337498636728
 21
768.46000651416716
  0
LINE
  8
_0-0_計極細
  6
CONTINUOUS
 62
    2
 10
677.4337498636728
 20
754.46000651416671
 11
677.4337498636728
 21
748.46000651416648
  0
LINE
  8
_0-0_計極細
  6
CONTINUOUS
 62
    2
 10
672.4337498636728
 20
748.46000651416625
 11
672.4337498636728
 21
754.46000651416671
  0
LINE
  8
_0-0_計極細
  6
CONTINUOUS
 62
    2
 10
677.4337498636728
 20
740.46000651416671
 11
677.4337498636728
 21
734.46000651416648
  0
LINE
  8
_0-0_計極細
  6
CONTINUOUS
 62
    2
 10
672.4337498636728
 20
734.46000651416625
 11
672.4337498636728
 21
740.46000651416671
  0
LINE
  8
_0-0_計極細
  6
CONTINUOUS
 62
    2
 10
677.4337498636728
 20
726.46000651416671
 11
677.4337498636728
 21
720.46000651416648
  0
LINE
  8
_0-0_計極細
  6
CONTINUOUS
 62
    2
 10
672.4337498636728
 20
720.46000651416637
 11
672.4337498636728
 21
726.46000651416671
  0
LINE
  8
_0-0_計極細
  6
CONTINUOUS
 62
    2
 10
777.43374986367246
 20
796.46000651416728
 11
777.43374986367246
 21
790.46000651416705
  0
LINE
  8
_0-0_計極細
  6
CONTINUOUS
 62
    2
 10
772.43374986367246
 20
790.46000651416671
 11
772.43374986367246
 21
796.46000651416728
  0
LINE
  8
_0-0_計極細
  6
CONTINUOUS
 62
    2
 10
777.43374986367246
 20
782.46000651416716
 11
777.43374986367246
 21
776.46000651416671
  0
LINE
  8
_0-0_計極細
  6
CONTINUOUS
 62
    2
 10
772.43374986367246
 20
776.46000651416671
 11
772.43374986367246
 21
782.46000651416716
  0
LINE
  8
_0-0_計極細
  6
CONTINUOUS
 62
    2
 10
777.43374986367246
 20
768.46000651416716
 11
777.43374986367246
 21
762.46000651416682
  0
LINE
  8
_0-0_計極細
  6
CONTINUOUS
 62
    2
 10
772.43374986367246
 20
762.46000651416682
 11
772.43374986367246
 21
768.46000651416716
  0
LINE
  8
_0-0_計極細
  6
CONTINUOUS
 62
    2
 10
777.43374986367246
 20
754.46000651416671
 11
777.43374986367246
 21
748.46000651416648
  0
LINE
  8
_0-0_計極細
  6
CONTINUOUS
 62
    2
 10
772.43374986367246
 20
748.46000651416625
 11
772.43374986367246
 21
754.46000651416671
  0
LINE
  8
_0-0_計極細
  6
CONTINUOUS
 62
    2
 10
777.43374986367246
 20
740.46000651416671
 11
777.43374986367246
 21
734.46000651416648
  0
LINE
  8
_0-0_計極細
  6
CONTINUOUS
 62
    2
 10
772.43374986367246
 20
734.46000651416625
 11
772.43374986367246
 21
740.46000651416671
  0
LINE
  8
_0-0_計極細
  6
CONTINUOUS
 62
    2
 10
777.43374986367246
 20
726.46000651416671
 11
777.43374986367246
 21
720.46000651416648
  0
LINE
  8
_0-0_計極細
  6
CONTINUOUS
 62
    2
 10
772.43374986367246
 20
720.46000651416637
 11
772.43374986367246
 21
726.46000651416671
  0
LINE
  8
_0-0_計極細
  6
CONTINUOUS
 62
    2
 10
877.43374986367246
 20
796.46000651416728
 11
877.43374986367246
 21
790.46000651416705
  0
LINE
  8
_0-0_計極細
  6
CONTINUOUS
 62
    2
 10
872.43374986367246
 20
790.46000651416671
 11
872.43374986367246
 21
796.46000651416728
  0
LINE
  8
_0-0_計極細
  6
CONTINUOUS
 62
    2
 10
877.43374986367246
 20
782.46000651416716
 11
877.43374986367246
 21
776.46000651416671
  0
LINE
  8
_0-0_計極細
  6
CONTINUOUS
 62
    2
 10
872.43374986367246
 20
776.46000651416671
 11
872.43374986367246
 21
782.46000651416716
  0
LINE
  8
_0-0_計極細
  6
CONTINUOUS
 62
    2
 10
877.43374986367246
 20
768.46000651416716
 11
877.43374986367246
 21
762.46000651416682
  0
LINE
  8
_0-0_計極細
  6
CONTINUOUS
 62
    2
 10
872.43374986367246
 20
762.46000651416682
 11
872.43374986367246
 21
768.46000651416716
  0
LINE
  8
_0-0_計極細
  6
CONTINUOUS
 62
    2
 10
877.43374986367246
 20
754.46000651416671
 11
877.43374986367246
 21
748.46000651416648
  0
LINE
  8
_0-0_計極細
  6
CONTINUOUS
 62
    2
 10
872.43374986367246
 20
748.46000651416625
 11
872.43374986367246
 21
754.46000651416671
  0
LINE
  8
_0-0_計極細
  6
CONTINUOUS
 62
    2
 10
877.43374986367246
 20
740.46000651416671
 11
877.43374986367246
 21
734.46000651416648
  0
LINE
  8
_0-0_計極細
  6
CONTINUOUS
 62
    2
 10
872.43374986367246
 20
734.46000651416625
 11
872.43374986367246
 21
740.46000651416671
  0
LINE
  8
_0-0_計極細
  6
CONTINUOUS
 62
    2
 10
877.43374986367246
 20
726.46000651416671
 11
877.43374986367246
 21
720.46000651416648
  0
LINE
  8
_0-0_計極細
  6
CONTINUOUS
 62
    2
 10
872.43374986367246
 20
720.46000651416637
 11
872.43374986367246
 21
726.46000651416671
  0
LINE
  8
_0-1_計細線
  6
CONTINUOUS
 62
    3
 10
478.4337498636728
 20
706.46000651416693
 11
478.4337498636728
 21
698.46000651416716
  0
LINE
  8
_0-1_計細線
  6
CONTINUOUS
 62
    3
 10
478.4337498636728
 20
698.46000651416716
 11
971.43374986367235
 21
698.46000651416716
  0
LINE
  8
_0-1_計細線
  6
CONTINUOUS
 62
    3
 10
971.43374986367235
 20
698.46000651416716
 11
971.43374986367235
 21
706.46000651416693
  0
LINE
  8
_0-1_計細線
  6
CONTINUOUS
 62
    3
 10
971.43374986367235
 20
706.46000651416693
 11
478.4337498636728
 21
706.46000651416693
  0
LINE
  8
_0-0_計極細
  6
CONTINUOUS
 62
    2
 10
577.4337498636728
 20
712.46000651416682
 11
577.4337498636728
 21
706.46000651416659
  0
LINE
  8
_0-0_計極細
  6
CONTINUOUS
 62
    2
 10
572.4337498636728
 20
706.46000651416625
 11
572.4337498636728
 21
712.46000651416682
  0
LINE
  8
_0-0_計極細
  6
CONTINUOUS
 62
    2
 10
677.4337498636728
 20
712.46000651416682
 11
677.4337498636728
 21
706.46000651416659
  0
LINE
  8
_0-0_計極細
  6
CONTINUOUS
 62
    2
 10
672.4337498636728
 20
706.46000651416625
 11
672.4337498636728
 21
712.46000651416682
  0
LINE
  8
_0-0_計極細
  6
CONTINUOUS
 62
    2
 10
777.43374986367246
 20
712.46000651416682
 11
777.43374986367246
 21
706.46000651416659
  0
LINE
  8
_0-0_計極細
  6
CONTINUOUS
 62
    2
 10
772.43374986367246
 20
706.46000651416625
 11
772.43374986367246
 21
712.46000651416682
  0
LINE
  8
_0-0_計極細
  6
CONTINUOUS
 62
    2
 10
877.43374986367246
 20
712.46000651416682
 11
877.43374986367246
 21
706.46000651416659
  0
LINE
  8
_0-0_計極細
  6
CONTINUOUS
 62
    2
 10
872.43374986367246
 20
706.46000651416625
 11
872.43374986367246
 21
712.46000651416682
  0
LINE
  8
_0-1_計細線
  6
CONTINUOUS
 62
    3
 10
478.4337498636728
 20
692.46000651416693
 11
478.4337498636728
 21
684.46000651416728
  0
LINE
  8
_0-1_計細線
  6
CONTINUOUS
 62
    3
 10
478.4337498636728
 20
684.46000651416728
 11
971.43374986367235
 21
684.46000651416728
  0
LINE
  8
_0-1_計細線
  6
CONTINUOUS
 62
    3
 10
971.43374986367235
 20
684.46000651416728
 11
971.43374986367235
 21
692.46000651416693
  0
LINE
  8
_0-1_計細線
  6
CONTINUOUS
 62
    3
 10
971.43374986367235
 20
692.46000651416693
 11
478.4337498636728
 21
692.46000651416693
  0
LINE
  8
_0-0_計極細
  6
CONTINUOUS
 62
    2
 10
577.4337498636728
 20
698.46000651416671
 11
577.4337498636728
 21
692.46000651416648
  0
LINE
  8
_0-0_計極細
  6
CONTINUOUS
 62
    2
 10
572.4337498636728
 20
692.46000651416625
 11
572.4337498636728
 21
698.46000651416671
  0
LINE
  8
_0-0_計極細
  6
CONTINUOUS
 62
    2
 10
677.4337498636728
 20
698.46000651416671
 11
677.4337498636728
 21
692.46000651416648
  0
LINE
  8
_0-0_計極細
  6
CONTINUOUS
 62
    2
 10
672.4337498636728
 20
692.46000651416625
 11
672.4337498636728
 21
698.46000651416671
  0
LINE
  8
_0-0_計極細
  6
CONTINUOUS
 62
    2
 10
777.43374986367246
 20
698.46000651416671
 11
777.43374986367246
 21
692.46000651416648
  0
LINE
  8
_0-0_計極細
  6
CONTINUOUS
 62
    2
 10
772.43374986367246
 20
692.46000651416625
 11
772.43374986367246
 21
698.46000651416671
  0
LINE
  8
_0-0_計極細
  6
CONTINUOUS
 62
    2
 10
877.43374986367246
 20
698.46000651416671
 11
877.43374986367246
 21
692.46000651416648
  0
LINE
  8
_0-0_計極細
  6
CONTINUOUS
 62
    2
 10
872.43374986367246
 20
692.46000651416625
 11
872.43374986367246
 21
698.46000651416671
  0
LINE
  8
_0-1_計細線
  6
CONTINUOUS
 62
    3
 10
478.4337498636728
 20
678.46000651416705
 11
478.4337498636728
 21
670.46000651416716
  0
LINE
  8
_0-1_計細線
  6
CONTINUOUS
 62
    3
 10
478.4337498636728
 20
670.46000651416716
 11
971.43374986367235
 21
670.46000651416716
  0
LINE
  8
_0-1_計細線
  6
CONTINUOUS
 62
    3
 10
971.43374986367235
 20
670.46000651416716
 11
971.43374986367235
 21
678.46000651416705
  0
LINE
  8
_0-1_計細線
  6
CONTINUOUS
 62
    3
 10
971.43374986367235
 20
678.46000651416705
 11
478.4337498636728
 21
678.46000651416705
  0
LINE
  8
_0-0_計極細
  6
CONTINUOUS
 62
    2
 10
577.4337498636728
 20
684.46000651416671
 11
577.4337498636728
 21
678.46000651416648
  0
LINE
  8
_0-0_計極細
  6
CONTINUOUS
 62
    2
 10
572.4337498636728
 20
678.46000651416625
 11
572.4337498636728
 21
684.46000651416671
  0
LINE
  8
_0-0_計極細
  6
CONTINUOUS
 62
    2
 10
677.4337498636728
 20
684.46000651416671
 11
677.4337498636728
 21
678.46000651416648
  0
LINE
  8
_0-0_計極細
  6
CONTINUOUS
 62
    2
 10
672.4337498636728
 20
678.46000651416625
 11
672.4337498636728
 21
684.46000651416671
  0
LINE
  8
_0-0_計極細
  6
CONTINUOUS
 62
    2
 10
777.43374986367246
 20
684.46000651416671
 11
777.43374986367246
 21
678.46000651416648
  0
LINE
  8
_0-0_計極細
  6
CONTINUOUS
 62
    2
 10
772.43374986367246
 20
678.46000651416625
 11
772.43374986367246
 21
684.46000651416671
  0
LINE
  8
_0-0_計極細
  6
CONTINUOUS
 62
    2
 10
877.43374986367246
 20
684.46000651416671
 11
877.43374986367246
 21
678.46000651416648
  0
LINE
  8
_0-0_計極細
  6
CONTINUOUS
 62
    2
 10
872.43374986367246
 20
678.46000651416625
 11
872.43374986367246
 21
684.46000651416671
  0
LINE
  8
_0-1_計細線
  6
CONTINUOUS
 62
    3
 10
478.4337498636728
 20
664.46000651416693
 11
478.4337498636728
 21
656.46000651416716
  0
LINE
  8
_0-1_計細線
  6
CONTINUOUS
 62
    3
 10
478.4337498636728
 20
656.46000651416716
 11
971.43374986367235
 21
656.46000651416716
  0
LINE
  8
_0-1_計細線
  6
CONTINUOUS
 62
    3
 10
971.43374986367235
 20
656.46000651416716
 11
971.43374986367235
 21
664.46000651416693
  0
LINE
  8
_0-1_計細線
  6
CONTINUOUS
 62
    3
 10
971.43374986367235
 20
664.46000651416693
 11
478.4337498636728
 21
664.46000651416693
  0
LINE
  8
_0-0_計極細
  6
CONTINUOUS
 62
    2
 10
577.4337498636728
 20
670.46000651416671
 11
577.4337498636728
 21
664.46000651416648
  0
LINE
  8
_0-0_計極細
  6
CONTINUOUS
 62
    2
 10
572.4337498636728
 20
664.46000651416625
 11
572.4337498636728
 21
670.46000651416671
  0
LINE
  8
_0-0_計極細
  6
CONTINUOUS
 62
    2
 10
677.4337498636728
 20
670.46000651416671
 11
677.4337498636728
 21
664.46000651416648
  0
LINE
  8
_0-0_計極細
  6
CONTINUOUS
 62
    2
 10
672.4337498636728
 20
664.46000651416625
 11
672.4337498636728
 21
670.46000651416671
  0
LINE
  8
_0-0_計極細
  6
CONTINUOUS
 62
    2
 10
777.43374986367246
 20
670.46000651416671
 11
777.43374986367246
 21
664.46000651416648
  0
LINE
  8
_0-0_計極細
  6
CONTINUOUS
 62
    2
 10
772.43374986367246
 20
664.46000651416625
 11
772.43374986367246
 21
670.46000651416671
  0
LINE
  8
_0-0_計極細
  6
CONTINUOUS
 62
    2
 10
877.43374986367246
 20
670.46000651416671
 11
877.43374986367246
 21
664.46000651416648
  0
LINE
  8
_0-0_計極細
  6
CONTINUOUS
 62
    2
 10
872.43374986367246
 20
664.46000651416625
 11
872.43374986367246
 21
670.46000651416671
  0
LINE
  8
_0-1_計細線
  6
CONTINUOUS
 62
    3
 10
478.4337498636728
 20
650.46000651416693
 11
478.4337498636728
 21
642.46000651416716
  0
LINE
  8
_0-1_計細線
  6
CONTINUOUS
 62
    3
 10
478.4337498636728
 20
642.46000651416716
 11
971.43374986367235
 21
642.46000651416716
  0
LINE
  8
_0-1_計細線
  6
CONTINUOUS
 62
    3
 10
971.43374986367235
 20
642.46000651416716
 11
971.43374986367235
 21
650.46000651416693
  0
LINE
  8
_0-1_計細線
  6
CONTINUOUS
 62
    3
 10
971.43374986367235
 20
650.46000651416693
 11
478.4337498636728
 21
650.46000651416693
  0
LINE
  8
_0-0_計極細
  6
CONTINUOUS
 62
    2
 10
577.4337498636728
 20
656.46000651416671
 11
577.4337498636728
 21
650.46000651416648
  0
LINE
  8
_0-0_計極細
  6
CONTINUOUS
 62
    2
 10
572.4337498636728
 20
650.46000651416637
 11
572.4337498636728
 21
656.46000651416671
  0
LINE
  8
_0-0_計極細
  6
CONTINUOUS
 62
    2
 10
677.4337498636728
 20
656.46000651416671
 11
677.4337498636728
 21
650.46000651416648
  0
LINE
  8
_0-0_計極細
  6
CONTINUOUS
 62
    2
 10
672.4337498636728
 20
650.46000651416637
 11
672.4337498636728
 21
656.46000651416671
  0
LINE
  8
_0-0_計極細
  6
CONTINUOUS
 62
    2
 10
777.43374986367246
 20
656.46000651416671
 11
777.43374986367246
 21
650.46000651416648
  0
LINE
  8
_0-0_計極細
  6
CONTINUOUS
 62
    2
 10
772.43374986367246
 20
650.46000651416637
 11
772.43374986367246
 21
656.46000651416671
  0
LINE
  8
_0-0_計極細
  6
CONTINUOUS
 62
    2
 10
877.43374986367246
 20
656.46000651416671
 11
877.43374986367246
 21
650.46000651416648
  0
LINE
  8
_0-0_計極細
  6
CONTINUOUS
 62
    2
 10
872.43374986367246
 20
650.46000651416637
 11
872.43374986367246
 21
656.46000651416671
  0
LINE
  8
_0-1_計細線
  6
CONTINUOUS
 62
    3
 10
478.4337498636728
 20
636.46000651416693
 11
478.4337498636728
 21
628.46000651416716
  0
LINE
  8
_0-1_計細線
  6
CONTINUOUS
 62
    3
 10
478.4337498636728
 20
628.46000651416716
 11
971.43374986367235
 21
628.46000651416716
  0
LINE
  8
_0-1_計細線
  6
CONTINUOUS
 62
    3
 10
971.43374986367235
 20
628.46000651416716
 11
971.43374986367235
 21
636.46000651416693
  0
LINE
  8
_0-1_計細線
  6
CONTINUOUS
 62
    3
 10
971.43374986367235
 20
636.46000651416693
 11
478.4337498636728
 21
636.46000651416693
  0
LINE
  8
_0-0_計極細
  6
CONTINUOUS
 62
    2
 10
577.4337498636728
 20
642.46000651416682
 11
577.4337498636728
 21
636.46000651416648
  0
LINE
  8
_0-0_計極細
  6
CONTINUOUS
 62
    2
 10
572.4337498636728
 20
636.46000651416625
 11
572.4337498636728
 21
642.46000651416682
  0
LINE
  8
_0-0_計極細
  6
CONTINUOUS
 62
    2
 10
677.4337498636728
 20
642.46000651416682
 11
677.4337498636728
 21
636.46000651416648
  0
LINE
  8
_0-0_計極細
  6
CONTINUOUS
 62
    2
 10
672.4337498636728
 20
636.46000651416625
 11
672.4337498636728
 21
642.46000651416682
  0
LINE
  8
_0-0_計極細
  6
CONTINUOUS
 62
    2
 10
777.43374986367246
 20
642.46000651416682
 11
777.43374986367246
 21
636.46000651416648
  0
LINE
  8
_0-0_計極細
  6
CONTINUOUS
 62
    2
 10
772.43374986367246
 20
636.46000651416625
 11
772.43374986367246
 21
642.46000651416682
  0
LINE
  8
_0-0_計極細
  6
CONTINUOUS
 62
    2
 10
877.43374986367246
 20
642.46000651416682
 11
877.43374986367246
 21
636.46000651416648
  0
LINE
  8
_0-0_計極細
  6
CONTINUOUS
 62
    2
 10
872.43374986367246
 20
636.46000651416625
 11
872.43374986367246
 21
642.46000651416682
  0
LINE
  8
_0-1_計細線
  6
CONTINUOUS
 62
    3
 10
478.4337498636728
 20
622.46000651416693
 11
478.4337498636728
 21
614.46000651416716
  0
LINE
  8
_0-1_計細線
  6
CONTINUOUS
 62
    3
 10
478.4337498636728
 20
614.46000651416716
 11
971.43374986367235
 21
614.46000651416716
  0
LINE
  8
_0-1_計細線
  6
CONTINUOUS
 62
    3
 10
971.43374986367235
 20
614.46000651416716
 11
971.43374986367235
 21
622.46000651416693
  0
LINE
  8
_0-1_計細線
  6
CONTINUOUS
 62
    3
 10
971.43374986367235
 20
622.46000651416693
 11
478.4337498636728
 21
622.46000651416693
  0
LINE
  8
_0-0_計極細
  6
CONTINUOUS
 62
    2
 10
577.4337498636728
 20
628.46000651416671
 11
577.4337498636728
 21
622.46000651416648
  0
LINE
  8
_0-0_計極細
  6
CONTINUOUS
 62
    2
 10
572.4337498636728
 20
622.46000651416625
 11
572.4337498636728
 21
628.46000651416671
  0
LINE
  8
_0-0_計極細
  6
CONTINUOUS
 62
    2
 10
677.4337498636728
 20
628.46000651416671
 11
677.4337498636728
 21
622.46000651416648
  0
LINE
  8
_0-0_計極細
  6
CONTINUOUS
 62
    2
 10
672.4337498636728
 20
622.46000651416625
 11
672.4337498636728
 21
628.46000651416671
  0
LINE
  8
_0-0_計極細
  6
CONTINUOUS
 62
    2
 10
777.43374986367246
 20
628.46000651416671
 11
777.43374986367246
 21
622.46000651416648
  0
LINE
  8
_0-0_計極細
  6
CONTINUOUS
 62
    2
 10
772.43374986367246
 20
622.46000651416625
 11
772.43374986367246
 21
628.46000651416671
  0
LINE
  8
_0-0_計極細
  6
CONTINUOUS
 62
    2
 10
877.43374986367246
 20
628.46000651416671
 11
877.43374986367246
 21
622.46000651416648
  0
LINE
  8
_0-0_計極細
  6
CONTINUOUS
 62
    2
 10
872.43374986367246
 20
622.46000651416625
 11
872.43374986367246
 21
628.46000651416671
  0
LINE
  8
_0-1_計細線
  6
CONTINUOUS
 62
    3
 10
478.4337498636728
 20
608.46000651416693
 11
478.4337498636728
 21
600.46000651416716
  0
LINE
  8
_0-1_計細線
  6
CONTINUOUS
 62
    3
 10
478.4337498636728
 20
600.46000651416716
 11
971.43374986367235
 21
600.46000651416716
  0
LINE
  8
_0-1_計細線
  6
CONTINUOUS
 62
    3
 10
971.43374986367235
 20
600.46000651416716
 11
971.43374986367235
 21
608.46000651416693
  0
LINE
  8
_0-1_計細線
  6
CONTINUOUS
 62
    3
 10
971.43374986367235
 20
608.46000651416693
 11
478.4337498636728
 21
608.46000651416693
  0
LINE
  8
_0-0_計極細
  6
CONTINUOUS
 62
    2
 10
577.4337498636728
 20
614.46000651416671
 11
577.4337498636728
 21
608.46000651416648
  0
LINE
  8
_0-0_計極細
  6
CONTINUOUS
 62
    2
 10
572.4337498636728
 20
608.46000651416625
 11
572.4337498636728
 21
614.46000651416671
  0
LINE
  8
_0-0_計極細
  6
CONTINUOUS
 62
    2
 10
677.4337498636728
 20
614.46000651416671
 11
677.4337498636728
 21
608.46000651416648
  0
LINE
  8
_0-0_計極細
  6
CONTINUOUS
 62
    2
 10
672.4337498636728
 20
608.46000651416625
 11
672.4337498636728
 21
614.46000651416671
  0
LINE
  8
_0-0_計極細
  6
CONTINUOUS
 62
    2
 10
777.43374986367246
 20
614.46000651416671
 11
777.43374986367246
 21
608.46000651416648
  0
LINE
  8
_0-0_計極細
  6
CONTINUOUS
 62
    2
 10
772.43374986367246
 20
608.46000651416625
 11
772.43374986367246
 21
614.46000651416671
  0
LINE
  8
_0-0_計極細
  6
CONTINUOUS
 62
    2
 10
877.43374986367246
 20
614.46000651416671
 11
877.43374986367246
 21
608.46000651416648
  0
LINE
  8
_0-0_計極細
  6
CONTINUOUS
 62
    2
 10
872.43374986367246
 20
608.46000651416625
 11
872.43374986367246
 21
614.46000651416671
  0
LINE
  8
_0-0_計極細
  6
CONTINUOUS
 62
    2
 10
377.43374986367235
 20
796.46000651416728
 11
377.43374986367235
 21
790.46000651416705
  0
LINE
  8
_0-0_計極細
  6
CONTINUOUS
 62
    2
 10
372.43374986367235
 20
790.46000651416671
 11
372.43374986367235
 21
796.46000651416728
  0
LINE
  8
_0-0_計極細
  6
CONTINUOUS
 62
    2
 10
377.43374986367235
 20
782.46000651416716
 11
377.43374986367235
 21
776.46000651416671
  0
LINE
  8
_0-0_計極細
  6
CONTINUOUS
 62
    2
 10
372.43374986367235
 20
776.46000651416671
 11
372.43374986367235
 21
782.46000651416716
  0
LINE
  8
_0-0_計極細
  6
CONTINUOUS
 62
    2
 10
377.43374986367235
 20
768.46000651416716
 11
377.43374986367235
 21
762.46000651416682
  0
LINE
  8
_0-0_計極細
  6
CONTINUOUS
 62
    2
 10
372.43374986367235
 20
762.46000651416682
 11
372.43374986367235
 21
768.46000651416716
  0
LINE
  8
_0-0_計極細
  6
CONTINUOUS
 62
    2
 10
377.43374986367235
 20
754.46000651416671
 11
377.43374986367235
 21
748.46000651416648
  0
LINE
  8
_0-0_計極細
  6
CONTINUOUS
 62
    2
 10
372.43374986367235
 20
748.46000651416625
 11
372.43374986367235
 21
754.46000651416671
  0
LINE
  8
_0-0_計極細
  6
CONTINUOUS
 62
    2
 10
377.43374986367235
 20
740.46000651416671
 11
377.43374986367235
 21
734.46000651416648
  0
LINE
  8
_0-0_計極細
  6
CONTINUOUS
 62
    2
 10
372.43374986367235
 20
734.46000651416625
 11
372.43374986367235
 21
740.46000651416671
  0
LINE
  8
_0-0_計極細
  6
CONTINUOUS
 62
    2
 10
377.43374986367235
 20
726.46000651416671
 11
377.43374986367235
 21
720.46000651416648
  0
LINE
  8
_0-0_計極細
  6
CONTINUOUS
 62
    2
 10
372.43374986367235
 20
720.46000651416637
 11
372.43374986367235
 21
726.46000651416671
  0
LINE
  8
_0-0_計極細
  6
CONTINUOUS
 62
    2
 10
377.43374986367235
 20
712.46000651416682
 11
377.43374986367235
 21
706.46000651416659
  0
LINE
  8
_0-0_計極細
  6
CONTINUOUS
 62
    2
 10
372.43374986367235
 20
706.46000651416625
 11
372.43374986367235
 21
712.46000651416682
  0
LINE
  8
_0-0_計極細
  6
CONTINUOUS
 62
    2
 10
377.43374986367235
 20
698.46000651416671
 11
377.43374986367235
 21
692.46000651416648
  0
LINE
  8
_0-0_計極細
  6
CONTINUOUS
 62
    2
 10
372.43374986367235
 20
692.46000651416625
 11
372.43374986367235
 21
698.46000651416671
  0
LINE
  8
_0-0_計極細
  6
CONTINUOUS
 62
    2
 10
377.43374986367235
 20
684.46000651416671
 11
377.43374986367235
 21
678.46000651416648
  0
LINE
  8
_0-0_計極細
  6
CONTINUOUS
 62
    2
 10
372.43374986367235
 20
678.46000651416625
 11
372.43374986367235
 21
684.46000651416671
  0
LINE
  8
_0-0_計極細
  6
CONTINUOUS
 62
    2
 10
377.43374986367235
 20
670.46000651416671
 11
377.43374986367235
 21
664.46000651416648
  0
LINE
  8
_0-0_計極細
  6
CONTINUOUS
 62
    2
 10
372.43374986367235
 20
664.46000651416625
 11
372.43374986367235
 21
670.46000651416671
  0
LINE
  8
_0-1_計細線
  6
CONTINUOUS
 62
    3
 10
324.93374986367235
 20
804.46000651416693
 11
471.43374986367286
 21
804.46000651416693
  0
LINE
  8
_0-0_計極細
  6
CONTINUOUS
 62
    2
 10
377.43374986367235
 20
656.46000651416671
 11
377.43374986367235
 21
650.46000651416648
  0
LINE
  8
_0-0_計極細
  6
CONTINUOUS
 62
    2
 10
372.43374986367235
 20
650.46000651416637
 11
372.43374986367235
 21
656.46000651416671
  0
LINE
  8
_0-0_計極細
  6
CONTINUOUS
 62
    2
 10
377.43374986367235
 20
642.46000651416682
 11
377.43374986367235
 21
636.46000651416648
  0
LINE
  8
_0-0_計極細
  6
CONTINUOUS
 62
    2
 10
372.43374986367235
 20
636.46000651416625
 11
372.43374986367235
 21
642.46000651416682
  0
LINE
  8
_0-0_計極細
  6
CONTINUOUS
 62
    2
 10
377.43374986367235
 20
628.46000651416671
 11
377.43374986367235
 21
622.46000651416648
  0
LINE
  8
_0-0_計極細
  6
CONTINUOUS
 62
    2
 10
372.43374986367235
 20
622.46000651416625
 11
372.43374986367235
 21
628.46000651416671
  0
LINE
  8
_0-0_計極細
  6
CONTINUOUS
 62
    2
 10
377.43374986367235
 20
614.46000651416671
 11
377.43374986367235
 21
608.46000651416648
  0
LINE
  8
_0-0_計極細
  6
CONTINUOUS
 62
    2
 10
372.43374986367235
 20
608.46000651416625
 11
372.43374986367235
 21
614.46000651416671
  0
LINE
  8
_0-0_計極細
  6
CONTINUOUS
 62
    2
 10
1077.4337498636728
 20
796.46000651416739
 11
1077.4337498636728
 21
790.46000651416716
  0
LINE
  8
_0-0_計極細
  6
CONTINUOUS
 62
    2
 10
1072.4337498636728
 20
790.46000651416705
 11
1072.4337498636728
 21
796.46000651416739
  0
LINE
  8
_0-0_計極細
  6
CONTINUOUS
 62
    2
 10
1077.4337498636728
 20
782.4600065141675
 11
1077.4337498636728
 21
776.46000651416693
  0
LINE
  8
_0-0_計極細
  6
CONTINUOUS
 62
    2
 10
1072.4337498636728
 20
776.46000651416693
 11
1072.4337498636728
 21
782.4600065141675
  0
LINE
  8
_0-0_計極細
  6
CONTINUOUS
 62
    2
 10
1077.4337498636728
 20
768.46000651416739
 11
1077.4337498636728
 21
762.46000651416693
  0
LINE
  8
_0-0_計極細
  6
CONTINUOUS
 62
    2
 10
1072.4337498636728
 20
762.46000651416693
 11
1072.4337498636728
 21
768.46000651416739
  0
LINE
  8
_0-0_計極細
  6
CONTINUOUS
 62
    2
 10
1077.4337498636728
 20
754.46000651416693
 11
1077.4337498636728
 21
748.46000651416671
  0
LINE
  8
_0-0_計極細
  6
CONTINUOUS
 62
    2
 10
1072.4337498636728
 20
748.46000651416648
 11
1072.4337498636728
 21
754.46000651416693
  0
LINE
  8
_0-0_計極細
  6
CONTINUOUS
 62
    2
 10
1077.4337498636728
 20
740.46000651416693
 11
1077.4337498636728
 21
734.46000651416671
  0
LINE
  8
_0-0_計極細
  6
CONTINUOUS
 62
    2
 10
1072.4337498636728
 20
734.46000651416648
 11
1072.4337498636728
 21
740.46000651416693
  0
LINE
  8
_0-0_計極細
  6
CONTINUOUS
 62
    2
 10
1077.4337498636728
 20
726.46000651416693
 11
1077.4337498636728
 21
720.46000651416671
  0
LINE
  8
_0-0_計極細
  6
CONTINUOUS
 62
    2
 10
1072.4337498636728
 20
720.46000651416648
 11
1072.4337498636728
 21
726.46000651416693
  0
LINE
  8
_0-0_計極細
  6
CONTINUOUS
 62
    2
 10
1077.4337498636728
 20
712.46000651416693
 11
1077.4337498636728
 21
706.46000651416671
  0
LINE
  8
_0-0_計極細
  6
CONTINUOUS
 62
    2
 10
1072.4337498636728
 20
706.46000651416659
 11
1072.4337498636728
 21
712.46000651416693
  0
LINE
  8
_0-0_計極細
  6
CONTINUOUS
 62
    2
 10
1077.4337498636728
 20
698.46000651416705
 11
1077.4337498636728
 21
692.46000651416682
  0
LINE
  8
_0-0_計極細
  6
CONTINUOUS
 62
    2
 10
1072.4337498636728
 20
692.46000651416648
 11
1072.4337498636728
 21
698.46000651416705
  0
LINE
  8
_0-0_計極細
  6
CONTINUOUS
 62
    2
 10
1077.4337498636728
 20
684.46000651416693
 11
1077.4337498636728
 21
678.46000651416671
  0
LINE
  8
_0-0_計極細
  6
CONTINUOUS
 62
    2
 10
1072.4337498636728
 20
678.46000651416648
 11
1072.4337498636728
 21
684.46000651416693
  0
LINE
  8
_0-0_計極細
  6
CONTINUOUS
 62
    2
 10
1077.4337498636728
 20
670.46000651416693
 11
1077.4337498636728
 21
664.46000651416671
  0
LINE
  8
_0-0_計極細
  6
CONTINUOUS
 62
    2
 10
1072.4337498636728
 20
664.46000651416648
 11
1072.4337498636728
 21
670.46000651416693
  0
LINE
  8
_0-1_計細線
  6
CONTINUOUS
 62
    3
 10
1124.9337498636728
 20
804.46000651416728
 11
978.43374986367235
 21
804.46000651416728
  0
LINE
  8
_0-0_計極細
  6
CONTINUOUS
 62
    2
 10
1077.4337498636728
 20
656.46000651416693
 11
1077.4337498636728
 21
650.46000651416671
  0
LINE
  8
_0-0_計極細
  6
CONTINUOUS
 62
    2
 10
1072.4337498636728
 20
650.46000651416648
 11
1072.4337498636728
 21
656.46000651416693
  0
LINE
  8
_0-0_計極細
  6
CONTINUOUS
 62
    2
 10
1077.4337498636728
 20
642.46000651416693
 11
1077.4337498636728
 21
636.46000651416671
  0
LINE
  8
_0-0_計極細
  6
CONTINUOUS
 62
    2
 10
1072.4337498636728
 20
636.46000651416648
 11
1072.4337498636728
 21
642.46000651416693
  0
LINE
  8
_0-0_計極細
  6
CONTINUOUS
 62
    2
 10
1077.4337498636728
 20
628.46000651416693
 11
1077.4337498636728
 21
622.46000651416671
  0
LINE
  8
_0-0_計極細
  6
CONTINUOUS
 62
    2
 10
1072.4337498636728
 20
622.46000651416648
 11
1072.4337498636728
 21
628.46000651416693
  0
LINE
  8
_0-0_計極細
  6
CONTINUOUS
 62
    2
 10
1077.4337498636728
 20
614.46000651416693
 11
1077.4337498636728
 21
608.46000651416671
  0
LINE
  8
_0-0_計極細
  6
CONTINUOUS
 62
    2
 10
1072.4337498636728
 20
608.46000651416648
 11
1072.4337498636728
 21
614.46000651416693
  0
LINE
  8
_0-1_計細線
  6
CONTINUOUS
 62
    3
 10
478.4337498636728
 20
594.46000651416693
 11
478.4337498636728
 21
586.46000651416716
  0
LINE
  8
_0-1_計細線
  6
CONTINUOUS
 62
    3
 10
478.4337498636728
 20
586.46000651416716
 11
971.43374986367235
 21
586.46000651416716
  0
LINE
  8
_0-1_計細線
  6
CONTINUOUS
 62
    3
 10
971.43374986367235
 20
586.46000651416716
 11
971.43374986367235
 21
594.46000651416693
  0
LINE
  8
_0-1_計細線
  6
CONTINUOUS
 62
    3
 10
971.43374986367235
 20
594.46000651416693
 11
478.4337498636728
 21
594.46000651416693
  0
LINE
  8
_0-0_計極細
  6
CONTINUOUS
 62
    2
 10
577.4337498636728
 20
600.46000651416671
 11
577.4337498636728
 21
594.46000651416648
  0
LINE
  8
_0-0_計極細
  6
CONTINUOUS
 62
    2
 10
572.4337498636728
 20
594.46000651416625
 11
572.4337498636728
 21
600.46000651416671
  0
LINE
  8
_0-0_計極細
  6
CONTINUOUS
 62
    2
 10
677.4337498636728
 20
600.46000651416671
 11
677.4337498636728
 21
594.46000651416648
  0
LINE
  8
_0-0_計極細
  6
CONTINUOUS
 62
    2
 10
672.4337498636728
 20
594.46000651416625
 11
672.4337498636728
 21
600.46000651416671
  0
LINE
  8
_0-0_計極細
  6
CONTINUOUS
 62
    2
 10
777.43374986367246
 20
600.46000651416671
 11
777.43374986367246
 21
594.46000651416648
  0
LINE
  8
_0-0_計極細
  6
CONTINUOUS
 62
    2
 10
772.43374986367246
 20
594.46000651416625
 11
772.43374986367246
 21
600.46000651416671
  0
LINE
  8
_0-0_計極細
  6
CONTINUOUS
 62
    2
 10
877.43374986367246
 20
600.46000651416671
 11
877.43374986367246
 21
594.46000651416648
  0
LINE
  8
_0-0_計極細
  6
CONTINUOUS
 62
    2
 10
872.43374986367246
 20
594.46000651416625
 11
872.43374986367246
 21
600.46000651416671
  0
LINE
  8
_0-1_計細線
  6
CONTINUOUS
 62
    3
 10
478.4337498636728
 20
580.46000651416693
 11
478.4337498636728
 21
572.46000651416716
  0
LINE
  8
_0-1_計細線
  6
CONTINUOUS
 62
    3
 10
478.4337498636728
 20
572.46000651416716
 11
971.43374986367235
 21
572.46000651416716
  0
LINE
  8
_0-1_計細線
  6
CONTINUOUS
 62
    3
 10
971.43374986367235
 20
572.46000651416716
 11
971.43374986367235
 21
580.46000651416693
  0
LINE
  8
_0-1_計細線
  6
CONTINUOUS
 62
    3
 10
971.43374986367235
 20
580.46000651416693
 11
478.4337498636728
 21
580.46000651416693
  0
LINE
  8
_0-0_計極細
  6
CONTINUOUS
 62
    2
 10
577.4337498636728
 20
586.46000651416671
 11
577.4337498636728
 21
580.46000651416648
  0
LINE
  8
_0-0_計極細
  6
CONTINUOUS
 62
    2
 10
572.4337498636728
 20
580.46000651416625
 11
572.4337498636728
 21
586.46000651416671
  0
LINE
  8
_0-0_計極細
  6
CONTINUOUS
 62
    2
 10
677.4337498636728
 20
586.46000651416671
 11
677.4337498636728
 21
580.46000651416648
  0
LINE
  8
_0-0_計極細
  6
CONTINUOUS
 62
    2
 10
672.4337498636728
 20
580.46000651416625
 11
672.4337498636728
 21
586.46000651416671
  0
LINE
  8
_0-0_計極細
  6
CONTINUOUS
 62
    2
 10
777.43374986367246
 20
586.46000651416671
 11
777.43374986367246
 21
580.46000651416648
  0
LINE
  8
_0-0_計極細
  6
CONTINUOUS
 62
    2
 10
772.43374986367246
 20
580.46000651416625
 11
772.43374986367246
 21
586.46000651416671
  0
LINE
  8
_0-0_計極細
  6
CONTINUOUS
 62
    2
 10
877.43374986367246
 20
586.46000651416671
 11
877.43374986367246
 21
580.46000651416648
  0
LINE
  8
_0-0_計極細
  6
CONTINUOUS
 62
    2
 10
872.43374986367246
 20
580.46000651416625
 11
872.43374986367246
 21
586.46000651416671
  0
LINE
  8
_0-1_計細線
  6
CONTINUOUS
 62
    3
 10
478.4337498636728
 20
566.46000651416693
 11
478.4337498636728
 21
558.46000651416716
  0
LINE
  8
_0-1_計細線
  6
CONTINUOUS
 62
    3
 10
478.4337498636728
 20
558.46000651416716
 11
971.43374986367235
 21
558.46000651416716
  0
LINE
  8
_0-1_計細線
  6
CONTINUOUS
 62
    3
 10
971.43374986367235
 20
558.46000651416716
 11
971.43374986367235
 21
566.46000651416693
  0
LINE
  8
_0-1_計細線
  6
CONTINUOUS
 62
    3
 10
971.43374986367235
 20
566.46000651416693
 11
478.4337498636728
 21
566.46000651416693
  0
LINE
  8
_0-0_計極細
  6
CONTINUOUS
 62
    2
 10
577.4337498636728
 20
572.46000651416671
 11
577.4337498636728
 21
566.46000651416648
  0
LINE
  8
_0-0_計極細
  6
CONTINUOUS
 62
    2
 10
572.4337498636728
 20
566.46000651416625
 11
572.4337498636728
 21
572.46000651416671
  0
LINE
  8
_0-0_計極細
  6
CONTINUOUS
 62
    2
 10
677.4337498636728
 20
572.46000651416671
 11
677.4337498636728
 21
566.46000651416648
  0
LINE
  8
_0-0_計極細
  6
CONTINUOUS
 62
    2
 10
672.4337498636728
 20
566.46000651416625
 11
672.4337498636728
 21
572.46000651416671
  0
LINE
  8
_0-0_計極細
  6
CONTINUOUS
 62
    2
 10
777.43374986367246
 20
572.46000651416671
 11
777.43374986367246
 21
566.46000651416648
  0
LINE
  8
_0-0_計極細
  6
CONTINUOUS
 62
    2
 10
772.43374986367246
 20
566.46000651416625
 11
772.43374986367246
 21
572.46000651416671
  0
LINE
  8
_0-0_計極細
  6
CONTINUOUS
 62
    2
 10
877.43374986367246
 20
572.46000651416671
 11
877.43374986367246
 21
566.46000651416648
  0
LINE
  8
_0-0_計極細
  6
CONTINUOUS
 62
    2
 10
872.43374986367246
 20
566.46000651416625
 11
872.43374986367246
 21
572.46000651416671
  0
LINE
  8
_0-0_計極細
  6
CONTINUOUS
 62
    2
 10
377.43374986367235
 20
600.46000651416671
 11
377.43374986367235
 21
594.46000651416648
  0
LINE
  8
_0-0_計極細
  6
CONTINUOUS
 62
    2
 10
372.43374986367235
 20
594.46000651416625
 11
372.43374986367235
 21
600.46000651416671
  0
LINE
  8
_0-0_計極細
  6
CONTINUOUS
 62
    2
 10
377.43374986367235
 20
586.46000651416671
 11
377.43374986367235
 21
580.46000651416648
  0
LINE
  8
_0-0_計極細
  6
CONTINUOUS
 62
    2
 10
372.43374986367235
 20
580.46000651416625
 11
372.43374986367235
 21
586.46000651416671
  0
LINE
  8
_0-0_計極細
  6
CONTINUOUS
 62
    2
 10
377.43374986367235
 20
572.46000651416671
 11
377.43374986367235
 21
566.46000651416648
  0
LINE
  8
_0-0_計極細
  6
CONTINUOUS
 62
    2
 10
372.43374986367235
 20
566.46000651416625
 11
372.43374986367235
 21
572.46000651416671
  0
LINE
  8
_0-0_計極細
  6
CONTINUOUS
 62
    2
 10
1077.4337498636728
 20
600.46000651416693
 11
1077.4337498636728
 21
594.46000651416671
  0
LINE
  8
_0-0_計極細
  6
CONTINUOUS
 62
    2
 10
1072.4337498636728
 20
594.46000651416648
 11
1072.4337498636728
 21
600.46000651416693
  0
LINE
  8
_0-0_計極細
  6
CONTINUOUS
 62
    2
 10
1077.4337498636728
 20
586.46000651416693
 11
1077.4337498636728
 21
580.46000651416671
  0
LINE
  8
_0-0_計極細
  6
CONTINUOUS
 62
    2
 10
1072.4337498636728
 20
580.46000651416648
 11
1072.4337498636728
 21
586.46000651416693
  0
LINE
  8
_0-0_計極細
  6
CONTINUOUS
 62
    2
 10
1077.4337498636728
 20
572.46000651416693
 11
1077.4337498636728
 21
566.46000651416671
  0
LINE
  8
_0-0_計極細
  6
CONTINUOUS
 62
    2
 10
1072.4337498636728
 20
566.46000651416648
 11
1072.4337498636728
 21
572.46000651416693
  0
LINE
  8
_0-1_計細線
  6
CONTINUOUS
 62
    3
 10
478.4337498636728
 20
552.46000651416693
 11
478.4337498636728
 21
544.46000651416716
  0
LINE
  8
_0-1_計細線
  6
CONTINUOUS
 62
    3
 10
478.4337498636728
 20
544.46000651416716
 11
971.43374986367235
 21
544.46000651416716
  0
LINE
  8
_0-1_計細線
  6
CONTINUOUS
 62
    3
 10
971.43374986367235
 20
544.46000651416716
 11
971.43374986367235
 21
552.46000651416693
  0
LINE
  8
_0-1_計細線
  6
CONTINUOUS
 62
    3
 10
971.43374986367235
 20
552.46000651416693
 11
478.4337498636728
 21
552.46000651416693
  0
LINE
  8
_0-0_計極細
  6
CONTINUOUS
 62
    2
 10
577.4337498636728
 20
558.46000651416671
 11
577.4337498636728
 21
552.46000651416648
  0
LINE
  8
_0-0_計極細
  6
CONTINUOUS
 62
    2
 10
572.4337498636728
 20
552.46000651416625
 11
572.4337498636728
 21
558.46000651416671
  0
LINE
  8
_0-0_計極細
  6
CONTINUOUS
 62
    2
 10
677.4337498636728
 20
558.46000651416671
 11
677.4337498636728
 21
552.46000651416648
  0
LINE
  8
_0-0_計極細
  6
CONTINUOUS
 62
    2
 10
672.4337498636728
 20
552.46000651416625
 11
672.4337498636728
 21
558.46000651416671
  0
LINE
  8
_0-0_計極細
  6
CONTINUOUS
 62
    2
 10
777.43374986367246
 20
558.46000651416671
 11
777.43374986367246
 21
552.46000651416648
  0
LINE
  8
_0-0_計極細
  6
CONTINUOUS
 62
    2
 10
772.43374986367246
 20
552.46000651416625
 11
772.43374986367246
 21
558.46000651416671
  0
LINE
  8
_0-0_計極細
  6
CONTINUOUS
 62
    2
 10
877.43374986367246
 20
558.46000651416671
 11
877.43374986367246
 21
552.46000651416648
  0
LINE
  8
_0-0_計極細
  6
CONTINUOUS
 62
    2
 10
872.43374986367246
 20
552.46000651416625
 11
872.43374986367246
 21
558.46000651416671
  0
LINE
  8
_0-0_計極細
  6
CONTINUOUS
 62
    2
 10
377.43374986367235
 20
558.46000651416671
 11
377.43374986367235
 21
552.46000651416648
  0
LINE
  8
_0-0_計極細
  6
CONTINUOUS
 62
    2
 10
372.43374986367235
 20
552.46000651416625
 11
372.43374986367235
 21
558.46000651416671
  0
LINE
  8
_0-0_計極細
  6
CONTINUOUS
 62
    2
 10
1077.4337498636728
 20
558.46000651416693
 11
1077.4337498636728
 21
552.46000651416671
  0
LINE
  8
_0-0_計極細
  6
CONTINUOUS
 62
    2
 10
1072.4337498636728
 20
552.46000651416648
 11
1072.4337498636728
 21
558.46000651416693
  0
LINE
  8
_0-1_計細線
  6
CONTINUOUS
 62
    3
 10
478.4337498636728
 20
538.46000651416693
 11
478.4337498636728
 21
530.46000651416716
  0
LINE
  8
_0-1_計細線
  6
CONTINUOUS
 62
    3
 10
478.4337498636728
 20
530.46000651416716
 11
971.43374986367235
 21
530.46000651416716
  0
LINE
  8
_0-1_計細線
  6
CONTINUOUS
 62
    3
 10
971.43374986367235
 20
530.46000651416716
 11
971.43374986367235
 21
538.46000651416693
  0
LINE
  8
_0-1_計細線
  6
CONTINUOUS
 62
    3
 10
971.43374986367235
 20
538.46000651416693
 11
478.4337498636728
 21
538.46000651416693
  0
LINE
  8
_0-0_計極細
  6
CONTINUOUS
 62
    2
 10
577.4337498636728
 20
544.46000651416671
 11
577.4337498636728
 21
538.46000651416648
  0
LINE
  8
_0-0_計極細
  6
CONTINUOUS
 62
    2
 10
572.4337498636728
 20
538.46000651416625
 11
572.4337498636728
 21
544.46000651416671
  0
LINE
  8
_0-0_計極細
  6
CONTINUOUS
 62
    2
 10
677.4337498636728
 20
544.46000651416671
 11
677.4337498636728
 21
538.46000651416648
  0
LINE
  8
_0-0_計極細
  6
CONTINUOUS
 62
    2
 10
672.4337498636728
 20
538.46000651416625
 11
672.4337498636728
 21
544.46000651416671
  0
LINE
  8
_0-0_計極細
  6
CONTINUOUS
 62
    2
 10
777.43374986367246
 20
544.46000651416671
 11
777.43374986367246
 21
538.46000651416648
  0
LINE
  8
_0-0_計極細
  6
CONTINUOUS
 62
    2
 10
772.43374986367246
 20
538.46000651416625
 11
772.43374986367246
 21
544.46000651416671
  0
LINE
  8
_0-0_計極細
  6
CONTINUOUS
 62
    2
 10
877.43374986367246
 20
544.46000651416671
 11
877.43374986367246
 21
538.46000651416648
  0
LINE
  8
_0-0_計極細
  6
CONTINUOUS
 62
    2
 10
872.43374986367246
 20
538.46000651416625
 11
872.43374986367246
 21
544.46000651416671
  0
LINE
  8
_0-0_計極細
  6
CONTINUOUS
 62
    2
 10
377.43374986367235
 20
544.46000651416671
 11
377.43374986367235
 21
538.46000651416648
  0
LINE
  8
_0-0_計極細
  6
CONTINUOUS
 62
    2
 10
372.43374986367235
 20
538.46000651416625
 11
372.43374986367235
 21
544.46000651416671
  0
LINE
  8
_0-0_計極細
  6
CONTINUOUS
 62
    2
 10
1077.4337498636728
 20
544.46000651416693
 11
1077.4337498636728
 21
538.46000651416671
  0
LINE
  8
_0-0_計極細
  6
CONTINUOUS
 62
    2
 10
1072.4337498636728
 20
538.46000651416648
 11
1072.4337498636728
 21
544.46000651416693
  0
LINE
  8
_0-1_計細線
  6
CONTINUOUS
 62
    3
 10
478.4337498636728
 20
524.46000651416693
 11
478.4337498636728
 21
516.46000651416716
  0
LINE
  8
_0-1_計細線
  6
CONTINUOUS
 62
    3
 10
478.4337498636728
 20
516.46000651416716
 11
971.43374986367235
 21
516.46000651416716
  0
LINE
  8
_0-1_計細線
  6
CONTINUOUS
 62
    3
 10
971.43374986367235
 20
516.46000651416716
 11
971.43374986367235
 21
524.46000651416693
  0
LINE
  8
_0-1_計細線
  6
CONTINUOUS
 62
    3
 10
971.43374986367235
 20
524.46000651416693
 11
478.4337498636728
 21
524.46000651416693
  0
LINE
  8
_0-0_計極細
  6
CONTINUOUS
 62
    2
 10
577.4337498636728
 20
530.46000651416671
 11
577.4337498636728
 21
524.46000651416648
  0
LINE
  8
_0-0_計極細
  6
CONTINUOUS
 62
    2
 10
572.4337498636728
 20
524.46000651416625
 11
572.4337498636728
 21
530.46000651416671
  0
LINE
  8
_0-0_計極細
  6
CONTINUOUS
 62
    2
 10
677.4337498636728
 20
530.46000651416671
 11
677.4337498636728
 21
524.46000651416648
  0
LINE
  8
_0-0_計極細
  6
CONTINUOUS
 62
    2
 10
672.4337498636728
 20
524.46000651416625
 11
672.4337498636728
 21
530.46000651416671
  0
LINE
  8
_0-0_計極細
  6
CONTINUOUS
 62
    2
 10
777.43374986367246
 20
530.46000651416671
 11
777.43374986367246
 21
524.46000651416648
  0
LINE
  8
_0-0_計極細
  6
CONTINUOUS
 62
    2
 10
772.43374986367246
 20
524.46000651416625
 11
772.43374986367246
 21
530.46000651416671
  0
LINE
  8
_0-0_計極細
  6
CONTINUOUS
 62
    2
 10
877.43374986367246
 20
530.46000651416671
 11
877.43374986367246
 21
524.46000651416648
  0
LINE
  8
_0-0_計極細
  6
CONTINUOUS
 62
    2
 10
872.43374986367246
 20
524.46000651416625
 11
872.43374986367246
 21
530.46000651416671
  0
LINE
  8
_0-0_計極細
  6
CONTINUOUS
 62
    2
 10
377.43374986367235
 20
530.46000651416671
 11
377.43374986367235
 21
524.46000651416648
  0
LINE
  8
_0-0_計極細
  6
CONTINUOUS
 62
    2
 10
372.43374986367235
 20
524.46000651416625
 11
372.43374986367235
 21
530.46000651416671
  0
LINE
  8
_0-0_計極細
  6
CONTINUOUS
 62
    2
 10
1077.4337498636728
 20
530.46000651416693
 11
1077.4337498636728
 21
524.46000651416671
  0
LINE
  8
_0-0_計極細
  6
CONTINUOUS
 62
    2
 10
1072.4337498636728
 20
524.46000651416648
 11
1072.4337498636728
 21
530.46000651416693
  0
LINE
  8
_0-1_計細線
  6
CONTINUOUS
 62
    3
 10
478.4337498636728
 20
510.46000651416699
 11
478.4337498636728
 21
502.46000651416722
  0
LINE
  8
_0-1_計細線
  6
CONTINUOUS
 62
    3
 10
478.4337498636728
 20
502.46000651416722
 11
971.43374986367235
 21
502.46000651416722
  0
LINE
  8
_0-1_計細線
  6
CONTINUOUS
 62
    3
 10
971.43374986367235
 20
502.46000651416722
 11
971.43374986367235
 21
510.46000651416699
  0
LINE
  8
_0-1_計細線
  6
CONTINUOUS
 62
    3
 10
971.43374986367235
 20
510.46000651416699
 11
478.4337498636728
 21
510.46000651416699
  0
LINE
  8
_0-0_計極細
  6
CONTINUOUS
 62
    2
 10
577.4337498636728
 20
516.46000651416671
 11
577.4337498636728
 21
510.46000651416648
  0
LINE
  8
_0-0_計極細
  6
CONTINUOUS
 62
    2
 10
572.4337498636728
 20
510.46000651416625
 11
572.4337498636728
 21
516.46000651416671
  0
LINE
  8
_0-0_計極細
  6
CONTINUOUS
 62
    2
 10
677.4337498636728
 20
516.46000651416671
 11
677.4337498636728
 21
510.46000651416648
  0
LINE
  8
_0-0_計極細
  6
CONTINUOUS
 62
    2
 10
672.4337498636728
 20
510.46000651416625
 11
672.4337498636728
 21
516.46000651416671
  0
LINE
  8
_0-0_計極細
  6
CONTINUOUS
 62
    2
 10
777.43374986367246
 20
516.46000651416671
 11
777.43374986367246
 21
510.46000651416648
  0
LINE
  8
_0-0_計極細
  6
CONTINUOUS
 62
    2
 10
772.43374986367246
 20
510.46000651416625
 11
772.43374986367246
 21
516.46000651416671
  0
LINE
  8
_0-0_計極細
  6
CONTINUOUS
 62
    2
 10
877.43374986367246
 20
516.46000651416671
 11
877.43374986367246
 21
510.46000651416648
  0
LINE
  8
_0-0_計極細
  6
CONTINUOUS
 62
    2
 10
872.43374986367246
 20
510.46000651416625
 11
872.43374986367246
 21
516.46000651416671
  0
LINE
  8
_0-0_計極細
  6
CONTINUOUS
 62
    2
 10
377.43374986367235
 20
516.46000651416671
 11
377.43374986367235
 21
510.46000651416648
  0
LINE
  8
_0-0_計極細
  6
CONTINUOUS
 62
    2
 10
372.43374986367235
 20
510.46000651416625
 11
372.43374986367235
 21
516.46000651416671
  0
LINE
  8
_0-0_計極細
  6
CONTINUOUS
 62
    2
 10
1077.4337498636728
 20
516.46000651416693
 11
1077.4337498636728
 21
510.46000651416676
  0
LINE
  8
_0-0_計極細
  6
CONTINUOUS
 62
    2
 10
1072.4337498636728
 20
510.46000651416648
 11
1072.4337498636728
 21
516.46000651416693
  0
LINE
  8
_0-1_計細線
  6
CONTINUOUS
 62
    3
 10
333.88752141478017
 20
566.46000651416693
 11
471.43374986367286
 21
566.46000651416693
  0
LINE
  8
_0-1_計細線
  6
CONTINUOUS
 62
    3
 10
478.4337498636728
 20
496.46000651416699
 11
478.4337498636728
 21
488.46000651416716
  0
LINE
  8
_0-1_計細線
  6
CONTINUOUS
 62
    3
 10
478.4337498636728
 20
488.46000651416716
 11
971.43374986367235
 21
488.46000651416716
  0
LINE
  8
_0-1_計細線
  6
CONTINUOUS
 62
    3
 10
971.43374986367235
 20
488.46000651416716
 11
971.43374986367235
 21
496.46000651416699
  0
LINE
  8
_0-1_計細線
  6
CONTINUOUS
 62
    3
 10
971.43374986367235
 20
496.46000651416699
 11
478.4337498636728
 21
496.46000651416699
  0
LINE
  8
_0-0_計極細
  6
CONTINUOUS
 62
    2
 10
577.4337498636728
 20
502.46000651416671
 11
577.4337498636728
 21
496.46000651416648
  0
LINE
  8
_0-0_計極細
  6
CONTINUOUS
 62
    2
 10
572.4337498636728
 20
496.46000651416625
 11
572.4337498636728
 21
502.46000651416671
  0
LINE
  8
_0-0_計極細
  6
CONTINUOUS
 62
    2
 10
677.4337498636728
 20
502.46000651416671
 11
677.4337498636728
 21
496.46000651416648
  0
LINE
  8
_0-0_計極細
  6
CONTINUOUS
 62
    2
 10
672.4337498636728
 20
496.46000651416625
 11
672.4337498636728
 21
502.46000651416671
  0
LINE
  8
_0-0_計極細
  6
CONTINUOUS
 62
    2
 10
777.43374986367246
 20
502.46000651416671
 11
777.43374986367246
 21
496.46000651416648
  0
LINE
  8
_0-0_計極細
  6
CONTINUOUS
 62
    2
 10
772.43374986367246
 20
496.46000651416625
 11
772.43374986367246
 21
502.46000651416671
  0
LINE
  8
_0-0_計極細
  6
CONTINUOUS
 62
    2
 10
877.43374986367246
 20
502.46000651416671
 11
877.43374986367246
 21
496.46000651416648
  0
LINE
  8
_0-0_計極細
  6
CONTINUOUS
 62
    2
 10
872.43374986367246
 20
496.46000651416625
 11
872.43374986367246
 21
502.46000651416671
  0
LINE
  8
_0-0_計極細
  6
CONTINUOUS
 62
    2
 10
377.43374986367235
 20
502.46000651416671
 11
377.43374986367235
 21
496.46000651416648
  0
LINE
  8
_0-0_計極細
  6
CONTINUOUS
 62
    2
 10
372.43374986367235
 20
496.46000651416625
 11
372.43374986367235
 21
502.46000651416671
  0
LINE
  8
_0-0_計極細
  6
CONTINUOUS
 62
    2
 10
1077.4337498636728
 20
502.46000651416693
 11
1077.4337498636728
 21
496.46000651416671
  0
LINE
  8
_0-0_計極細
  6
CONTINUOUS
 62
    2
 10
1072.4337498636728
 20
496.46000651416648
 11
1072.4337498636728
 21
502.46000651416693
  0
LINE
  8
_0-1_計細線
  6
CONTINUOUS
 62
    3
 10
478.4337498636728
 20
482.46000651416693
 11
478.4337498636728
 21
474.46000651416716
  0
LINE
  8
_0-1_計細線
  6
CONTINUOUS
 62
    3
 10
478.4337498636728
 20
474.46000651416716
 11
971.43374986367235
 21
474.46000651416716
  0
LINE
  8
_0-1_計細線
  6
CONTINUOUS
 62
    3
 10
971.43374986367235
 20
474.46000651416716
 11
971.43374986367235
 21
482.46000651416693
  0
LINE
  8
_0-1_計細線
  6
CONTINUOUS
 62
    3
 10
971.43374986367235
 20
482.46000651416693
 11
478.4337498636728
 21
482.46000651416693
  0
LINE
  8
_0-0_計極細
  6
CONTINUOUS
 62
    2
 10
577.4337498636728
 20
488.46000651416671
 11
577.4337498636728
 21
482.46000651416648
  0
LINE
  8
_0-0_計極細
  6
CONTINUOUS
 62
    2
 10
572.4337498636728
 20
482.46000651416631
 11
572.4337498636728
 21
488.46000651416671
  0
LINE
  8
_0-0_計極細
  6
CONTINUOUS
 62
    2
 10
677.4337498636728
 20
488.46000651416671
 11
677.4337498636728
 21
482.46000651416648
  0
LINE
  8
_0-0_計極細
  6
CONTINUOUS
 62
    2
 10
672.4337498636728
 20
482.46000651416631
 11
672.4337498636728
 21
488.46000651416671
  0
LINE
  8
_0-0_計極細
  6
CONTINUOUS
 62
    2
 10
777.43374986367246
 20
488.46000651416671
 11
777.43374986367246
 21
482.46000651416648
  0
LINE
  8
_0-0_計極細
  6
CONTINUOUS
 62
    2
 10
772.43374986367246
 20
482.46000651416631
 11
772.43374986367246
 21
488.46000651416671
  0
LINE
  8
_0-0_計極細
  6
CONTINUOUS
 62
    2
 10
877.43374986367246
 20
488.46000651416671
 11
877.43374986367246
 21
482.46000651416648
  0
LINE
  8
_0-0_計極細
  6
CONTINUOUS
 62
    2
 10
872.43374986367246
 20
482.46000651416631
 11
872.43374986367246
 21
488.46000651416671
  0
LINE
  8
_0-0_計極細
  6
CONTINUOUS
 62
    2
 10
377.43374986367235
 20
488.46000651416671
 11
377.43374986367235
 21
482.46000651416648
  0
LINE
  8
_0-0_計極細
  6
CONTINUOUS
 62
    2
 10
372.43374986367235
 20
482.46000651416631
 11
372.43374986367235
 21
488.46000651416671
  0
LINE
  8
_0-0_計極細
  6
CONTINUOUS
 62
    2
 10
1077.4337498636728
 20
488.46000651416693
 11
1077.4337498636728
 21
482.46000651416671
  0
LINE
  8
_0-0_計極細
  6
CONTINUOUS
 62
    2
 10
1072.4337498636728
 20
482.46000651416648
 11
1072.4337498636728
 21
488.46000651416693
  0
LINE
  8
_0-1_計細線
  6
CONTINUOUS
 62
    3
 10
478.4337498636728
 20
468.46000651416693
 11
478.4337498636728
 21
460.46000651416716
  0
LINE
  8
_0-1_計細線
  6
CONTINUOUS
 62
    3
 10
478.4337498636728
 20
460.46000651416716
 11
971.43374986367235
 21
460.46000651416716
  0
LINE
  8
_0-1_計細線
  6
CONTINUOUS
 62
    3
 10
971.43374986367235
 20
460.46000651416716
 11
971.43374986367235
 21
468.46000651416693
  0
LINE
  8
_0-1_計細線
  6
CONTINUOUS
 62
    3
 10
971.43374986367235
 20
468.46000651416693
 11
478.4337498636728
 21
468.46000651416693
  0
LINE
  8
_0-0_計極細
  6
CONTINUOUS
 62
    2
 10
577.4337498636728
 20
474.46000651416676
 11
577.4337498636728
 21
468.46000651416654
  0
LINE
  8
_0-0_計極細
  6
CONTINUOUS
 62
    2
 10
572.4337498636728
 20
468.46000651416631
 11
572.4337498636728
 21
474.46000651416676
  0
LINE
  8
_0-0_計極細
  6
CONTINUOUS
 62
    2
 10
677.4337498636728
 20
474.46000651416676
 11
677.4337498636728
 21
468.46000651416654
  0
LINE
  8
_0-0_計極細
  6
CONTINUOUS
 62
    2
 10
672.4337498636728
 20
468.46000651416631
 11
672.4337498636728
 21
474.46000651416676
  0
LINE
  8
_0-0_計極細
  6
CONTINUOUS
 62
    2
 10
777.43374986367246
 20
474.46000651416676
 11
777.43374986367246
 21
468.46000651416654
  0
LINE
  8
_0-0_計極細
  6
CONTINUOUS
 62
    2
 10
772.43374986367246
 20
468.46000651416631
 11
772.43374986367246
 21
474.46000651416676
  0
LINE
  8
_0-0_計極細
  6
CONTINUOUS
 62
    2
 10
877.43374986367246
 20
474.46000651416676
 11
877.43374986367246
 21
468.46000651416654
  0
LINE
  8
_0-0_計極細
  6
CONTINUOUS
 62
    2
 10
872.43374986367246
 20
468.46000651416631
 11
872.43374986367246
 21
474.46000651416676
  0
LINE
  8
_0-0_計極細
  6
CONTINUOUS
 62
    2
 10
377.43374986367235
 20
474.46000651416676
 11
377.43374986367235
 21
468.46000651416654
  0
LINE
  8
_0-0_計極細
  6
CONTINUOUS
 62
    2
 10
372.43374986367235
 20
468.46000651416631
 11
372.43374986367235
 21
474.46000651416676
  0
LINE
  8
_0-1_計細線
  6
CONTINUOUS
 62
    3
 10
471.43374986367286
 20
460.46000651416716
 11
324.89539085573733
 21
460.46000651416716
  0
LINE
  8
_0-0_計極細
  6
CONTINUOUS
 62
    2
 10
1077.4337498636728
 20
474.46000651416693
 11
1077.4337498636728
 21
468.46000651416671
  0
LINE
  8
_0-0_計極細
  6
CONTINUOUS
 62
    2
 10
1072.4337498636728
 20
468.46000651416654
 11
1072.4337498636728
 21
474.46000651416693
  0
LINE
  8
_0-1_計細線
  6
CONTINUOUS
 62
    3
 10
978.43374986367235
 20
460.46000651416739
 11
1124.9988901700044
 21
460.46000651416739
  0
LINE
  8
_0-1_計細線
  6
CONTINUOUS
 62
    3
 10
978.43374986367235
 20
796.46000651416739
 11
1126.1582674182937
 21
796.46000651416739
  0
LINE
  8
_0-1_計細線
  6
CONTINUOUS
 62
    3
 10
1127.0660919299621
 20
790.46000651416716
 11
978.43374986367235
 21
790.46000651416716
  0
LINE
  8
_0-1_計細線
  6
CONTINUOUS
 62
    3
 10
978.43374986367235
 20
782.4600065141675
 11
1128.2452336454016
 21
782.4600065141675
  0
LINE
  8
_0-1_計細線
  6
CONTINUOUS
 62
    3
 10
1129.0997412781435
 20
776.46000651416739
 11
978.43374986367235
 21
776.46000651416739
  0
LINE
  8
_0-1_計細線
  6
CONTINUOUS
 62
    3
 10
978.43374986367235
 20
768.46000651416784
 11
1130.1773786661711
 21
768.46000651416784
  0
LINE
  8
_0-1_計細線
  6
CONTINUOUS
 62
    3
 10
1130.9389298425926
 20
762.46000651416739
 11
978.43374986367235
 21
762.46000651416739
  0
LINE
  8
_0-1_計細線
  6
CONTINUOUS
 62
    3
 10
978.43374986367235
 20
754.46000651416762
 11
1131.8576043452845
 21
754.46000651416762
  0
LINE
  8
_0-1_計細線
  6
CONTINUOUS
 62
    3
 10
1132.4774246466491
 20
748.46000651416739
 11
978.43374986367235
 21
748.46000651416739
  0
LINE
  8
_0-1_計細線
  6
CONTINUOUS
 62
    3
 10
978.43374986367235
 20
740.46000651416762
 11
1133.1725651279316
 21
740.46000651416762
  0
LINE
  8
_0-1_計細線
  6
CONTINUOUS
 62
    3
 10
1133.5977116676681
 20
734.46000651416728
 11
978.43374986367235
 21
734.46000651416728
  0
LINE
  8
_0-1_計細線
  6
CONTINUOUS
 62
    3
 10
978.43374986367235
 20
726.46000651416739
 11
1133.9993645039845
 21
726.46000651416739
  0
LINE
  8
_0-1_計細線
  6
CONTINUOUS
 62
    3
 10
1134.1828301904225
 20
720.46000651416716
 11
978.43374986367235
 21
720.46000651416716
  0
LINE
  8
_0-1_計細線
  6
CONTINUOUS
 62
    3
 10
978.43374986367235
 20
712.46000651416739
 11
1134.2177091855042
 21
712.46000651416739
  0
LINE
  8
_0-1_計細線
  6
CONTINUOUS
 62
    3
 10
1134.0910124120078
 20
706.46000651416716
 11
978.43374986367235
 21
706.46000651416716
  0
LINE
  8
_0-1_計細線
  6
CONTINUOUS
 62
    3
 10
978.43374986367235
 20
698.46000651416739
 11
1133.7167401473757
 21
698.46000651416739
  0
LINE
  8
_0-1_計細線
  6
CONTINUOUS
 62
    3
 10
1133.3061203636075
 20
692.46000651416716
 11
978.43374986367235
 21
692.46000651416716
  0
LINE
  8
_0-1_計細線
  6
CONTINUOUS
 62
    3
 10
978.43374986367235
 20
684.46000651416739
 11
1132.6003277134391
 21
684.46000651416739
  0
LINE
  8
_0-1_計細線
  6
CONTINUOUS
 62
    3
 10
1131.9510488470482
 20
678.46000651416716
 11
978.43374986367235
 21
678.46000651416716
  0
LINE
  8
_0-1_計細線
  6
CONTINUOUS
 62
    3
 10
978.43374986367235
 20
670.4600065141675
 11
1130.963962054429
 21
670.4600065141675
  0
LINE
  8
_0-1_計細線
  6
CONTINUOUS
 62
    3
 10
1130.1303506393374
 20
664.46000651416728
 11
978.43374986367235
 21
664.46000651416728
  0
LINE
  8
_0-1_計細線
  6
CONTINUOUS
 62
    3
 10
978.43374986367235
 20
656.46000651416739
 11
1128.9326855286904
 21
656.46000651416739
  0
LINE
  8
_0-1_計細線
  6
CONTINUOUS
 62
    3
 10
1127.9744070139036
 20
650.46000651416716
 11
978.43374986367235
 21
650.46000651416716
  0
LINE
  8
_0-1_計細線
  6
CONTINUOUS
 62
    3
 10
978.43374986367235
 20
642.46000651416739
 11
1126.6427906545441
 21
642.46000651416739
  0
LINE
  8
_0-1_計細線
  6
CONTINUOUS
 62
    3
 10
1125.6208225130545
 20
636.46000651416716
 11
978.43374986367235
 21
636.46000651416716
  0
LINE
  8
_0-1_計細線
  6
CONTINUOUS
 62
    3
 10
978.43374986367235
 20
628.46000651416739
 11
1124.2466772142907
 21
628.46000651416739
  0
LINE
  8
_0-1_計細線
  6
CONTINUOUS
 62
    3
 10
1123.224709072801
 20
622.46000651416716
 11
978.43374986367235
 21
622.46000651416716
  0
LINE
  8
_0-1_計細線
  6
CONTINUOUS
 62
    3
 10
978.43374986367235
 20
614.46000651416739
 11
1121.8930927134411
 21
614.46000651416739
  0
LINE
  8
_0-1_計細線
  6
CONTINUOUS
 62
    3
 10
1120.9348141986552
 20
608.46000651416716
 11
978.43374986367235
 21
608.46000651416716
  0
LINE
  8
_0-1_計細線
  6
CONTINUOUS
 62
    3
 10
978.43374986367235
 20
600.46000651416739
 11
1119.7371490880082
 21
600.46000651416739
  0
LINE
  8
_0-1_計細線
  6
CONTINUOUS
 62
    3
 10
1118.9035376729162
 20
594.46000651416716
 11
978.43374986367235
 21
594.46000651416716
  0
LINE
  8
_0-1_計細線
  6
CONTINUOUS
 62
    3
 10
978.43374986367235
 20
586.46000651416739
 11
1117.9164508802974
 21
586.46000651416739
  0
LINE
  8
_0-1_計細線
  6
CONTINUOUS
 62
    3
 10
1117.2671720139065
 20
580.46000651416716
 11
978.43374986367235
 21
580.46000651416716
  0
LINE
  8
_0-1_計細線
  6
CONTINUOUS
 62
    3
 10
978.43374986367235
 20
572.46000651416739
 11
1116.5613793637372
 21
572.46000651416739
  0
LINE
  8
_0-1_計細線
  6
CONTINUOUS
 62
    3
 10
1116.150759579969
 20
566.46000651416716
 11
978.43374986367235
 21
566.46000651416716
  0
LINE
  8
_0-1_計細線
  6
CONTINUOUS
 62
    3
 10
978.43374986367235
 20
558.46000651416739
 11
1115.7764873153374
 21
558.46000651416739
  0
LINE
  8
_0-1_計細線
  6
CONTINUOUS
 62
    3
 10
1115.6497905418405
 20
552.46000651416716
 11
978.43374986367235
 21
552.46000651416716
  0
LINE
  8
_0-1_計細線
  6
CONTINUOUS
 62
    3
 10
978.43374986367235
 20
544.46000651416739
 11
1115.6846695369227
 21
544.46000651416739
  0
LINE
  8
_0-1_計細線
  6
CONTINUOUS
 62
    3
 10
1115.8681352233607
 20
538.46000651416716
 11
978.43374986367235
 21
538.46000651416716
  0
LINE
  8
_0-1_計細線
  6
CONTINUOUS
 62
    3
 10
978.43374986367235
 20
530.46000651416739
 11
1116.2697880596775
 21
530.46000651416739
  0
LINE
  8
_0-1_計細線
  6
CONTINUOUS
 62
    3
 10
1116.6949345994135
 20
524.46000651416716
 11
978.43374986367235
 21
524.46000651416716
  0
LINE
  8
_0-1_計細線
  6
CONTINUOUS
 62
    3
 10
978.43374986367235
 20
516.46000651416739
 11
1117.3900750806956
 21
516.46000651416739
  0
LINE
  8
_0-1_計細線
  6
CONTINUOUS
 62
    3
 10
1118.0098953820602
 20
510.46000651416716
 11
978.43374986367235
 21
510.46000651416716
  0
LINE
  8
_0-1_計細線
  6
CONTINUOUS
 62
    3
 10
978.43374986367235
 20
502.46000651416745
 11
1118.9285698847525
 21
502.46000651416745
  0
LINE
  8
_0-1_計細線
  6
CONTINUOUS
 62
    3
 10
1119.6901210611736
 20
496.46000651416722
 11
978.43374986367235
 21
496.46000651416722
  0
LINE
  8
_0-1_計細線
  6
CONTINUOUS
 62
    3
 10
978.43374986367235
 20
488.46000651416745
 11
1120.7677584492017
 21
488.46000651416745
  0
LINE
  8
_0-1_計細線
  6
CONTINUOUS
 62
    3
 10
1121.6222660819435
 20
482.46000651416722
 11
978.43374986367235
 21
482.46000651416722
  0
LINE
  8
_0-1_計細線
  6
CONTINUOUS
 62
    3
 10
978.43374986367235
 20
474.46000651416739
 11
1122.801407797383
 21
474.46000651416739
  0
LINE
  8
_0-1_計細線
  6
CONTINUOUS
 62
    3
 10
1123.7092323090515
 20
468.46000651416716
 11
978.43374986367235
 21
468.46000651416716
  0
LINE
  8
_0-1_計細線
  6
CONTINUOUS
 62
    3
 10
471.43374986367286
 20
796.46000651416728
 11
323.70923230905146
 21
796.46000651416728
  0
LINE
  8
_0-1_計細線
  6
CONTINUOUS
 62
    3
 10
322.80140779738355
 20
790.46000651416705
 11
471.43374986367286
 21
790.46000651416705
  0
LINE
  8
_0-1_計細線
  6
CONTINUOUS
 62
    3
 10
471.43374986367286
 20
782.46000651416716
 11
321.62226608194351
 21
782.46000651416716
  0
LINE
  8
_0-1_計細線
  6
CONTINUOUS
 62
    3
 10
320.76775844920172
 20
776.46000651416728
 11
471.43374986367286
 21
776.46000651416728
  0
LINE
  8
_0-1_計細線
  6
CONTINUOUS
 62
    3
 10
471.43374986367286
 20
768.46000651416773
 11
319.69012106117407
 21
768.46000651416773
  0
LINE
  8
_0-1_計細線
  6
CONTINUOUS
 62
    3
 10
318.92856988475251
 20
762.46000651416716
 11
471.43374986367286
 21
762.46000651416716
  0
LINE
  8
_0-1_計細線
  6
CONTINUOUS
 62
    3
 10
471.43374986367286
 20
754.46000651416739
 11
318.00989538206068
 21
754.46000651416739
  0
LINE
  8
_0-1_計細線
  6
CONTINUOUS
 62
    3
 10
317.39007508069591
 20
748.46000651416716
 11
471.43374986367286
 21
748.46000651416716
  0
LINE
  8
_0-1_計細線
  6
CONTINUOUS
 62
    3
 10
471.43374986367286
 20
740.4600065141675
 11
316.69493459941378
 21
740.4600065141675
  0
LINE
  8
_0-1_計細線
  6
CONTINUOUS
 62
    3
 10
316.26978805967752
 20
734.46000651416693
 11
471.43374986367286
 21
734.46000651416693
  0
LINE
  8
_0-1_計細線
  6
CONTINUOUS
 62
    3
 10
471.43374986367286
 20
726.46000651416716
 11
315.8681352233607
 21
726.46000651416716
  0
LINE
  8
_0-1_計細線
  6
CONTINUOUS
 62
    3
 10
315.68466953692268
 20
720.46000651416693
 11
471.43374986367286
 21
720.46000651416693
  0
LINE
  8
_0-1_計細線
  6
CONTINUOUS
 62
    3
 10
471.43374986367286
 20
712.46000651416716
 11
315.6497905418405
 21
712.46000651416716
  0
LINE
  8
_0-1_計細線
  6
CONTINUOUS
 62
    3
 10
315.77648731533742
 20
706.46000651416693
 11
471.43374986367286
 21
706.46000651416693
  0
LINE
  8
_0-1_計細線
  6
CONTINUOUS
 62
    3
 10
471.43374986367286
 20
698.46000651416716
 11
316.15075957996896
 21
698.46000651416716
  0
LINE
  8
_0-1_計細線
  6
CONTINUOUS
 62
    3
 10
316.56137936373739
 20
692.46000651416693
 11
471.43374986367286
 21
692.46000651416693
  0
LINE
  8
_0-1_計細線
  6
CONTINUOUS
 62
    3
 10
471.43374986367286
 20
684.46000651416728
 11
317.26717201390625
 21
684.46000651416728
  0
LINE
  8
_0-1_計細線
  6
CONTINUOUS
 62
    3
 10
317.91645088029696
 20
678.46000651416705
 11
471.43374986367286
 21
678.46000651416705
  0
LINE
  8
_0-1_計細線
  6
CONTINUOUS
 62
    3
 10
471.43374986367286
 20
670.46000651416716
 11
318.90353767291572
 21
670.46000651416716
  0
LINE
  8
_0-1_計細線
  6
CONTINUOUS
 62
    3
 10
319.73714908800775
 20
664.46000651416693
 11
471.43374986367286
 21
664.46000651416693
  0
LINE
  8
_0-1_計細線
  6
CONTINUOUS
 62
    3
 10
471.43374986367286
 20
656.46000651416716
 11
320.93481419865475
 21
656.46000651416716
  0
LINE
  8
_0-1_計細線
  6
CONTINUOUS
 62
    3
 10
321.89309271344109
 20
650.46000651416693
 11
471.43374986367286
 21
650.46000651416693
  0
LINE
  8
_0-1_計細線
  6
CONTINUOUS
 62
    3
 10
471.43374986367286
 20
642.46000651416716
 11
323.22470907280103
 21
642.46000651416716
  0
LINE
  8
_0-1_計細線
  6
CONTINUOUS
 62
    3
 10
324.24667721429023
 20
636.46000651416693
 11
471.43374986367286
 21
636.46000651416693
  0
LINE
  8
_0-1_計細線
  6
CONTINUOUS
 62
    3
 10
471.43374986367286
 20
628.46000651416716
 11
325.62082251305446
 21
628.46000651416716
  0
LINE
  8
_0-1_計細線
  6
CONTINUOUS
 62
    3
 10
326.64279065454389
 20
622.46000651416693
 11
471.43374986367286
 21
622.46000651416693
  0
LINE
  8
_0-1_計細線
  6
CONTINUOUS
 62
    3
 10
471.43374986367286
 20
614.46000651416716
 11
327.97440701390366
 21
614.46000651416716
  0
LINE
  8
_0-1_計細線
  6
CONTINUOUS
 62
    3
 10
328.93268552869017
 20
608.46000651416693
 11
471.43374986367286
 21
608.46000651416693
  0
LINE
  8
_0-1_計細線
  6
CONTINUOUS
 62
    3
 10
471.43374986367286
 20
600.46000651416716
 11
330.13035063933694
 21
600.46000651416716
  0
LINE
  8
_0-1_計細線
  6
CONTINUOUS
 62
    3
 10
330.96396205442898
 20
594.46000651416693
 11
471.43374986367286
 21
594.46000651416693
  0
LINE
  8
_0-1_計細線
  6
CONTINUOUS
 62
    3
 10
471.43374986367286
 20
586.46000651416716
 11
331.95104884704801
 21
586.46000651416716
  0
LINE
  8
_0-1_計細線
  6
CONTINUOUS
 62
    3
 10
332.60032771343867
 20
580.46000651416693
 11
471.43374986367286
 21
580.46000651416693
  0
LINE
  8
_0-1_計細線
  6
CONTINUOUS
 62
    3
 10
471.43374986367286
 20
572.46000651416716
 11
333.30612036360753
 21
572.46000651416716
  0
LINE
  8
_0-1_計細線
  6
CONTINUOUS
 62
    3
 10
471.43374986367286
 20
558.46000651416716
 11
334.09101241200779
 21
558.46000651416716
  0
LINE
  8
_0-1_計細線
  6
CONTINUOUS
 62
    3
 10
334.21770918550465
 20
552.46000651416693
 11
471.43374986367286
 21
552.46000651416693
  0
LINE
  8
_0-1_計細線
  6
CONTINUOUS
 62
    3
 10
471.43374986367286
 20
544.46000651416716
 11
334.18283019042246
 21
544.46000651416716
  0
LINE
  8
_0-1_計細線
  6
CONTINUOUS
 62
    3
 10
333.99936450398451
 20
538.46000651416693
 11
471.43374986367286
 21
538.46000651416693
  0
LINE
  8
_0-1_計細線
  6
CONTINUOUS
 62
    3
 10
471.43374986367286
 20
530.46000651416716
 11
333.59771166766791
 21
530.46000651416716
  0
LINE
  8
_0-1_計細線
  6
CONTINUOUS
 62
    3
 10
333.17256512793165
 20
524.46000651416693
 11
471.43374986367286
 21
524.46000651416693
  0
LINE
  8
_0-1_計細線
  6
CONTINUOUS
 62
    3
 10
471.43374986367286
 20
516.46000651416716
 11
332.47742464664952
 21
516.46000651416716
  0
LINE
  8
_0-1_計細線
  6
CONTINUOUS
 62
    3
 10
331.85760434528498
 20
510.46000651416699
 11
471.43374986367286
 21
510.46000651416699
  0
LINE
  8
_0-1_計細線
  6
CONTINUOUS
 62
    3
 10
471.43374986367286
 20
502.46000651416722
 11
330.93892984259264
 21
502.46000651416722
  0
LINE
  8
_0-1_計細線
  6
CONTINUOUS
 62
    3
 10
330.17737866617153
 20
496.46000651416699
 11
471.43374986367286
 21
496.46000651416699
  0
LINE
  8
_0-1_計細線
  6
CONTINUOUS
 62
    3
 10
471.43374986367286
 20
488.46000651416716
 11
329.09974127814371
 21
488.46000651416716
  0
LINE
  8
_0-1_計細線
  6
CONTINUOUS
 62
    3
 10
328.24523364540192
 20
482.46000651416693
 11
471.43374986367286
 21
482.46000651416693
  0
LINE
  8
_0-1_計細線
  6
CONTINUOUS
 62
    3
 10
471.43374986367286
 20
474.46000651416716
 11
327.06609192996211
 21
474.46000651416716
  0
LINE
  8
_0-1_計細線
  6
CONTINUOUS
 62
    3
 10
326.15826741829392
 20
468.46000651416693
 11
471.43374986367286
 21
468.46000651416693
  0
TEXT
  8
_0-5_寸法線
 62
    7
 10
593.67073225861395
 20
399.94448698646266
 40
15
 41
0.8000000000000001
 50
0
  1
ＧＳＬ－２０
  0
TEXT
  8
_0-5_寸法線
 62
    7
 10
813.27081859303826
 20
399.94448698646266
 40
15
 41
0.8000000000000001
 50
0
  1
ＧＳＴ－２０Ｗ３４４
  0
LINE
  8
_0-7_枠細線
  6
CONTINUOUS
 62
    5
 10
1425
 20
907.5
 11
890
 21
907.5
  0
LINE
  8
_0-7_枠細線
  6
CONTINUOUS
 62
    5
 10
915
 20
908.94233397174708
 11
907.5
 21
923.94233397174708
  0
LINE
  8
_0-7_枠細線
  6
CONTINUOUS
 62
    5
 10
900
 20
908.94233397174708
 11
915
 21
908.94233397174708
  0
LINE
  8
_0-7_枠細線
  6
CONTINUOUS
 62
    5
 10
907.5
 20
923.94233397174708
 11
900
 21
908.94233397174708
  0
TEXT
  8
_0-7_枠細線
 62
    5
 10
902.36515126814822
 20
908.63533172636653
 40
12.5
 41
0.8
 50
0
  1
１
  0
TEXT
  8
_0-7_枠細線
 62
    5
 10
1180
 20
910
 40
12.5
 41
0.7199999999999999
 50
0
  1
２０１９．０９．０１
  0
TEXT
  8
_0-7_枠細線
 62
    5
 10
938.85037037037023
 20
910
 40
12.500000000000002
 41
1
 50
0
  1
アンカー材質･厚み変更
  0
LINE
  8
_0-7_枠細線
  6
CONTINUOUS
 62
    5
 10
890
 20
907.5
 11
890
 21
959.99999999999909
  0
LINE
  8
_0-7_枠細線
  6
CONTINUOUS
 62
    5
 10
925
 20
907.5
 11
925
 21
959.99999999999943
  0
LINE
  8
_0-7_枠細線
  6
CONTINUOUS
 62
    5
 10
1175
 20
907.5
 11
1175
 21
959.99999999999943
  0
LINE
  8
_0-7_枠細線
  6
CONTINUOUS
 62
    5
 10
1275
 20
907.5
 11
1275
 21
959.99999999999943
  0
LINE
  8
_0-a_極細3
  6
CENTER1
 62
    7
 10
470.43065977017204
 20
207.50871332075963
 11
470.43065977017204
 21
270.95871332076581
  0
CIRCLE
  8
_0-a_極細3
  6
CONTINUOUS
 62
    7
 10
162.04756590032304
 20
245.32017544509156
 40
0.5530864197530718
  0
LINE
  8
_0-a_極細3
  6
CONTINUOUS
 62
    7
 10
167.09732643683878
 20
260.36120947287623
 11
167.09732643683878
 21
248.69454280620928
  0
LINE
  8
_0-a_極細3
  6
CONTINUOUS
 62
    7
 10
175.43065977017227
 20
248.69454280620928
 11
77.919579291724119
 21
248.69454280620928
  0
LINE
  8
_0-a_極細3
  6
CONTINUOUS
 62
    7
 10
175.43065977017227
 20
259.52787613954274
 11
175.43065977017227
 21
260.36120947287623
  0
LINE
  8
_0-a_極細3
  6
CONTINUOUS
 62
    7
 10
175.23256951381271
 20
248.69454280620928
 11
175.43065977017179
 21
248.89263306256885
  0
LINE
  8
_0-a_極細3
  6
CONTINUOUS
 62
    7
 10
170.98992882669364
 20
248.69454280620928
 11
175.43065977017227
 21
253.13527374968797
  0
LINE
  8
_0-a_極細3
  6
CONTINUOUS
 62
    7
 10
167.09732643683878
 20
249.04458110347403
 11
175.43065977017227
 21
257.37791443680726
  0
LINE
  8
_0-a_極細3
  6
CONTINUOUS
 62
    7
 10
167.09732643683878
 20
253.28722179059312
 11
174.17131411912152
 21
260.36120947287623
  0
LINE
  8
_0-a_極細3
  6
CONTINUOUS
 62
    7
 10
167.09732643683878
 20
257.52986247771264
 11
169.92867343200237
 21
260.36120947287623
  0
LINE
  8
_0-a_極細3
  6
CONTINUOUS
 62
    7
 10
175.43065977017227
 20
258.08024260061757
 11
173.14969289791384
 21
260.36120947287623
  0
LINE
  8
_0-a_極細3
  6
CONTINUOUS
 62
    7
 10
175.43065977017227
 20
253.83760191349825
 11
168.90705221079429
 21
260.36120947287623
  0
LINE
  8
_0-a_極細3
  6
CONTINUOUS
 62
    7
 10
167.09732643683878
 20
257.92829455971241
 11
175.43065977017227
 21
249.59496122637916
  0
LINE
  8
_0-a_極細3
  6
CONTINUOUS
 62
    7
 10
167.09732643683878
 20
253.68565387259309
 11
172.08843750322217
 21
248.69454280620928
  0
LINE
  8
_0-a_極細3
  6
CONTINUOUS
 62
    7
 10
167.09732643683878
 20
249.44301318547377
 11
167.8457968161031
 21
248.69454280620928
  0
LINE
  8
_0-a_極細3
  6
CONTINUOUS
 62
    7
 10
158.26200675920816
 20
248.69454280008199
 11
167.09732643683878
 21
257.52986247771264
  0
LINE
  8
_0-a_極細3
  6
CONTINUOUS
 62
    7
 10
137.04880330890069
 20
248.69454278537091
 11
148.715469996406
 21
260.361209472876
  0
LINE
  8
_0-a_極細3
  6
CONTINUOUS
 62
    7
 10
115.83559985859281
 20
248.69454277065941
 11
127.50226656080919
 21
260.36120947287623
  0
LINE
  8
_0-a_極細3
  6
CONTINUOUS
 62
    7
 10
94.622396408284857
 20
248.69454275594833
 11
106.28906312521281
 21
260.36120947287623
  0
LINE
  8
_0-a_極細3
  6
CONTINUOUS
 62
    7
 10
77.919579291724119
 20
253.20492907498351
 11
85.075859689616493
 21
260.361209472876
  0
LINE
  8
_0-a_極細3
  6
DASHED2
 62
    7
 10
147.65540503405441
 20
248.69454279272645
 11
159.32207171420416
 21
260.36120947287623
  0
LINE
  8
_0-a_極細3
  6
DASHED2
 62
    7
 10
126.44220158374651
 20
248.69454277801515
 11
138.10886827860784
 21
260.36120947287623
  0
LINE
  8
_0-a_極細3
  6
DASHED2
 62
    7
 10
105.22899813343905
 20
248.69454276330387
 11
116.89566484301096
 21
260.36120947287623
  0
LINE
  8
_0-a_極細3
  6
DASHED2
 62
    7
 10
84.015794683131162
 20
248.6945427485928
 11
95.68246140741465
 21
260.36120947287623
  0
CIRCLE
  8
_0-a_極細3
  6
CONTINUOUS
 62
    7
 10
95.815467134891321
 20
238.89795322286957
 40
0.5530864197530718
  0
CIRCLE
  8
_0-a_極細3
  6
CONTINUOUS
 62
    7
 10
137.15867701143429
 20
243.6979532228695
 40
0.5530864197530718
  0
CIRCLE
  8
_0-a_極細3
  6
CONTINUOUS
 62
    7
 10
106.15211286555471
 20
244.50411070744394
 40
1.825531472681392
  0
CIRCLE
  8
_0-a_極細3
  6
CONTINUOUS
 62
    7
 10
85.955033324475352
 20
245.39671865496828
 40
1.825531472681392
  0
LINE
  8
_0-a_極細3
  6
CONTINUOUS
 62
    7
 10
175.43065977017227
 20
260.36120947287623
 11
77.919579291724119
 21
260.36120947287623
  0
LINE
  8
_0-a_極細3
  6
CONTINUOUS
 62
    7
 10
108.76399310350529
 20
215.36120947287625
 11
108.76399310350529
 21
147.027876139543
  0
LINE
  8
_0-a_極細3
  6
CONTINUOUS
 62
    7
 10
192.09732643683878
 20
147.027876139543
 11
108.76399310350529
 21
147.027876139543
  0
LINE
  8
_0-a_極細3
  6
CONTINUOUS
 62
    7
 10
108.76399310350529
 20
215.36120947287625
 11
77.919579291724119
 21
215.36120947287625
  0
LINE
  8
_0-a_極細3
  6
CONTINUOUS
 62
    7
 10
192.09732643683878
 20
147.027876139543
 11
192.09732643683878
 21
120.78627584476386
  0
LINE
  8
_0-a_極細3
  6
CONTINUOUS
 62
    7
 10
154.67535187184899
 20
120.78627596120079
 11
180.91695205019164
 21
147.027876139543
  0
LINE
  8
_0-a_極細3
  6
CONTINUOUS
 62
    7
 10
83.964673973207766
 20
120.78627618121388
 11
110.20627393153674
 21
147.027876139543
  0
LINE
  8
_0-a_極細3
  6
CONTINUOUS
 62
    7
 10
77.919579291724119
 20
185.45185961838527
 11
107.82892914621542
 21
215.36120947287625
  0
LINE
  8
_0-a_極細3
  6
CONTINUOUS
 62
    7
 10
147.60428408198479
 20
120.7862759832021
 11
173.84588423832588
 21
147.027876139543
  0
LINE
  8
_0-a_極細3
  6
CONTINUOUS
 62
    7
 10
77.919579291724119
 20
121.81224931159591
 11
108.76399310350529
 21
152.65666312337729
  0
LINE
  8
_0-a_極細3
  6
CONTINUOUS
 62
    7
 10
77.919579291724119
 20
192.5229274302508
 11
100.7578613343496
 21
215.36120947287625
  0
LINE
  8
_0-a_極細3
  6
CONTINUOUS
 62
    7
 10
140.53321629212107
 20
120.78627600520349
 11
166.77481642646057
 21
147.027876139543
  0
LINE
  8
_0-a_極細3
  6
CONTINUOUS
 62
    7
 10
77.919579291724119
 20
128.88331712346144
 11
108.76399310350529
 21
159.72773093524282
  0
LINE
  8
_0-a_極細3
  6
CONTINUOUS
 62
    7
 10
77.919579291724119
 20
199.59399524211605
 11
93.686793522484351
 21
215.36120947287625
  0
CIRCLE
  8
_0-a_極細3
  6
CONTINUOUS
 62
    7
 10
85.484602937360989
 20
220.60906433398077
 40
0.5530864197530718
  0
CIRCLE
  8
_0-a_極細3
  6
CONTINUOUS
 62
    7
 10
96.092010344768113
 20
221.6757310006474
 40
0.5530864197530718
  0
CIRCLE
  8
_0-a_極細3
  6
CONTINUOUS
 62
    7
 10
108.71423256699039
 20
223.63128655620289
 40
0.5530864197530718
  0
CIRCLE
  8
_0-a_極細3
  6
CONTINUOUS
 62
    7
 10
167.73645478921182
 20
229.1423976673141
 40
0.5530864197530718
  0
CIRCLE
  8
_0-a_極細3
  6
CONTINUOUS
 62
    7
 10
142.84756590032316
 20
228.60906433398077
 40
0.5530864197530718
  0
CIRCLE
  8
_0-a_極細3
  6
CONTINUOUS
 62
    7
 10
115.65867701143475
 20
216.37573100064742
 40
0.5530864197530718
  0
CIRCLE
  8
_0-a_極細3
  6
CONTINUOUS
 62
    7
 10
136.10312145587864
 20
215.13128655620292
 40
0.5530864197530718
  0
CIRCLE
  8
_0-a_極細3
  6
CONTINUOUS
 62
    7
 10
161.1697881225453
 20
211.39795322286977
 40
0.5530864197530718
  0
CIRCLE
  8
_0-a_極細3
  6
CONTINUOUS
 62
    7
 10
148.54756590032295
 20
205.70906433398093
 40
0.5530864197530718
  0
CIRCLE
  8
_0-a_極細3
  6
CONTINUOUS
 62
    7
 10
133.79201034476793
 20
192.1979532228697
 40
0.5530864197530718
  0
CIRCLE
  8
_0-a_極細3
  6
CONTINUOUS
 62
    7
 10
161.1697881225453
 20
199.48684211175873
 40
0.5530864197530718
  0
CIRCLE
  8
_0-a_極細3
  6
CONTINUOUS
 62
    7
 10
120.05867701143437
 20
172.37573100064793
 40
0.5530864197530718
  0
CIRCLE
  8
_0-a_極細3
  6
CONTINUOUS
 62
    7
 10
114.36978812254551
 20
154.42017544509235
 40
0.5530864197530718
  0
CIRCLE
  8
_0-a_極細3
  6
CONTINUOUS
 62
    7
 10
123.08089923365671
 20
161.17573100064789
 40
0.5530864197530718
  0
CIRCLE
  8
_0-a_極細3
  6
CONTINUOUS
 62
    7
 10
129.30312145587891
 20
152.6423976673145
 40
0.5530864197530718
  0
CIRCLE
  8
_0-a_極細3
  6
CONTINUOUS
 62
    7
 10
168.60312145587869
 20
170.53128655620341
 40
0.5530864197530718
  0
CIRCLE
  8
_0-a_極細3
  6
CONTINUOUS
 62
    7
 10
157.40312145587879
 20
165.02017544509229
 40
0.5530864197530718
  0
CIRCLE
  8
_0-a_極細3
  6
CONTINUOUS
 62
    7
 10
163.62534367810099
 20
162.53128655620344
 40
0.5530864197530718
  0
CIRCLE
  8
_0-a_極細3
  6
CONTINUOUS
 62
    7
 10
160.0697881225453
 20
153.28684211175911
 40
0.5530864197530718
  0
CIRCLE
  8
_0-a_極細3
  6
CONTINUOUS
 62
    7
 10
179.9808992336564
 20
154.35350877842575
 40
0.5530864197530718
  0
CIRCLE
  8
_0-a_極細3
  6
CONTINUOUS
 62
    7
 10
192.95867701143408
 20
157.55350877842579
 40
0.5530864197530718
  0
CIRCLE
  8
_0-a_極細3
  6
CONTINUOUS
 62
    7
 10
206.64756590032289
 20
142.62017544509263
 40
0.5530864197530718
  0
CIRCLE
  8
_0-a_極細3
  6
CONTINUOUS
 62
    7
 10
199.71423256698955
 20
127.68684211175923
 40
0.5530864197530718
  0
CIRCLE
  8
_0-a_極細3
  6
CONTINUOUS
 62
    7
 10
183.04756590032298
 20
171.30165692657371
 40
0.5530864197530718
  0
CIRCLE
  8
_0-a_極細3
  6
CONTINUOUS
 62
    7
 10
197.80312145587843
 20
205.43499025990698
 40
0.5530864197530718
  0
CIRCLE
  8
_0-a_極細3
  6
CONTINUOUS
 62
    7
 10
212.91423256698934
 20
195.47943470435143
 40
0.5530864197530718
  0
CIRCLE
  8
_0-a_極細3
  6
CONTINUOUS
 62
    7
 10
213.44756590032262
 20
177.52387914879591
 40
0.5530864197530718
  0
CIRCLE
  8
_0-a_極細3
  6
CONTINUOUS
 62
    7
 10
178.20312145587855
 20
207.25721248212906
 40
0.5530864197530718
  0
CIRCLE
  8
_0-a_極細3
  6
CONTINUOUS
 62
    7
 10
157.91423256698977
 20
229.24116309941294
 40
1.825531472681392
  0
CIRCLE
  8
_0-a_極細3
  6
CONTINUOUS
 62
    7
 10
132.6920103447676
 20
206.44116309941296
 40
1.825531472681392
  0
CIRCLE
  8
_0-a_極細3
  6
CONTINUOUS
 62
    7
 10
113.09201034476771
 20
168.44116309941342
 40
1.825531472681392
  0
CIRCLE
  8
_0-a_極細3
  6
CONTINUOUS
 62
    7
 10
166.29201034476708
 20
155.64116309941369
 40
1.825531472681392
  0
CIRCLE
  8
_0-a_極細3
  6
CONTINUOUS
 62
    7
 10
202.26978812254472
 20
152.04116309941378
 40
1.825531472681392
  0
CIRCLE
  8
_0-a_極細3
  6
CONTINUOUS
 62
    7
 10
207.06978812254448
 20
133.37449643274724
 40
1.825531472681392
  0
LINE
  8
_0-a_極細3
  6
CONTINUOUS
 62
    7
 10
224.59732643683878
 20
222.027876139543
 11
225.43065977017227
 21
222.027876139543
  0
LINE
  8
_0-a_極細3
  6
CONTINUOUS
 62
    7
 10
225.43065977017227
 20
222.027876139543
 11
225.43065977017227
 21
120.78627584476386
  0
CIRCLE
  8
_0-a_極細3
  6
CONTINUOUS
 62
    7
 10
218.54322562254339
 20
206.04116309941358
 40
1.825531472681392
  0
CIRCLE
  8
_0-a_極細3
  6
CONTINUOUS
 62
    7
 10
217.5512696040262
 20
151.33128655620362
 40
0.5530864197530718
  0
CIRCLE
  8
_0-a_極細3
  6
CONTINUOUS
 62
    7
 10
218.88460293736017
 20
128.67521552303378
 40
0.5530864197530718
  0
CIRCLE
  8
_0-a_極細3
  6
CONTINUOUS
 62
    7
 10
206.51423256698513
 20
186.93005198830269
 40
1.825531472681392
  0
LINE
  8
_0-a_極細3
  6
CONTINUOUS
 62
    7
 10
131.79059154968698
 20
171.9095773020465
 11
126.66028939980173
 21
186.00496661383502
  0
LINE
  8
_0-a_極細3
  6
CONTINUOUS
 62
    7
 10
181.78463422348344
 20
206.06858731308125
 11
186.91493637336819
 21
191.97319800129279
  0
LINE
  8
_0-a_極細3
  6
CONTINUOUS
 62
    7
 10
126.66028939980173
 20
186.00496661383502
 11
181.78463422348344
 21
206.06858731308125
  0
LINE
  8
_0-a_極細3
  6
CONTINUOUS
 62
    7
 10
131.79059154968698
 20
171.9095773020465
 11
186.91493637336819
 21
191.97319800129279
  0
LINE
  8
_0-a_極細3
  6
CENTER1
 62
    7
 10
124.27000708275159
 20
177.15364191791082
 11
188.3010275653173
 21
200.45902740294628
  0
LINE
  8
_0-a_極細3
  6
CONTINUOUS
 62
    7
 10
150.43065977017227
 20
147.027876139543
 11
150.43065977017227
 21
191.11343748785913
  0
LINE
  8
_0-a_極細3
  6
CONTINUOUS
 62
    7
 10
150.43065977017227
 20
191.11343748785913
 11
135.43065977017227
 21
191.11343748785913
  0
LINE
  8
_0-a_極細3
  6
CONTINUOUS
 62
    7
 10
135.43065977017227
 20
191.11343748785913
 11
135.43065977017227
 21
147.027876139543
  0
CIRCLE
  8
_0-a_極細3
  6
CONTINUOUS
 62
    7
 10
164.81052886328627
 20
176.94980507472181
 40
1.825531472681392
  0
CIRCLE
  8
_0-a_極細3
  6
CONTINUOUS
 62
    7
 10
186.51917083859487
 20
183.17202729694415
 40
1.825531472681392
  0
LINE
  8
_0-a_極細3
  6
CENTER1
 62
    7
 10
142.93065977017227
 20
138.75113585509007
 11
142.93065977017227
 21
195.38915765246861
  0
LINE
  8
_0-d_寸法3
  6
CONTINUOUS
 62
    7
 10
165.43065977017227
 20
260.36120947287628
 11
119.48062869158278
 21
260.36120947287623
  0
LINE
  8
_0-d_寸法3
  6
CONTINUOUS
 62
    7
 10
124.48062869158278
 20
260.36120947287623
 11
127.06881914260791
 21
250.70195120998557
  0
LINE
  8
_0-d_寸法3
  6
CONTINUOUS
 62
    7
 10
124.48062869158278
 20
260.36120947287623
 11
121.89243824055751
 21
250.70195120998559
  0
LINE
  8
_0-d_寸法3
  6
CONTINUOUS
 62
    7
 10
163.43065977017233
 20
222.027876139543
 11
119.48062869158299
 21
222.027876139543
  0
LINE
  8
_0-d_寸法3
  6
CONTINUOUS
 62
    7
 10
124.48062869158299
 20
222.027876139543
 11
121.89243824055772
 21
231.68713440243366
  0
LINE
  8
_0-d_寸法3
  6
CONTINUOUS
 62
    7
 10
124.48062869158299
 20
222.027876139543
 11
127.06881914260819
 21
231.68713440243366
  0
LINE
  8
_0-d_寸法3
  6
CONTINUOUS
 62
    7
 10
124.48062869158278
 20
260.36120947287623
 11
124.48062869158299
 21
222.027876139543
  0
TEXT
  8
_0-d_寸法3
 62
    7
 10
124.48062869158299
 20
233.69454280620971
 40
15
 41
1
 50
90
  1
23
  0
LINE
  8
_0-d_寸法3
  6
CONTINUOUS
 62
    7
 10
165.43065977017227
 20
222.0278761395428
 11
119.48062869158299
 21
222.0278761395428
  0
LINE
  8
_0-d_寸法3
  6
CONTINUOUS
 62
    7
 10
124.48062869158299
 20
222.02787613954274
 11
127.06881914260819
 21
212.36861787665205
  0
LINE
  8
_0-d_寸法3
  6
CONTINUOUS
 62
    7
 10
124.48062869158299
 20
222.02787613954274
 11
121.89243824055772
 21
212.36861787665208
  0
LINE
  8
_0-d_寸法3
  6
CONTINUOUS
 62
    7
 10
163.43065977017233
 20
183.69454280620957
 11
119.48062869158299
 21
183.69454280620957
  0
LINE
  8
_0-d_寸法3
  6
CONTINUOUS
 62
    7
 10
124.48062869158299
 20
183.69454280620948
 11
121.89243824055772
 21
193.35380106910023
  0
LINE
  8
_0-d_寸法3
  6
CONTINUOUS
 62
    7
 10
124.48062869158299
 20
183.69454280620948
 11
127.06881914260819
 21
193.35380106910023
  0
LINE
  8
_0-d_寸法3
  6
CONTINUOUS
 62
    7
 10
124.48062869158299
 20
222.02787613954274
 11
124.48062869158299
 21
183.69454280620948
  0
TEXT
  8
_0-d_寸法3
 62
    7
 10
124.48062869158299
 20
195.36120947287628
 40
15
 41
1
 50
90
  1
23
  0
LINE
  8
_0-d_寸法3
  6
CONTINUOUS
 62
    7
 10
175.43065977017221
 20
173.69454280620971
 11
175.43065977017199
 21
156.54985090530431
  0
LINE
  8
_0-d_寸法3
  6
CONTINUOUS
 62
    7
 10
175.43065977017207
 20
161.54985090530431
 11
185.08991803306273
 21
164.13804135632958
  0
LINE
  8
_0-d_寸法3
  6
CONTINUOUS
 62
    7
 10
175.43065977017207
 20
161.54985090530431
 11
185.08991803306273
 21
158.96166045427913
  0
LINE
  8
_0-d_寸法3
  6
CONTINUOUS
 62
    7
 10
225.43065977017221
 20
212.027876139543
 11
225.4306597701715
 21
156.54985090530431
  0
LINE
  8
_0-d_寸法3
  6
CONTINUOUS
 62
    7
 10
225.43065977017164
 20
161.54985090530431
 11
215.77140150728093
 21
158.96166045427913
  0
LINE
  8
_0-d_寸法3
  6
CONTINUOUS
 62
    7
 10
225.43065977017164
 20
161.54985090530431
 11
215.77140150728098
 21
164.13804135632958
  0
LINE
  8
_0-d_寸法3
  6
CONTINUOUS
 62
    7
 10
175.43065977017207
 20
161.54985090530431
 11
225.43065977017164
 21
161.54985090530431
  0
TEXT
  8
_0-d_寸法3
 62
    7
 10
192.93065977017179
 20
161.54985090530431
 40
15
 41
1
 50
0
  1
30
  0
ARC
  8
_0-b_細線3
  6
CONTINUOUS
 62
    7
 10
180.43065977017227
 20
227.027876139543
 40
5
 50
179.99999999999983
 51
269.99999999999977
  0
LINE
  8
_0-b_細線3
  6
CONTINUOUS
 62
    7
 10
175.43065977017227
 20
227.027876139543
 11
175.43065977017227
 21
259.52787613954274
  0
LINE
  8
_0-b_細線3
  6
CONTINUOUS
 62
    7
 10
180.43065977017227
 20
222.027876139543
 11
224.59732643683878
 21
222.027876139543
  0
LINE
  8
_0-b_細線3
  6
CONTINUOUS
 62
    7
 10
225.43065977017227
 20
222.86120947287625
 11
224.59732643683878
 21
222.027876139543
  0
LINE
  8
_0-b_細線3
  6
CONTINUOUS
 62
    7
 10
225.43065977017227
 20
226.19454280620971
 11
225.43065977017227
 21
222.86120947287625
  0
LINE
  8
_0-b_細線3
  6
CONTINUOUS
 62
    7
 10
224.59732643683878
 20
227.027876139543
 11
225.43065977017227
 21
226.19454280620971
  0
LINE
  8
_0-b_細線3
  6
CONTINUOUS
 62
    7
 10
180.43065977017227
 20
227.027876139543
 11
224.59732643683878
 21
227.027876139543
  0
LINE
  8
_0-b_細線3
  6
CONTINUOUS
 62
    7
 10
176.26399310350536
 20
260.36120947287623
 11
175.43065977017227
 21
259.52787613954274
  0
LINE
  8
_0-b_細線3
  6
CONTINUOUS
 62
    7
 10
179.59732643683878
 20
260.36120947287623
 11
176.26399310350536
 21
260.36120947287623
  0
LINE
  8
_0-b_細線3
  6
CONTINUOUS
 62
    7
 10
180.43065977017227
 20
259.52787613954274
 11
179.59732643683878
 21
260.36120947287623
  0
LINE
  8
_0-b_細線3
  6
CONTINUOUS
 62
    7
 10
180.43065977017227
 20
227.027876139543
 11
180.43065977017227
 21
259.52787613954274
  0
ARC
  8
_0-b_細線3
  6
CONTINUOUS
 62
    7
 10
248.7639931035055
 20
281.49732058398718
 40
46.136111111111113
 50
256.63227178393214
 51
283.36772821606741
  0
ARC
  8
_0-b_細線3
  6
CONTINUOUS
 62
    7
 10
248.7639931035055
 20
205.89176502843202
 40
46.136111111111113
 50
76.632271783932239
 51
103.36772821606749
  0
LINE
  8
_0-b_細線3
  6
CONTINUOUS
 62
    7
 10
243.76399310350536
 20
258.36120947287623
 11
243.76399310350536
 21
260.36120947287623
  0
LINE
  8
_0-b_細線3
  6
CONTINUOUS
 62
    7
 10
238.09732643683901
 20
258.36120947287623
 11
243.76399310350536
 21
258.36120947287623
  0
LINE
  8
_0-b_細線3
  6
CONTINUOUS
 62
    7
 10
238.09732643683901
 20
227.027876139543
 11
238.09732643683901
 21
258.36120947287623
  0
LINE
  8
_0-b_細線3
  6
CONTINUOUS
 62
    7
 10
236.09732643683898
 20
227.027876139543
 11
238.09732643683901
 21
227.027876139543
  0
LINE
  8
_0-b_細線3
  6
CONTINUOUS
 62
    7
 10
236.09732643683898
 20
258.36120947287623
 11
236.09732643683898
 21
227.027876139543
  0
LINE
  8
_0-b_細線3
  6
CONTINUOUS
 62
    7
 10
230.43065977017227
 20
258.36120947287623
 11
236.09732643683898
 21
258.36120947287623
  0
LINE
  8
_0-b_細線3
  6
CONTINUOUS
 62
    7
 10
230.43065977017227
 20
260.36120947287623
 11
230.43065977017227
 21
258.36120947287623
  0
LINE
  8
_0-b_細線3
  6
CONTINUOUS
 62
    7
 10
243.76399310350536
 20
260.36120947287623
 11
230.43065977017227
 21
260.36120947287623
  0
ARC
  8
_0-b_細線3
  6
CONTINUOUS
 62
    7
 10
225.43065977017227
 20
281.49732058398718
 40
46.136111111111113
 50
256.63227178393186
 51
283.36772821606712
  0
ARC
  8
_0-b_細線3
  6
CONTINUOUS
 62
    7
 10
225.43065977017227
 20
205.89176502843202
 40
46.136111111111113
 50
76.632271783932524
 51
103.36772821606777
  0
LINE
  8
_0-b_細線3
  6
CONTINUOUS
 62
    7
 10
220.43065977017207
 20
258.36120947287623
 11
220.43065977017207
 21
260.36120947287623
  0
LINE
  8
_0-b_細線3
  6
CONTINUOUS
 62
    7
 10
214.76399310350558
 20
258.36120947287623
 11
220.43065977017207
 21
258.36120947287623
  0
LINE
  8
_0-b_細線3
  6
CONTINUOUS
 62
    7
 10
214.76399310350558
 20
227.027876139543
 11
214.76399310350558
 21
258.36120947287623
  0
LINE
  8
_0-b_細線3
  6
CONTINUOUS
 62
    7
 10
212.76399310350556
 20
227.027876139543
 11
214.76399310350558
 21
227.027876139543
  0
LINE
  8
_0-b_細線3
  6
CONTINUOUS
 62
    7
 10
212.76399310350556
 20
258.36120947287623
 11
212.76399310350556
 21
227.027876139543
  0
LINE
  8
_0-b_細線3
  6
CONTINUOUS
 62
    7
 10
207.09732643683907
 20
258.36120947287623
 11
212.76399310350556
 21
258.36120947287623
  0
LINE
  8
_0-b_細線3
  6
CONTINUOUS
 62
    7
 10
207.09732643683907
 20
260.36120947287623
 11
207.09732643683907
 21
258.36120947287623
  0
LINE
  8
_0-b_細線3
  6
CONTINUOUS
 62
    7
 10
220.43065977017207
 20
260.36120947287623
 11
207.09732643683907
 21
260.36120947287623
  0
ARC
  8
_0-b_細線3
  6
CONTINUOUS
 62
    7
 10
202.09732643683878
 20
281.49732058398718
 40
46.136111111111113
 50
256.63227178393214
 51
283.36772821606741
  0
ARC
  8
_0-b_細線3
  6
CONTINUOUS
 62
    7
 10
202.09732643683878
 20
205.89176502843202
 40
46.136111111111113
 50
76.632271783932239
 51
103.36772821606749
  0
LINE
  8
_0-b_細線3
  6
CONTINUOUS
 62
    7
 10
197.09732643683856
 20
258.36120947287623
 11
197.09732643683856
 21
260.36120947287623
  0
LINE
  8
_0-b_細線3
  6
CONTINUOUS
 62
    7
 10
191.4306597701723
 20
258.36120947287623
 11
197.09732643683856
 21
258.36120947287623
  0
LINE
  8
_0-b_細線3
  6
CONTINUOUS
 62
    7
 10
191.4306597701723
 20
227.027876139543
 11
191.4306597701723
 21
258.36120947287623
  0
LINE
  8
_0-b_細線3
  6
CONTINUOUS
 62
    7
 10
189.43065977017227
 20
227.027876139543
 11
191.4306597701723
 21
227.027876139543
  0
LINE
  8
_0-b_細線3
  6
CONTINUOUS
 62
    7
 10
189.43065977017227
 20
258.36120947287623
 11
189.43065977017227
 21
227.027876139543
  0
LINE
  8
_0-b_細線3
  6
CONTINUOUS
 62
    7
 10
183.7639931035055
 20
258.36120947287623
 11
189.43065977017227
 21
258.36120947287623
  0
LINE
  8
_0-b_細線3
  6
CONTINUOUS
 62
    7
 10
183.7639931035055
 20
260.36120947287623
 11
183.7639931035055
 21
258.36120947287623
  0
LINE
  8
_0-b_細線3
  6
CONTINUOUS
 62
    7
 10
197.09732643683856
 20
260.36120947287623
 11
183.7639931035055
 21
260.36120947287623
  0
ARC
  8
_0-b_細線3
  6
CONTINUOUS
 62
    7
 10
272.09732643683833
 20
281.49732058398718
 40
46.136111111111113
 50
256.63227178393214
 51
283.36772821606741
  0
ARC
  8
_0-b_細線3
  6
CONTINUOUS
 62
    7
 10
272.09732643683833
 20
205.89176502843202
 40
46.136111111111113
 50
76.632271783932239
 51
103.36772821606749
  0
LINE
  8
_0-b_細線3
  6
CONTINUOUS
 62
    7
 10
267.0973264368381
 20
258.36120947287623
 11
267.0973264368381
 21
260.36120947287623
  0
LINE
  8
_0-b_細線3
  6
CONTINUOUS
 62
    7
 10
261.43065977017187
 20
258.36120947287623
 11
267.0973264368381
 21
258.36120947287623
  0
LINE
  8
_0-b_細線3
  6
CONTINUOUS
 62
    7
 10
261.43065977017187
 20
227.027876139543
 11
261.43065977017187
 21
258.36120947287623
  0
LINE
  8
_0-b_細線3
  6
CONTINUOUS
 62
    7
 10
259.43065977017181
 20
227.027876139543
 11
261.43065977017187
 21
227.027876139543
  0
LINE
  8
_0-b_細線3
  6
CONTINUOUS
 62
    7
 10
259.43065977017181
 20
258.36120947287623
 11
259.43065977017181
 21
227.027876139543
  0
LINE
  8
_0-b_細線3
  6
CONTINUOUS
 62
    7
 10
253.76399310350507
 20
258.36120947287623
 11
259.43065977017181
 21
258.36120947287623
  0
LINE
  8
_0-b_細線3
  6
CONTINUOUS
 62
    7
 10
253.76399310350507
 20
260.36120947287623
 11
253.76399310350507
 21
258.36120947287623
  0
LINE
  8
_0-b_細線3
  6
CONTINUOUS
 62
    7
 10
267.0973264368381
 20
260.36120947287623
 11
253.76399310350507
 21
260.36120947287623
  0
CIRCLE
  8
_0-a_極細3
  6
CONTINUOUS
 62
    7
 10
837.42534367809697
 20
245.62665692657291
 40
0.5530864197530718
  0
CIRCLE
  8
_0-a_極細3
  6
CONTINUOUS
 62
    7
 10
785.42534367809776
 20
246.55999025990627
 40
0.5530864197530718
  0
LINE
  8
_0-a_極細3
  6
CONTINUOUS
 62
    7
 10
773.76399310350507
 20
260.36120947287623
 11
773.76399310350507
 21
248.69454280620928
  0
LINE
  8
_0-a_極細3
  6
CONTINUOUS
 62
    7
 10
765.43065977017204
 20
248.69454280620928
 11
862.94174024862014
 21
248.69454280620928
  0
LINE
  8
_0-a_極細3
  6
CONTINUOUS
 62
    7
 10
765.43065977017204
 20
259.52787613954274
 11
765.43065977017204
 21
260.36120947287623
  0
LINE
  8
_0-a_極細3
  6
CONTINUOUS
 62
    7
 10
773.76399310350507
 20
252.36362908693422
 11
770.09490682278056
 21
248.69454280620928
  0
LINE
  8
_0-a_極細3
  6
CONTINUOUS
 62
    7
 10
773.76399310350507
 20
256.60626977405332
 11
765.85226613566147
 21
248.69454280620928
  0
LINE
  8
_0-a_極細3
  6
CONTINUOUS
 62
    7
 10
765.43065977017204
 20
252.51557712783938
 11
773.27629211520843
 21
260.36120947287623
  0
LINE
  8
_0-a_極細3
  6
CONTINUOUS
 62
    7
 10
765.43065977017204
 20
256.7582178149587
 11
769.03365142808934
 21
260.361209472876
  0
LINE
  8
_0-a_極細3
  6
CONTINUOUS
 62
    7
 10
773.76399310350507
 20
258.8518872633706
 11
772.25467089399956
 21
260.36120947287623
  0
LINE
  8
_0-a_極細3
  6
CONTINUOUS
 62
    7
 10
773.76399310350507
 20
254.60924657625128
 11
768.01203020688035
 21
260.36120947287623
  0
LINE
  8
_0-a_極細3
  6
CONTINUOUS
 62
    7
 10
773.76399310350507
 20
250.36660588913196
 11
765.43065977017204
 21
258.69993922246545
  0
LINE
  8
_0-a_極細3
  6
CONTINUOUS
 62
    7
 10
771.19341549930823
 20
248.69454280620928
 11
765.43065977017204
 21
254.45729853534615
  0
LINE
  8
_0-a_極細3
  6
CONTINUOUS
 62
    7
 10
766.95077481218914
 20
248.69454280620928
 11
765.43065977017204
 21
250.21465784822681
  0
LINE
  8
_0-a_極細3
  6
CONTINUOUS
 62
    7
 10
842.21979850380785
 20
248.69454280620928
 11
853.88646454368563
 21
260.36120884608704
  0
LINE
  8
_0-a_極細3
  6
CONTINUOUS
 62
    7
 10
821.0065950682116
 20
248.69454280620948
 11
832.67326127403851
 21
260.36120901203572
  0
LINE
  8
_0-a_極細3
  6
CONTINUOUS
 62
    7
 10
799.79339163261511
 20
248.69454280620928
 11
811.46005800439025
 21
260.36120917798394
  0
LINE
  8
_0-a_極細3
  6
CONTINUOUS
 62
    7
 10
778.58018819701886
 20
248.69454280620928
 11
790.24685473474221
 21
260.36120934393261
  0
LINE
  8
_0-a_極細3
  6
DASHED2
 62
    7
 10
852.82640022160706
 20
248.69454280620948
 11
862.94174024862014
 21
258.8098828332229
  0
LINE
  8
_0-a_極細3
  6
DASHED2
 62
    7
 10
831.61319678600978
 20
248.69454280620928
 11
843.27986290886156
 21
260.36120892906115
  0
LINE
  8
_0-a_極細3
  6
DASHED2
 62
    7
 10
810.3999933504133
 20
248.69454280620928
 11
822.06665963921432
 21
260.36120909500983
  0
LINE
  8
_0-a_極細3
  6
DASHED2
 62
    7
 10
789.18678991481693
 20
248.69454280620928
 11
800.85345636956617
 21
260.36120926095828
  0
LINE
  8
_0-a_極細3
  6
DASHED2
 62
    7
 10
773.76399310350507
 20
254.4849494304938
 11
779.64025309991814
 21
260.36120942690673
  0
CIRCLE
  8
_0-a_極細3
  6
CONTINUOUS
 62
    7
 10
845.42534367809697
 20
245.99671865496816
 40
1.825531472681392
  0
CIRCLE
  8
_0-a_極細3
  6
CONTINUOUS
 62
    7
 10
806.7586770114309
 20
242.57449643274617
 40
1.825531472681392
  0
LINE
  8
_0-a_極細3
  6
CONTINUOUS
 62
    7
 10
765.43065977017204
 20
260.36120947287623
 11
862.94174024862014
 21
260.36120947287623
  0
LINE
  8
_0-a_極細3
  6
CONTINUOUS
 62
    7
 10
832.09732643683822
 20
215.36120947287625
 11
832.09732643683822
 21
147.027876139543
  0
LINE
  8
_0-a_極細3
  6
CONTINUOUS
 62
    7
 10
748.76399310350507
 20
147.027876139543
 11
832.09732643683822
 21
147.027876139543
  0
LINE
  8
_0-a_極細3
  6
CONTINUOUS
 62
    7
 10
832.09732643683822
 20
215.36120947287625
 11
862.94174024862014
 21
215.36120947287625
  0
LINE
  8
_0-a_極細3
  6
CONTINUOUS
 62
    7
 10
748.76399310350507
 20
147.027876139543
 11
748.76399310350507
 21
120.78627584476386
  0
LINE
  8
_0-a_極細3
  6
CONTINUOUS
 62
    7
 10
840.3873288514319
 20
120.78627584476386
 11
862.94174029016051
 21
143.3406872834928
  0
LINE
  8
_0-a_極細3
  6
CONTINUOUS
 62
    7
 10
769.67665073277715
 20
120.78627584476386
 11
795.91825102755547
 21
147.027876139543
  0
LINE
  8
_0-a_極細3
  6
CONTINUOUS
 62
    7
 10
832.09732643683822
 20
183.20695154882557
 11
862.94174024937502
 21
214.05136536136254
  0
LINE
  8
_0-a_極細3
  6
CONTINUOUS
 62
    7
 10
833.31626103956626
 20
120.78627584476386
 11
862.94174028608222
 21
150.41175509127996
  0
LINE
  8
_0-a_極細3
  6
CONTINUOUS
 62
    7
 10
762.60558292091127
 20
120.78627584476386
 11
788.84718321569062
 21
147.027876139543
  0
LINE
  8
_0-a_極細3
  6
CONTINUOUS
 62
    7
 10
832.09732643683822
 20
190.2780193606911
 11
857.18051636947303
 21
215.36120929332583
  0
LINE
  8
_0-a_極細3
  6
CONTINUOUS
 62
    7
 10
826.24519322770038
 20
120.78627584476386
 11
862.94174028200314
 21
157.48282289906683
  0
LINE
  8
_0-a_極細3
  6
CONTINUOUS
 62
    7
 10
755.53451510904551
 20
120.78627584476386
 11
781.77611540382486
 21
147.027876139543
  0
LINE
  8
_0-a_極細3
  6
CONTINUOUS
 62
    7
 10
832.09732643683822
 20
197.34908717255664
 11
850.10944860822428
 21
215.36120934394194
  0
CIRCLE
  8
_0-a_極細3
  6
CONTINUOUS
 62
    7
 10
735.1697881225424
 20
205.88221248212903
 40
0.5530864197530718
  0
CIRCLE
  8
_0-a_極細3
  6
CONTINUOUS
 62
    7
 10
745.12534367809758
 20
210.68221248212899
 40
0.5530864197530718
  0
CIRCLE
  8
_0-a_極細3
  6
CONTINUOUS
 62
    7
 10
741.03645478920907
 20
185.70443470435157
 40
0.5530864197530718
  0
CIRCLE
  8
_0-a_極細3
  6
CONTINUOUS
 62
    7
 10
758.56978812254283
 20
168.68221248212947
 40
0.5530864197530718
  0
CIRCLE
  8
_0-a_極細3
  6
CONTINUOUS
 62
    7
 10
740.73645478920889
 20
145.38221248212972
 40
0.5530864197530718
  0
CIRCLE
  8
_0-a_極細3
  6
CONTINUOUS
 62
    7
 10
731.40312145587586
 20
127.51554581546316
 40
0.5530864197530718
  0
CIRCLE
  8
_0-a_極細3
  6
CONTINUOUS
 62
    7
 10
742.86978812254222
 20
157.38221248212952
 40
0.5530864197530718
  0
CIRCLE
  8
_0-a_極細3
  6
CONTINUOUS
 62
    7
 10
756.73645478920889
 20
152.58221248212953
 40
0.5530864197530718
  0
CIRCLE
  8
_0-a_極細3
  6
CONTINUOUS
 62
    7
 10
783.66978812254229
 20
152.84887914879619
 40
0.5530864197530718
  0
CIRCLE
  8
_0-a_極細3
  6
CONTINUOUS
 62
    7
 10
771.66978812254229
 20
161.91554581546285
 40
0.5530864197530718
  0
CIRCLE
  8
_0-a_極細3
  6
CONTINUOUS
 62
    7
 10
782.86978812254222
 20
167.51554581546273
 40
0.5530864197530718
  0
CIRCLE
  8
_0-a_極細3
  6
CONTINUOUS
 62
    7
 10
770.892010344764
 20
221.80443470435105
 40
0.5530864197530718
  0
CIRCLE
  8
_0-a_極細3
  6
CONTINUOUS
 62
    7
 10
791.42534367809787
 20
221.09332359324003
 40
0.5530864197530718
  0
CIRCLE
  8
_0-a_極細3
  6
CONTINUOUS
 62
    7
 10
779.82534367809751
 20
207.09332359324006
 40
0.5530864197530718
  0
CIRCLE
  8
_0-a_極細3
  6
CONTINUOUS
 62
    7
 10
819.02534367809722
 20
153.89332359324067
 40
0.5530864197530718
  0
CIRCLE
  8
_0-a_極細3
  6
CONTINUOUS
 62
    7
 10
826.22534367809703
 20
167.89332359324064
 40
0.5530864197530718
  0
CIRCLE
  8
_0-a_極細3
  6
CONTINUOUS
 62
    7
 10
824.62534367809667
 20
188.69332359324039
 40
0.5530864197530718
  0
CIRCLE
  8
_0-a_極細3
  6
CONTINUOUS
 62
    7
 10
806.62534367809769
 20
209.89332359324024
 40
0.5530864197530718
  0
CIRCLE
  8
_0-a_極細3
  6
CONTINUOUS
 62
    7
 10
823.42534367809685
 20
229.49332359323989
 40
0.5530864197530718
  0
CIRCLE
  8
_0-a_極細3
  6
CONTINUOUS
 62
    7
 10
820.62534367809678
 20
202.69332359324017
 40
0.5530864197530718
  0
CIRCLE
  8
_0-a_極細3
  6
CONTINUOUS
 62
    7
 10
850.22534367809715
 20
223.89332359324001
 40
0.5530864197530718
  0
CIRCLE
  8
_0-a_極細3
  6
CONTINUOUS
 62
    7
 10
829.78089923365269
 20
222.19671865496846
 40
1.825531472681392
  0
CIRCLE
  8
_0-a_極細3
  6
CONTINUOUS
 62
    7
 10
774.35867701143127
 20
228.77449643274622
 40
1.825531472681392
  0
CIRCLE
  8
_0-a_極細3
  6
CONTINUOUS
 62
    7
 10
806.35867701143025
 20
196.77449643274642
 40
1.825531472681392
  0
CIRCLE
  8
_0-a_極細3
  6
CONTINUOUS
 62
    7
 10
735.96423256698699
 20
152.22449643274695
 40
1.825531472681392
  0
CIRCLE
  8
_0-a_極細3
  6
CONTINUOUS
 62
    7
 10
746.18645478920871
 20
182.09116309941351
 40
1.825531472681392
  0
CIRCLE
  8
_0-a_極細3
  6
CONTINUOUS
 62
    7
 10
781.38645478920864
 20
159.69116309941364
 40
1.825531472681392
  0
CIRCLE
  8
_0-a_極細3
  6
CONTINUOUS
 62
    7
 10
827.65164742449224
 20
149.50411070744417
 40
1.825531472681392
  0
CIRCLE
  8
_0-a_極細3
  6
CONTINUOUS
 62
    7
 10
776.98645478920889
 20
202.89116309941321
 40
1.825531472681392
  0
CIRCLE
  8
_0-a_極細3
  6
CONTINUOUS
 62
    7
 10
729.52040540649296
 20
197.46795769237679
 40
0.5530864197530718
  0
CIRCLE
  8
_0-a_極細3
  6
CONTINUOUS
 62
    7
 10
729.72040540649368
 20
173.51240213682146
 40
0.5530864197530718
  0
LINE
  8
_0-a_極細3
  6
CONTINUOUS
 62
    7
 10
716.26399310350416
 20
222.027876139543
 11
715.43065977017125
 21
222.027876139543
  0
LINE
  8
_0-a_極細3
  6
CONTINUOUS
 62
    7
 10
715.43065977017125
 20
222.027876139543
 11
715.43065977017125
 21
120.78627584476386
  0
CIRCLE
  8
_0-a_極細3
  6
CONTINUOUS
 62
    7
 10
721.4150556122546
 20
181.97110137101822
 40
0.5530864197530718
  0
CIRCLE
  8
_0-a_極細3
  6
CONTINUOUS
 62
    7
 10
722.72163997439429
 20
142.71554581546297
 40
0.5530864197530718
  0
CIRCLE
  8
_0-a_極細3
  6
CONTINUOUS
 62
    7
 10
722.0827510855047
 20
208.66894087719152
 40
1.825531472681392
  0
CIRCLE
  8
_0-a_極細3
  6
CONTINUOUS
 62
    7
 10
725.03089923365269
 20
136.04671865496903
 40
1.825531472681392
  0
LINE
  8
_0-a_極細3
  6
CONTINUOUS
 62
    7
 10
809.07072799065702
 20
171.9095773020465
 11
814.20103014054223
 21
186.00496661383502
  0
LINE
  8
_0-a_極細3
  6
CONTINUOUS
 62
    7
 10
759.07668531686113
 20
206.06858731308125
 11
753.94638316697592
 21
191.97319800129279
  0
LINE
  8
_0-a_極細3
  6
CONTINUOUS
 62
    7
 10
814.20103014054223
 20
186.00496661383502
 11
759.07668531686113
 21
206.06858731308125
  0
LINE
  8
_0-a_極細3
  6
CONTINUOUS
 62
    7
 10
809.07072799065702
 20
171.9095773020465
 11
753.94638316697592
 21
191.97319800129279
  0
LINE
  8
_0-a_極細3
  6
CENTER1
 62
    7
 10
816.59131245759227
 20
177.15364191791082
 11
752.56029197502687
 21
200.45902740294628
  0
LINE
  8
_0-a_極細3
  6
CONTINUOUS
 62
    7
 10
790.43065977017204
 20
147.027876139543
 11
790.43065977017204
 21
191.11343748785913
  0
LINE
  8
_0-a_極細3
  6
CONTINUOUS
 62
    7
 10
790.43065977017204
 20
191.11343748785913
 11
805.43065977017204
 21
191.11343748785913
  0
LINE
  8
_0-a_極細3
  6
CONTINUOUS
 62
    7
 10
805.43065977017204
 20
191.11343748785913
 11
805.43065977017204
 21
147.027876139543
  0
LINE
  8
_0-a_極細3
  6
CENTER1
 62
    7
 10
797.93065977017204
 20
138.75113585509007
 11
797.93065977017204
 21
195.38915765246861
  0
CIRCLE
  8
_0-a_極細3
  6
CONTINUOUS
 62
    7
 10
792.04756590032002
 20
204.18961988953654
 40
0.5530864197530718
  0
CIRCLE
  8
_0-a_極細3
  6
CONTINUOUS
 62
    7
 10
814.26375245724694
 20
190.8464100129936
 40
0.5530864197530718
  0
LINE
  8
_0-d_寸法3
  6
CONTINUOUS
 62
    7
 10
765.43065977017204
 20
173.69454280620971
 11
765.43065977017204
 21
156.54985090530431
  0
LINE
  8
_0-d_寸法3
  6
CONTINUOUS
 62
    7
 10
765.43065977017204
 20
161.54985090530431
 11
755.77140150728144
 21
158.96166045427913
  0
LINE
  8
_0-d_寸法3
  6
CONTINUOUS
 62
    7
 10
765.43065977017204
 20
161.54985090530431
 11
755.77140150728144
 21
164.13804135632958
  0
LINE
  8
_0-d_寸法3
  6
CONTINUOUS
 62
    7
 10
715.43065977017204
 20
212.027876139543
 11
715.43065977017204
 21
156.54985090530431
  0
LINE
  8
_0-d_寸法3
  6
CONTINUOUS
 62
    7
 10
715.43065977017204
 20
161.54985090530431
 11
725.08991803306276
 21
164.13804135632958
  0
LINE
  8
_0-d_寸法3
  6
CONTINUOUS
 62
    7
 10
715.43065977017204
 20
161.54985090530431
 11
725.08991803306276
 21
158.96166045427913
  0
LINE
  8
_0-d_寸法3
  6
CONTINUOUS
 62
    7
 10
765.43065977017204
 20
161.54985090530431
 11
715.43065977017204
 21
161.54985090530431
  0
TEXT
  8
_0-d_寸法3
 62
    7
 10
732.93065977017204
 20
161.54985090530431
 40
15
 41
1
 50
0
  1
30
  0
ARC
  8
_0-b_細線3
  6
CONTINUOUS
 62
    7
 10
760.43065977017204
 20
227.027876139543
 40
5
 50
269.99999999999977
 51
359.99999999999966
  0
LINE
  8
_0-b_細線3
  6
CONTINUOUS
 62
    7
 10
765.43065977017204
 20
227.027876139543
 11
765.43065977017204
 21
259.52787613954274
  0
LINE
  8
_0-b_細線3
  6
CONTINUOUS
 62
    7
 10
760.43065977017204
 20
222.027876139543
 11
716.26399310350416
 21
222.027876139543
  0
LINE
  8
_0-b_細線3
  6
CONTINUOUS
 62
    7
 10
715.43065977017125
 20
222.86120947287625
 11
716.26399310350416
 21
222.027876139543
  0
LINE
  8
_0-b_細線3
  6
CONTINUOUS
 62
    7
 10
715.43065977017125
 20
226.19454280620971
 11
715.43065977017125
 21
222.86120947287625
  0
LINE
  8
_0-b_細線3
  6
CONTINUOUS
 62
    7
 10
716.26399310350416
 20
227.027876139543
 11
715.43065977017125
 21
226.19454280620971
  0
LINE
  8
_0-b_細線3
  6
CONTINUOUS
 62
    7
 10
760.43065977017204
 20
227.027876139543
 11
716.26399310350416
 21
227.027876139543
  0
LINE
  8
_0-b_細線3
  6
CONTINUOUS
 62
    7
 10
764.59732643683901
 20
260.36120947287623
 11
765.43065977017204
 21
259.52787613954274
  0
LINE
  8
_0-b_細線3
  6
CONTINUOUS
 62
    7
 10
761.26399310350507
 20
260.36120947287623
 11
764.59732643683901
 21
260.36120947287623
  0
LINE
  8
_0-b_細線3
  6
CONTINUOUS
 62
    7
 10
760.43065977017204
 20
259.52787613954274
 11
761.26399310350507
 21
260.36120947287623
  0
LINE
  8
_0-b_細線3
  6
CONTINUOUS
 62
    7
 10
760.43065977017204
 20
227.027876139543
 11
760.43065977017204
 21
259.52787613954274
  0
ARC
  8
_0-b_細線3
  6
CONTINUOUS
 62
    7
 10
715.43065977017204
 20
281.49732058398718
 40
46.136111111111113
 50
256.63227178393214
 51
283.36772821606712
  0
ARC
  8
_0-b_細線3
  6
CONTINUOUS
 62
    7
 10
715.43065977017204
 20
205.89176502843202
 40
46.136111111111113
 50
76.632271783932524
 51
103.36772821606749
  0
LINE
  8
_0-b_細線3
  6
CONTINUOUS
 62
    7
 10
733.76399310350553
 20
258.36120947287623
 11
733.76399310350553
 21
260.36120947287623
  0
LINE
  8
_0-b_細線3
  6
CONTINUOUS
 62
    7
 10
728.09732643683856
 20
258.36120947287623
 11
733.76399310350553
 21
258.36120947287623
  0
LINE
  8
_0-b_細線3
  6
CONTINUOUS
 62
    7
 10
728.09732643683856
 20
227.027876139543
 11
728.09732643683856
 21
258.36120947287623
  0
LINE
  8
_0-b_細線3
  6
CONTINUOUS
 62
    7
 10
726.09732643683901
 20
227.027876139543
 11
728.09732643683856
 21
227.027876139543
  0
LINE
  8
_0-b_細線3
  6
CONTINUOUS
 62
    7
 10
726.09732643683901
 20
258.36120947287623
 11
726.09732643683901
 21
227.027876139543
  0
LINE
  8
_0-b_細線3
  6
CONTINUOUS
 62
    7
 10
720.43065977017204
 20
258.36120947287623
 11
726.09732643683901
 21
258.36120947287623
  0
LINE
  8
_0-b_細線3
  6
CONTINUOUS
 62
    7
 10
720.43065977017204
 20
260.36120947287623
 11
720.43065977017204
 21
258.36120947287623
  0
LINE
  8
_0-b_細線3
  6
CONTINUOUS
 62
    7
 10
733.76399310350553
 20
260.36120947287623
 11
720.43065977017204
 21
260.36120947287623
  0
ARC
  8
_0-b_細線3
  6
CONTINUOUS
 62
    7
 10
738.76399310350507
 20
281.49732058398718
 40
46.136111111111113
 50
256.63227178393214
 51
283.36772821606712
  0
ARC
  8
_0-b_細線3
  6
CONTINUOUS
 62
    7
 10
738.76399310350507
 20
205.89176502843202
 40
46.136111111111113
 50
76.632271783932524
 51
103.36772821606749
  0
LINE
  8
_0-b_細線3
  6
CONTINUOUS
 62
    7
 10
757.09732643683867
 20
258.36120947287623
 11
757.09732643683867
 21
260.36120947287623
  0
LINE
  8
_0-b_細線3
  6
CONTINUOUS
 62
    7
 10
751.43065977017159
 20
258.36120947287623
 11
757.09732643683867
 21
258.36120947287623
  0
LINE
  8
_0-b_細線3
  6
CONTINUOUS
 62
    7
 10
751.43065977017159
 20
227.027876139543
 11
751.43065977017159
 21
258.36120947287623
  0
LINE
  8
_0-b_細線3
  6
CONTINUOUS
 62
    7
 10
749.43065977017216
 20
227.027876139543
 11
751.43065977017159
 21
227.027876139543
  0
LINE
  8
_0-b_細線3
  6
CONTINUOUS
 62
    7
 10
749.43065977017216
 20
258.36120947287623
 11
749.43065977017216
 21
227.027876139543
  0
LINE
  8
_0-b_細線3
  6
CONTINUOUS
 62
    7
 10
743.76399310350507
 20
258.36120947287623
 11
749.43065977017216
 21
258.36120947287623
  0
LINE
  8
_0-b_細線3
  6
CONTINUOUS
 62
    7
 10
743.76399310350507
 20
260.36120947287623
 11
743.76399310350507
 21
258.36120947287623
  0
LINE
  8
_0-b_細線3
  6
CONTINUOUS
 62
    7
 10
757.09732643683867
 20
260.36120947287623
 11
743.76399310350507
 21
260.36120947287623
  0
ARC
  8
_0-b_細線3
  6
CONTINUOUS
 62
    7
 10
692.09732643683719
 20
281.49732058398718
 40
46.136111111111113
 50
256.63227178393214
 51
283.36772821606769
  0
ARC
  8
_0-b_細線3
  6
CONTINUOUS
 62
    7
 10
692.09732643683719
 20
205.89176502843202
 40
46.136111111111113
 50
76.632271783931969
 51
103.36772821606749
  0
LINE
  8
_0-b_細線3
  6
CONTINUOUS
 62
    7
 10
710.43065977017125
 20
258.36120947287623
 11
710.43065977017125
 21
260.36120947287623
  0
LINE
  8
_0-b_細線3
  6
CONTINUOUS
 62
    7
 10
704.76399310350416
 20
258.36120947287623
 11
710.43065977017125
 21
258.36120947287623
  0
LINE
  8
_0-b_細線3
  6
CONTINUOUS
 62
    7
 10
704.76399310350416
 20
227.027876139543
 11
704.76399310350416
 21
258.36120947287623
  0
LINE
  8
_0-b_細線3
  6
CONTINUOUS
 62
    7
 10
702.76399310350416
 20
227.027876139543
 11
704.76399310350416
 21
227.027876139543
  0
LINE
  8
_0-b_細線3
  6
CONTINUOUS
 62
    7
 10
702.76399310350416
 20
258.36120947287623
 11
702.76399310350416
 21
227.027876139543
  0
LINE
  8
_0-b_細線3
  6
CONTINUOUS
 62
    7
 10
697.09732643683719
 20
258.36120947287623
 11
702.76399310350416
 21
258.36120947287623
  0
LINE
  8
_0-b_細線3
  6
CONTINUOUS
 62
    7
 10
697.09732643683719
 20
260.36120947287623
 11
697.09732643683719
 21
258.36120947287623
  0
LINE
  8
_0-b_細線3
  6
CONTINUOUS
 62
    7
 10
710.43065977017125
 20
260.36120947287623
 11
697.09732643683719
 21
260.36120947287623
  0
ARC
  8
_0-b_細線3
  6
CONTINUOUS
 62
    7
 10
645.43065977016749
 20
281.49732058398718
 40
46.136111111111113
 50
256.63227178393214
 51
283.36772821606769
  0
ARC
  8
_0-b_細線3
  6
CONTINUOUS
 62
    7
 10
645.43065977016749
 20
205.89176502843202
 40
46.136111111111113
 50
76.632271783931969
 51
103.36772821606749
  0
LINE
  8
_0-b_細線3
  6
CONTINUOUS
 62
    7
 10
663.76399310350155
 20
258.36120947287623
 11
663.76399310350155
 21
260.36120947287623
  0
LINE
  8
_0-b_細線3
  6
CONTINUOUS
 62
    7
 10
658.09732643683446
 20
258.36120947287623
 11
663.76399310350155
 21
258.36120947287623
  0
LINE
  8
_0-b_細線3
  6
CONTINUOUS
 62
    7
 10
658.09732643683446
 20
227.027876139543
 11
658.09732643683446
 21
258.36120947287623
  0
LINE
  8
_0-b_細線3
  6
CONTINUOUS
 62
    7
 10
656.09732643683446
 20
227.027876139543
 11
658.09732643683446
 21
227.027876139543
  0
LINE
  8
_0-b_細線3
  6
CONTINUOUS
 62
    7
 10
656.09732643683446
 20
258.36120947287623
 11
656.09732643683446
 21
227.027876139543
  0
LINE
  8
_0-b_細線3
  6
CONTINUOUS
 62
    7
 10
650.43065977016749
 20
258.36120947287623
 11
656.09732643683446
 21
258.36120947287623
  0
LINE
  8
_0-b_細線3
  6
CONTINUOUS
 62
    7
 10
650.43065977016749
 20
260.36120947287623
 11
650.43065977016749
 21
258.36120947287623
  0
LINE
  8
_0-b_細線3
  6
CONTINUOUS
 62
    7
 10
663.76399310350155
 20
260.36120947287623
 11
650.43065977016749
 21
260.36120947287623
  0
ARC
  8
_0-b_細線3
  6
CONTINUOUS
 62
    7
 10
668.76399310350052
 20
281.49732058398718
 40
46.136111111111113
 50
256.63227178393163
 51
283.36772821606712
  0
ARC
  8
_0-b_細線3
  6
CONTINUOUS
 62
    7
 10
668.76399310350052
 20
205.89176502843202
 40
46.136111111111113
 50
76.632271783932524
 51
103.36772821606749
  0
LINE
  8
_0-b_細線3
  6
CONTINUOUS
 62
    7
 10
687.09732643683355
 20
258.36120947287623
 11
687.09732643683355
 21
260.36120947287623
  0
LINE
  8
_0-b_細線3
  6
CONTINUOUS
 62
    7
 10
681.43065977016659
 20
258.36120947287623
 11
687.09732643683355
 21
258.36120947287623
  0
LINE
  8
_0-b_細線3
  6
CONTINUOUS
 62
    7
 10
681.43065977016659
 20
227.027876139543
 11
681.43065977016659
 21
258.36120947287623
  0
LINE
  8
_0-b_細線3
  6
CONTINUOUS
 62
    7
 10
679.43065977016704
 20
227.027876139543
 11
681.43065977016659
 21
227.027876139543
  0
LINE
  8
_0-b_細線3
  6
CONTINUOUS
 62
    7
 10
679.43065977016704
 20
258.36120947287623
 11
679.43065977016704
 21
227.027876139543
  0
LINE
  8
_0-b_細線3
  6
CONTINUOUS
 62
    7
 10
673.76399310350052
 20
258.36120947287623
 11
679.43065977016704
 21
258.36120947287623
  0
LINE
  8
_0-b_細線3
  6
CONTINUOUS
 62
    7
 10
673.76399310350052
 20
260.36120947287623
 11
673.76399310350052
 21
258.36120947287623
  0
LINE
  8
_0-b_細線3
  6
CONTINUOUS
 62
    7
 10
687.09732643683355
 20
260.36120947287623
 11
673.76399310350052
 21
260.36120947287623
  0
LINE
  8
_0-d_寸法3
  6
CONTINUOUS
 62
    7
 10
175.43065977017227
 20
265.36120947287623
 11
175.43065977017227
 21
375.36120780453166
  0
LINE
  8
_0-d_寸法3
  6
CONTINUOUS
 62
    7
 10
175.43065977017227
 20
370.36120780453166
 11
185.08991803306301
 21
372.94939825555684
  0
LINE
  8
_0-d_寸法3
  6
CONTINUOUS
 62
    7
 10
175.43065977017227
 20
370.36120780453166
 11
185.08991803306301
 21
367.77301735350648
  0
LINE
  8
_0-d_寸法3
  6
CONTINUOUS
 62
    7
 10
765.43065977017204
 20
265.36120947287623
 11
765.43065977017204
 21
375.36120780453166
  0
LINE
  8
_0-d_寸法3
  6
CONTINUOUS
 62
    7
 10
765.43065977017204
 20
370.36120780453166
 11
755.77140150728144
 21
367.77301735350648
  0
LINE
  8
_0-d_寸法3
  6
CONTINUOUS
 62
    7
 10
765.43065977017204
 20
370.36120780453166
 11
755.77140150728144
 21
372.94939825555696
  0
LINE
  8
_0-d_寸法3
  6
CONTINUOUS
 62
    7
 10
175.43065977017227
 20
370.36120780453166
 11
765.43065977017204
 21
370.36120780453166
  0
TEXT
  8
_0-d_寸法3
 62
    7
 10
459.18065977017204
 20
370.36120780453166
 40
15
 41
1
 50
0
  1
354
  0
LINE
  8
_0-d_寸法3
  6
CONTINUOUS
 62
    7
 10
225.43065977017227
 20
217.027876139543
 11
225.43065977017227
 21
156.54985090530431
  0
LINE
  8
_0-d_寸法3
  6
CONTINUOUS
 62
    7
 10
225.43065977017227
 20
161.54985090530431
 11
235.08991803306301
 21
164.13804135632958
  0
LINE
  8
_0-d_寸法3
  6
CONTINUOUS
 62
    7
 10
225.43065977017227
 20
161.54985090530431
 11
235.08991803306301
 21
158.96166045427913
  0
LINE
  8
_0-d_寸法3
  6
CONTINUOUS
 62
    7
 10
715.43065977017125
 20
217.027876139543
 11
715.43065977017125
 21
156.54985090530431
  0
LINE
  8
_0-d_寸法3
  6
CONTINUOUS
 62
    7
 10
715.43065977017125
 20
161.54985090530431
 11
705.77140150728042
 21
158.96166045427913
  0
LINE
  8
_0-d_寸法3
  6
CONTINUOUS
 62
    7
 10
715.43065977017125
 20
161.54985090530431
 11
705.77140150728042
 21
164.13804135632958
  0
LINE
  8
_0-d_寸法3
  6
CONTINUOUS
 62
    7
 10
225.43065977017227
 20
161.54985090530431
 11
715.43065977017125
 21
161.54985090530431
  0
TEXT
  8
_0-d_寸法3
 62
    7
 10
459.18065977017204
 20
161.54985090530431
 40
15
 41
1
 50
0
  1
294
  0
LINE
  8
_0-a_極細3
  6
CENTER1
 62
    7
 10
768.09741483799428
 20
243.69454280620971
 11
173.77666732563171
 21
243.69454280620971
  0
ARC
  8
_0-b_細線3
  6
CONTINUOUS
 62
    7
 10
295.43065977017113
 20
281.49732058398718
 40
46.136111111111113
 50
256.63227178393214
 51
283.36772821606741
  0
ARC
  8
_0-b_細線3
  6
CONTINUOUS
 62
    7
 10
295.43065977017113
 20
205.89176502843202
 40
46.136111111111113
 50
76.632271783932239
 51
103.36772821606749
  0
LINE
  8
_0-b_細線3
  6
CONTINUOUS
 62
    7
 10
290.43065977017091
 20
258.36120947287623
 11
290.43065977017091
 21
260.36120947287623
  0
LINE
  8
_0-b_細線3
  6
CONTINUOUS
 62
    7
 10
284.76399310350462
 20
258.36120947287623
 11
290.43065977017091
 21
258.36120947287623
  0
LINE
  8
_0-b_細線3
  6
CONTINUOUS
 62
    7
 10
284.76399310350462
 20
227.027876139543
 11
284.76399310350462
 21
258.36120947287623
  0
LINE
  8
_0-b_細線3
  6
CONTINUOUS
 62
    7
 10
282.76399310350462
 20
227.027876139543
 11
284.76399310350462
 21
227.027876139543
  0
LINE
  8
_0-b_細線3
  6
CONTINUOUS
 62
    7
 10
282.76399310350462
 20
258.36120947287623
 11
282.76399310350462
 21
227.027876139543
  0
LINE
  8
_0-b_細線3
  6
CONTINUOUS
 62
    7
 10
277.09732643683793
 20
258.36120947287623
 11
282.76399310350462
 21
258.36120947287623
  0
LINE
  8
_0-b_細線3
  6
CONTINUOUS
 62
    7
 10
277.09732643683793
 20
260.36120947287623
 11
277.09732643683793
 21
258.36120947287623
  0
LINE
  8
_0-b_細線3
  6
CONTINUOUS
 62
    7
 10
290.43065977017091
 20
260.36120947287623
 11
277.09732643683793
 21
260.36120947287623
  0
ARC
  8
_0-b_細線3
  6
CONTINUOUS
 62
    7
 10
318.76399310350394
 20
281.49732058398718
 40
46.136111111111113
 50
256.63227178393214
 51
283.36772821606741
  0
ARC
  8
_0-b_細線3
  6
CONTINUOUS
 62
    7
 10
318.76399310350394
 20
205.89176502843202
 40
46.136111111111113
 50
76.632271783932239
 51
103.36772821606749
  0
LINE
  8
_0-b_細線3
  6
CONTINUOUS
 62
    7
 10
313.76399310350371
 20
258.36120947287623
 11
313.76399310350371
 21
260.36120947287623
  0
LINE
  8
_0-b_細線3
  6
CONTINUOUS
 62
    7
 10
308.09732643683742
 20
258.36120947287623
 11
313.76399310350371
 21
258.36120947287623
  0
LINE
  8
_0-b_細線3
  6
CONTINUOUS
 62
    7
 10
308.09732643683742
 20
227.027876139543
 11
308.09732643683742
 21
258.36120947287623
  0
LINE
  8
_0-b_細線3
  6
CONTINUOUS
 62
    7
 10
306.09732643683742
 20
227.027876139543
 11
308.09732643683742
 21
227.027876139543
  0
LINE
  8
_0-b_細線3
  6
CONTINUOUS
 62
    7
 10
306.09732643683742
 20
258.36120947287623
 11
306.09732643683742
 21
227.027876139543
  0
LINE
  8
_0-b_細線3
  6
CONTINUOUS
 62
    7
 10
300.43065977017068
 20
258.36120947287623
 11
306.09732643683742
 21
258.36120947287623
  0
LINE
  8
_0-b_細線3
  6
CONTINUOUS
 62
    7
 10
300.43065977017068
 20
260.36120947287623
 11
300.43065977017068
 21
258.36120947287623
  0
LINE
  8
_0-b_細線3
  6
CONTINUOUS
 62
    7
 10
313.76399310350371
 20
260.36120947287623
 11
300.43065977017068
 21
260.36120947287623
  0
ARC
  8
_0-b_細線3
  6
CONTINUOUS
 62
    7
 10
342.09732643683674
 20
281.49732058398718
 40
46.136111111111113
 50
256.63227178393214
 51
283.36772821606741
  0
ARC
  8
_0-b_細線3
  6
CONTINUOUS
 62
    7
 10
342.09732643683674
 20
205.89176502843202
 40
46.136111111111113
 50
76.632271783932239
 51
103.36772821606749
  0
LINE
  8
_0-b_細線3
  6
CONTINUOUS
 62
    7
 10
337.09732643683651
 20
258.36120947287623
 11
337.09732643683651
 21
260.36120947287623
  0
LINE
  8
_0-b_細線3
  6
CONTINUOUS
 62
    7
 10
331.43065977017022
 20
258.36120947287623
 11
337.09732643683651
 21
258.36120947287623
  0
LINE
  8
_0-b_細線3
  6
CONTINUOUS
 62
    7
 10
331.43065977017022
 20
227.027876139543
 11
331.43065977017022
 21
258.36120947287623
  0
LINE
  8
_0-b_細線3
  6
CONTINUOUS
 62
    7
 10
329.43065977017022
 20
227.027876139543
 11
331.43065977017022
 21
227.027876139543
  0
LINE
  8
_0-b_細線3
  6
CONTINUOUS
 62
    7
 10
329.43065977017022
 20
258.36120947287623
 11
329.43065977017022
 21
227.027876139543
  0
LINE
  8
_0-b_細線3
  6
CONTINUOUS
 62
    7
 10
323.76399310350348
 20
258.36120947287623
 11
329.43065977017022
 21
258.36120947287623
  0
LINE
  8
_0-b_細線3
  6
CONTINUOUS
 62
    7
 10
323.76399310350348
 20
260.36120947287623
 11
323.76399310350348
 21
258.36120947287623
  0
LINE
  8
_0-b_細線3
  6
CONTINUOUS
 62
    7
 10
337.09732643683651
 20
260.36120947287623
 11
323.76399310350348
 21
260.36120947287623
  0
LINE
  8
_0-b_細線3
  6
CONTINUOUS
 62
    7
 10
430.43065977017073
 20
258.36120947287623
 11
430.43065977017073
 21
260.36120947287623
  0
LINE
  8
_0-b_細線3
  6
CONTINUOUS
 62
    7
 10
424.76399310350416
 20
258.36120947287623
 11
430.43065977017073
 21
258.36120947287623
  0
LINE
  8
_0-b_細線3
  6
CONTINUOUS
 62
    7
 10
424.76399310350416
 20
227.027876139543
 11
424.76399310350416
 21
258.36120947287623
  0
LINE
  8
_0-b_細線3
  6
CONTINUOUS
 62
    7
 10
422.76399310350422
 20
227.027876139543
 11
424.76399310350416
 21
227.027876139543
  0
LINE
  8
_0-b_細線3
  6
CONTINUOUS
 62
    7
 10
422.76399310350422
 20
258.36120947287623
 11
422.76399310350422
 21
227.027876139543
  0
LINE
  8
_0-b_細線3
  6
CONTINUOUS
 62
    7
 10
417.09732643683742
 20
258.36120947287623
 11
422.76399310350422
 21
258.36120947287623
  0
LINE
  8
_0-b_細線3
  6
CONTINUOUS
 62
    7
 10
417.09732643683742
 20
260.36120947287623
 11
417.09732643683742
 21
258.36120947287623
  0
LINE
  8
_0-b_細線3
  6
CONTINUOUS
 62
    7
 10
430.43065977017073
 20
260.36120947287623
 11
417.09732643683742
 21
260.36120947287623
  0
ARC
  8
_0-b_細線3
  6
CONTINUOUS
 62
    7
 10
482.09732643683719
 20
281.49732058398718
 40
46.136111111111113
 50
256.63227178393214
 51
283.36772821606769
  0
ARC
  8
_0-b_細線3
  6
CONTINUOUS
 62
    7
 10
482.09732643683719
 20
205.89176502843202
 40
46.136111111111113
 50
76.632271783931969
 51
103.36772821606749
  0
LINE
  8
_0-b_細線3
  6
CONTINUOUS
 62
    7
 10
500.43065977017113
 20
258.36120947287623
 11
500.43065977017113
 21
260.36120947287623
  0
LINE
  8
_0-b_細線3
  6
CONTINUOUS
 62
    7
 10
494.76399310350416
 20
258.36120947287623
 11
500.43065977017113
 21
258.36120947287623
  0
LINE
  8
_0-b_細線3
  6
CONTINUOUS
 62
    7
 10
494.76399310350416
 20
227.027876139543
 11
494.76399310350416
 21
258.36120947287623
  0
LINE
  8
_0-b_細線3
  6
CONTINUOUS
 62
    7
 10
492.76399310350422
 20
227.027876139543
 11
494.76399310350416
 21
227.027876139543
  0
LINE
  8
_0-b_細線3
  6
CONTINUOUS
 62
    7
 10
492.76399310350422
 20
258.36120947287623
 11
492.76399310350422
 21
227.027876139543
  0
LINE
  8
_0-b_細線3
  6
CONTINUOUS
 62
    7
 10
487.09732643683719
 20
258.36120947287623
 11
492.76399310350422
 21
258.36120947287623
  0
LINE
  8
_0-b_細線3
  6
CONTINUOUS
 62
    7
 10
487.09732643683719
 20
260.36120947287623
 11
487.09732643683719
 21
258.36120947287623
  0
LINE
  8
_0-b_細線3
  6
CONTINUOUS
 62
    7
 10
500.43065977017113
 20
260.36120947287623
 11
487.09732643683719
 21
260.36120947287623
  0
ARC
  8
_0-b_細線3
  6
CONTINUOUS
 62
    7
 10
458.76399310350507
 20
281.49732058398718
 40
46.136111111111113
 50
256.63227178393163
 51
283.36772821606712
  0
ARC
  8
_0-b_細線3
  6
CONTINUOUS
 62
    7
 10
458.76399310350507
 20
205.89176502843202
 40
46.136111111111113
 50
76.632271783932524
 51
103.36772821606749
  0
LINE
  8
_0-b_細線3
  6
CONTINUOUS
 62
    7
 10
477.09732643683816
 20
258.36120947287623
 11
477.09732643683816
 21
260.36120947287623
  0
LINE
  8
_0-b_細線3
  6
CONTINUOUS
 62
    7
 10
471.43065977017113
 20
258.36120947287623
 11
477.09732643683816
 21
258.36120947287623
  0
LINE
  8
_0-b_細線3
  6
CONTINUOUS
 62
    7
 10
471.43065977017113
 20
227.027876139543
 11
471.43065977017113
 21
258.36120947287623
  0
LINE
  8
_0-b_細線3
  6
CONTINUOUS
 62
    7
 10
469.43065977017164
 20
227.027876139543
 11
471.43065977017113
 21
227.027876139543
  0
LINE
  8
_0-b_細線3
  6
CONTINUOUS
 62
    7
 10
469.43065977017164
 20
258.36120947287623
 11
469.43065977017164
 21
227.027876139543
  0
LINE
  8
_0-b_細線3
  6
CONTINUOUS
 62
    7
 10
463.76399310350507
 20
258.36120947287623
 11
469.43065977017164
 21
258.36120947287623
  0
LINE
  8
_0-b_細線3
  6
CONTINUOUS
 62
    7
 10
463.76399310350507
 20
260.36120947287623
 11
463.76399310350507
 21
258.36120947287623
  0
LINE
  8
_0-b_細線3
  6
CONTINUOUS
 62
    7
 10
477.09732643683816
 20
260.36120947287623
 11
463.76399310350507
 21
260.36120947287623
  0
ARC
  8
_0-b_細線3
  6
CONTINUOUS
 62
    7
 10
435.43065977017204
 20
281.49732058398718
 40
46.136111111111113
 50
256.63227178393214
 51
283.36772821606769
  0
ARC
  8
_0-b_細線3
  6
CONTINUOUS
 62
    7
 10
435.43065977017204
 20
205.89176502843202
 40
46.136111111111113
 50
76.632271783931969
 51
103.36772821606721
  0
LINE
  8
_0-b_細線3
  6
CONTINUOUS
 62
    7
 10
453.76399310350598
 20
258.36120947287623
 11
453.76399310350598
 21
260.36120947287623
  0
LINE
  8
_0-b_細線3
  6
CONTINUOUS
 62
    7
 10
448.09732643683901
 20
258.36120947287623
 11
453.76399310350598
 21
258.36120947287623
  0
LINE
  8
_0-b_細線3
  6
CONTINUOUS
 62
    7
 10
448.09732643683901
 20
227.027876139543
 11
448.09732643683901
 21
258.36120947287623
  0
LINE
  8
_0-b_細線3
  6
CONTINUOUS
 62
    7
 10
446.09732643683907
 20
227.027876139543
 11
448.09732643683901
 21
227.027876139543
  0
LINE
  8
_0-b_細線3
  6
CONTINUOUS
 62
    7
 10
446.09732643683907
 20
258.36120947287623
 11
446.09732643683907
 21
227.027876139543
  0
LINE
  8
_0-b_細線3
  6
CONTINUOUS
 62
    7
 10
440.43065977017204
 20
258.36120947287623
 11
446.09732643683907
 21
258.36120947287623
  0
LINE
  8
_0-b_細線3
  6
CONTINUOUS
 62
    7
 10
440.43065977017204
 20
260.36120947287623
 11
440.43065977017204
 21
258.36120947287623
  0
LINE
  8
_0-b_細線3
  6
CONTINUOUS
 62
    7
 10
453.76399310350598
 20
260.36120947287623
 11
440.43065977017204
 21
260.36120947287623
  0
ARC
  8
_0-b_細線3
  6
CONTINUOUS
 62
    7
 10
365.4306597701696
 20
281.49732058398718
 40
46.136111111111113
 50
256.63227178393214
 51
283.36772821606741
  0
ARC
  8
_0-b_細線3
  6
CONTINUOUS
 62
    7
 10
365.4306597701696
 20
205.89176502843202
 40
46.136111111111113
 50
76.632271783932239
 51
103.36772821606749
  0
LINE
  8
_0-b_細線3
  6
CONTINUOUS
 62
    7
 10
360.43065977016931
 20
258.36120947287623
 11
360.43065977016931
 21
260.36120947287623
  0
LINE
  8
_0-b_細線3
  6
CONTINUOUS
 62
    7
 10
354.76399310350303
 20
258.36120947287623
 11
360.43065977016931
 21
258.36120947287623
  0
LINE
  8
_0-b_細線3
  6
CONTINUOUS
 62
    7
 10
354.76399310350303
 20
227.027876139543
 11
354.76399310350303
 21
258.36120947287623
  0
LINE
  8
_0-b_細線3
  6
CONTINUOUS
 62
    7
 10
352.76399310350308
 20
227.027876139543
 11
354.76399310350303
 21
227.027876139543
  0
LINE
  8
_0-b_細線3
  6
CONTINUOUS
 62
    7
 10
352.76399310350308
 20
258.36120947287623
 11
352.76399310350308
 21
227.027876139543
  0
LINE
  8
_0-b_細線3
  6
CONTINUOUS
 62
    7
 10
347.09732643683628
 20
258.36120947287623
 11
352.76399310350308
 21
258.36120947287623
  0
LINE
  8
_0-b_細線3
  6
CONTINUOUS
 62
    7
 10
347.09732643683628
 20
260.36120947287623
 11
347.09732643683628
 21
258.36120947287623
  0
LINE
  8
_0-b_細線3
  6
CONTINUOUS
 62
    7
 10
360.43065977016931
 20
260.36120947287623
 11
347.09732643683628
 21
260.36120947287623
  0
ARC
  8
_0-b_細線3
  6
CONTINUOUS
 62
    7
 10
388.76399310350234
 20
281.49732058398718
 40
46.136111111111113
 50
256.63227178393214
 51
283.36772821606741
  0
ARC
  8
_0-b_細線3
  6
CONTINUOUS
 62
    7
 10
388.76399310350234
 20
205.89176502843202
 40
46.136111111111113
 50
76.632271783932239
 51
103.36772821606749
  0
LINE
  8
_0-b_細線3
  6
CONTINUOUS
 62
    7
 10
383.76399310350234
 20
258.36120947287623
 11
383.76399310350234
 21
260.36120947287623
  0
LINE
  8
_0-b_細線3
  6
CONTINUOUS
 62
    7
 10
378.09732643683583
 20
258.36120947287623
 11
383.76399310350234
 21
258.36120947287623
  0
LINE
  8
_0-b_細線3
  6
CONTINUOUS
 62
    7
 10
378.09732643683583
 20
227.027876139543
 11
378.09732643683583
 21
258.36120947287623
  0
LINE
  8
_0-b_細線3
  6
CONTINUOUS
 62
    7
 10
376.09732643683583
 20
227.027876139543
 11
378.09732643683583
 21
227.027876139543
  0
LINE
  8
_0-b_細線3
  6
CONTINUOUS
 62
    7
 10
376.09732643683583
 20
258.36120947287623
 11
376.09732643683583
 21
227.027876139543
  0
LINE
  8
_0-b_細線3
  6
CONTINUOUS
 62
    7
 10
370.43065977016931
 20
258.36120947287623
 11
376.09732643683583
 21
258.36120947287623
  0
LINE
  8
_0-b_細線3
  6
CONTINUOUS
 62
    7
 10
370.43065977016931
 20
260.36120947287623
 11
370.43065977016931
 21
258.36120947287623
  0
LINE
  8
_0-b_細線3
  6
CONTINUOUS
 62
    7
 10
383.76399310350234
 20
260.36120947287623
 11
370.43065977016931
 21
260.36120947287623
  0
ARC
  8
_0-b_細線3
  6
CONTINUOUS
 62
    7
 10
412.09732643683537
 20
281.49732058398718
 40
46.136111111111113
 50
256.63227178393186
 51
283.36772821606712
  0
ARC
  8
_0-b_細線3
  6
CONTINUOUS
 62
    7
 10
412.09732643683537
 20
205.89176502843202
 40
46.136111111111113
 50
76.632271783932524
 51
103.36772821606777
  0
LINE
  8
_0-b_細線3
  6
CONTINUOUS
 62
    7
 10
407.09732643683515
 20
258.36120947287623
 11
407.09732643683515
 21
260.36120947287623
  0
LINE
  8
_0-b_細線3
  6
CONTINUOUS
 62
    7
 10
401.43065977016869
 20
258.36120947287623
 11
407.09732643683515
 21
258.36120947287623
  0
LINE
  8
_0-b_細線3
  6
CONTINUOUS
 62
    7
 10
401.43065977016869
 20
227.027876139543
 11
401.43065977016869
 21
258.36120947287623
  0
LINE
  8
_0-b_細線3
  6
CONTINUOUS
 62
    7
 10
399.43065977016863
 20
227.027876139543
 11
401.43065977016869
 21
227.027876139543
  0
LINE
  8
_0-b_細線3
  6
CONTINUOUS
 62
    7
 10
399.43065977016863
 20
258.36120947287623
 11
399.43065977016863
 21
227.027876139543
  0
LINE
  8
_0-b_細線3
  6
CONTINUOUS
 62
    7
 10
393.76399310350217
 20
258.36120947287623
 11
399.43065977016863
 21
258.36120947287623
  0
LINE
  8
_0-b_細線3
  6
CONTINUOUS
 62
    7
 10
393.76399310350217
 20
260.36120947287623
 11
393.76399310350217
 21
258.36120947287623
  0
LINE
  8
_0-b_細線3
  6
CONTINUOUS
 62
    7
 10
407.09732643683515
 20
260.36120947287623
 11
393.76399310350217
 21
260.36120947287623
  0
ARC
  8
_0-b_細線3
  6
CONTINUOUS
 62
    7
 10
505.43065977017022
 20
281.49732058398718
 40
46.136111111111113
 50
256.63227178393163
 51
283.36772821606712
  0
ARC
  8
_0-b_細線3
  6
CONTINUOUS
 62
    7
 10
505.43065977017022
 20
205.89176502843202
 40
46.136111111111113
 50
76.632271783932524
 51
103.36772821606749
  0
LINE
  8
_0-b_細線3
  6
CONTINUOUS
 62
    7
 10
523.76399310350325
 20
258.36120947287623
 11
523.76399310350325
 21
260.36120947287623
  0
LINE
  8
_0-b_細線3
  6
CONTINUOUS
 62
    7
 10
518.09732643683628
 20
258.36120947287623
 11
523.76399310350325
 21
258.36120947287623
  0
LINE
  8
_0-b_細線3
  6
CONTINUOUS
 62
    7
 10
518.09732643683628
 20
227.027876139543
 11
518.09732643683628
 21
258.36120947287623
  0
LINE
  8
_0-b_細線3
  6
CONTINUOUS
 62
    7
 10
516.09732643683674
 20
227.027876139543
 11
518.09732643683628
 21
227.027876139543
  0
LINE
  8
_0-b_細線3
  6
CONTINUOUS
 62
    7
 10
516.09732643683674
 20
258.36120947287623
 11
516.09732643683674
 21
227.027876139543
  0
LINE
  8
_0-b_細線3
  6
CONTINUOUS
 62
    7
 10
510.43065977017022
 20
258.36120947287623
 11
516.09732643683674
 21
258.36120947287623
  0
LINE
  8
_0-b_細線3
  6
CONTINUOUS
 62
    7
 10
510.43065977017022
 20
260.36120947287623
 11
510.43065977017022
 21
258.36120947287623
  0
LINE
  8
_0-b_細線3
  6
CONTINUOUS
 62
    7
 10
523.76399310350325
 20
260.36120947287623
 11
510.43065977017022
 21
260.36120947287623
  0
ARC
  8
_0-b_細線3
  6
CONTINUOUS
 62
    7
 10
528.76399310350234
 20
281.49732058398718
 40
46.136111111111113
 50
256.63227178393214
 51
283.36772821606769
  0
ARC
  8
_0-b_細線3
  6
CONTINUOUS
 62
    7
 10
528.76399310350234
 20
205.89176502843202
 40
46.136111111111113
 50
76.632271783931969
 51
103.36772821606749
  0
LINE
  8
_0-b_細線3
  6
CONTINUOUS
 62
    7
 10
547.09732643683628
 20
258.36120947287623
 11
547.09732643683628
 21
260.36120947287623
  0
LINE
  8
_0-b_細線3
  6
CONTINUOUS
 62
    7
 10
541.43065977016931
 20
258.36120947287623
 11
547.09732643683628
 21
258.36120947287623
  0
LINE
  8
_0-b_細線3
  6
CONTINUOUS
 62
    7
 10
541.43065977016931
 20
227.027876139543
 11
541.43065977016931
 21
258.36120947287623
  0
LINE
  8
_0-b_細線3
  6
CONTINUOUS
 62
    7
 10
539.43065977016931
 20
227.027876139543
 11
541.43065977016931
 21
227.027876139543
  0
LINE
  8
_0-b_細線3
  6
CONTINUOUS
 62
    7
 10
539.43065977016931
 20
258.36120947287623
 11
539.43065977016931
 21
227.027876139543
  0
LINE
  8
_0-b_細線3
  6
CONTINUOUS
 62
    7
 10
533.76399310350234
 20
258.36120947287623
 11
539.43065977016931
 21
258.36120947287623
  0
LINE
  8
_0-b_細線3
  6
CONTINUOUS
 62
    7
 10
533.76399310350234
 20
260.36120947287623
 11
533.76399310350234
 21
258.36120947287623
  0
LINE
  8
_0-b_細線3
  6
CONTINUOUS
 62
    7
 10
547.09732643683628
 20
260.36120947287623
 11
533.76399310350234
 21
260.36120947287623
  0
ARC
  8
_0-b_細線3
  6
CONTINUOUS
 62
    7
 10
552.09732643683537
 20
281.49732058398718
 40
46.136111111111113
 50
256.63227178393163
 51
283.36772821606712
  0
ARC
  8
_0-b_細線3
  6
CONTINUOUS
 62
    7
 10
552.09732643683537
 20
205.89176502843202
 40
46.136111111111113
 50
76.632271783932524
 51
103.36772821606749
  0
LINE
  8
_0-b_細線3
  6
CONTINUOUS
 62
    7
 10
570.4306597701684
 20
258.36120947287623
 11
570.4306597701684
 21
260.36120947287623
  0
LINE
  8
_0-b_細線3
  6
CONTINUOUS
 62
    7
 10
564.76399310350143
 20
258.36120947287623
 11
570.4306597701684
 21
258.36120947287623
  0
LINE
  8
_0-b_細線3
  6
CONTINUOUS
 62
    7
 10
564.76399310350143
 20
227.027876139543
 11
564.76399310350143
 21
258.36120947287623
  0
LINE
  8
_0-b_細線3
  6
CONTINUOUS
 62
    7
 10
562.76399310350189
 20
227.027876139543
 11
564.76399310350143
 21
227.027876139543
  0
LINE
  8
_0-b_細線3
  6
CONTINUOUS
 62
    7
 10
562.76399310350189
 20
258.36120947287623
 11
562.76399310350189
 21
227.027876139543
  0
LINE
  8
_0-b_細線3
  6
CONTINUOUS
 62
    7
 10
557.09732643683537
 20
258.36120947287623
 11
562.76399310350189
 21
258.36120947287623
  0
LINE
  8
_0-b_細線3
  6
CONTINUOUS
 62
    7
 10
557.09732643683537
 20
260.36120947287623
 11
557.09732643683537
 21
258.36120947287623
  0
LINE
  8
_0-b_細線3
  6
CONTINUOUS
 62
    7
 10
570.4306597701684
 20
260.36120947287623
 11
557.09732643683537
 21
260.36120947287623
  0
ARC
  8
_0-b_細線3
  6
CONTINUOUS
 62
    7
 10
575.43065977016749
 20
281.49732058398718
 40
46.136111111111113
 50
256.63227178393214
 51
283.36772821606769
  0
ARC
  8
_0-b_細線3
  6
CONTINUOUS
 62
    7
 10
575.43065977016749
 20
205.89176502843202
 40
46.136111111111113
 50
76.632271783931969
 51
103.36772821606749
  0
LINE
  8
_0-b_細線3
  6
CONTINUOUS
 62
    7
 10
593.76399310350143
 20
258.36120947287623
 11
593.76399310350143
 21
260.36120947287623
  0
LINE
  8
_0-b_細線3
  6
CONTINUOUS
 62
    7
 10
588.09732643683446
 20
258.36120947287623
 11
593.76399310350143
 21
258.36120947287623
  0
LINE
  8
_0-b_細線3
  6
CONTINUOUS
 62
    7
 10
588.09732643683446
 20
227.027876139543
 11
588.09732643683446
 21
258.36120947287623
  0
LINE
  8
_0-b_細線3
  6
CONTINUOUS
 62
    7
 10
586.09732643683446
 20
227.027876139543
 11
588.09732643683446
 21
227.027876139543
  0
LINE
  8
_0-b_細線3
  6
CONTINUOUS
 62
    7
 10
586.09732643683446
 20
258.36120947287623
 11
586.09732643683446
 21
227.027876139543
  0
LINE
  8
_0-b_細線3
  6
CONTINUOUS
 62
    7
 10
580.43065977016749
 20
258.36120947287623
 11
586.09732643683446
 21
258.36120947287623
  0
LINE
  8
_0-b_細線3
  6
CONTINUOUS
 62
    7
 10
580.43065977016749
 20
260.36120947287623
 11
580.43065977016749
 21
258.36120947287623
  0
LINE
  8
_0-b_細線3
  6
CONTINUOUS
 62
    7
 10
593.76399310350143
 20
260.36120947287623
 11
580.43065977016749
 21
260.36120947287623
  0
ARC
  8
_0-b_細線3
  6
CONTINUOUS
 62
    7
 10
598.76399310350052
 20
281.49732058398718
 40
46.136111111111113
 50
256.63227178393163
 51
283.36772821606712
  0
ARC
  8
_0-b_細線3
  6
CONTINUOUS
 62
    7
 10
598.76399310350052
 20
205.89176502843202
 40
46.136111111111113
 50
76.632271783932524
 51
103.36772821606749
  0
LINE
  8
_0-b_細線3
  6
CONTINUOUS
 62
    7
 10
617.09732643683355
 20
258.36120947287623
 11
617.09732643683355
 21
260.36120947287623
  0
LINE
  8
_0-b_細線3
  6
CONTINUOUS
 62
    7
 10
611.43065977016659
 20
258.36120947287623
 11
617.09732643683355
 21
258.36120947287623
  0
LINE
  8
_0-b_細線3
  6
CONTINUOUS
 62
    7
 10
611.43065977016659
 20
227.027876139543
 11
611.43065977016659
 21
258.36120947287623
  0
LINE
  8
_0-b_細線3
  6
CONTINUOUS
 62
    7
 10
609.43065977016704
 20
227.027876139543
 11
611.43065977016659
 21
227.027876139543
  0
LINE
  8
_0-b_細線3
  6
CONTINUOUS
 62
    7
 10
609.43065977016704
 20
258.36120947287623
 11
609.43065977016704
 21
227.027876139543
  0
LINE
  8
_0-b_細線3
  6
CONTINUOUS
 62
    7
 10
603.76399310350052
 20
258.36120947287623
 11
609.43065977016704
 21
258.36120947287623
  0
LINE
  8
_0-b_細線3
  6
CONTINUOUS
 62
    7
 10
603.76399310350052
 20
260.36120947287623
 11
603.76399310350052
 21
258.36120947287623
  0
LINE
  8
_0-b_細線3
  6
CONTINUOUS
 62
    7
 10
617.09732643683355
 20
260.36120947287623
 11
603.76399310350052
 21
260.36120947287623
  0
ARC
  8
_0-b_細線3
  6
CONTINUOUS
 62
    7
 10
622.09732643683265
 20
281.49732058398718
 40
46.136111111111113
 50
256.63227178393214
 51
283.36772821606769
  0
ARC
  8
_0-b_細線3
  6
CONTINUOUS
 62
    7
 10
622.09732643683265
 20
205.89176502843202
 40
46.136111111111113
 50
76.632271783931969
 51
103.36772821606749
  0
LINE
  8
_0-b_細線3
  6
CONTINUOUS
 62
    7
 10
640.4306597701667
 20
258.36120947287623
 11
640.4306597701667
 21
260.36120947287623
  0
LINE
  8
_0-b_細線3
  6
CONTINUOUS
 62
    7
 10
634.76399310349962
 20
258.36120947287623
 11
640.4306597701667
 21
258.36120947287623
  0
LINE
  8
_0-b_細線3
  6
CONTINUOUS
 62
    7
 10
634.76399310349962
 20
227.027876139543
 11
634.76399310349962
 21
258.36120947287623
  0
LINE
  8
_0-b_細線3
  6
CONTINUOUS
 62
    7
 10
632.76399310349962
 20
227.027876139543
 11
634.76399310349962
 21
227.027876139543
  0
LINE
  8
_0-b_細線3
  6
CONTINUOUS
 62
    7
 10
632.76399310349962
 20
258.36120947287623
 11
632.76399310349962
 21
227.027876139543
  0
LINE
  8
_0-b_細線3
  6
CONTINUOUS
 62
    7
 10
627.09732643683265
 20
258.36120947287623
 11
632.76399310349962
 21
258.36120947287623
  0
LINE
  8
_0-b_細線3
  6
CONTINUOUS
 62
    7
 10
627.09732643683265
 20
260.36120947287623
 11
627.09732643683265
 21
258.36120947287623
  0
LINE
  8
_0-b_細線3
  6
CONTINUOUS
 62
    7
 10
640.4306597701667
 20
260.36120947287623
 11
627.09732643683265
 21
260.36120947287623
  0
LINE
  8
_0-d_寸法3
  6
CONTINUOUS
 62
    7
 10
464.59732643686721
 20
232.35479684404385
 11
449.16649615199645
 21
259.08177890041247
  0
LINE
  8
_0-d_寸法3
  6
CONTINUOUS
 62
    7
 10
451.66649615199645
 20
254.75165188149026
 11
449.07830570097127
 21
264.41091014438092
  0
LINE
  8
_0-d_寸法3
  6
CONTINUOUS
 62
    7
 10
451.66649615199645
 20
254.75165188149026
 11
454.25468660302164
 21
264.41091014438092
  0
LINE
  8
_0-d_寸法3
  6
CONTINUOUS
 62
    7
 10
464.59732643686687
 20
265.68813017738739
 11
449.16649615199645
 21
292.41511223375596
  0
LINE
  8
_0-d_寸法3
  6
CONTINUOUS
 62
    7
 10
451.66649615199645
 20
288.08498521483375
 11
454.25468660302164
 21
278.42572695194309
  0
LINE
  8
_0-d_寸法3
  6
CONTINUOUS
 62
    7
 10
451.66649615199645
 20
288.08498521483375
 11
449.07830570097127
 21
278.42572695194309
  0
LINE
  8
_0-d_寸法3
  6
CONTINUOUS
 62
    7
 10
451.66649615199645
 20
254.75165188149026
 11
451.66649615199645
 21
288.08498521483375
  0
TEXT
  8
_0-d_寸法3
 62
    7
 10
451.66649615199645
 20
264.55766997568912
 40
15
 41
1
 50
90
  1
20
  0
LINE
  8
_0-d_寸法3
  6
CONTINUOUS
 62
    7
 10
393.76399310350371
 20
270.36120947287623
 11
393.76399310350371
 21
312.02787613954342
  0
LINE
  8
_0-d_寸法3
  6
CONTINUOUS
 62
    7
 10
393.76399310350371
 20
307.02787613954342
 11
384.10473484061299
 21
304.43968568851824
  0
LINE
  8
_0-d_寸法3
  6
CONTINUOUS
 62
    7
 10
393.76399310350371
 20
307.02787613954342
 11
384.10473484061305
 21
309.61606659056872
  0
LINE
  8
_0-d_寸法3
  6
CONTINUOUS
 62
    7
 10
407.09732643683719
 20
270.36120947287623
 11
407.09732643683719
 21
312.02787613954342
  0
CIRCLE
  8
_0-d_寸法3
  6
CONTINUOUS
 62
    1
 10
407.09732643683719
 20
307.02787613954342
 40
1.5000000000000002
  0
LINE
  8
_0-d_寸法3
  6
CONTINUOUS
 62
    7
 10
368.76399310350371
 20
307.02787613954342
 11
407.09732643683719
 21
307.02787613954342
  0
TEXT
  8
_0-d_寸法3
 62
    7
 10
376.33997713812755
 20
307.02787613954342
 40
15
 41
1
 50
0
  1
8
  0
LINE
  8
_0-d_寸法3
  6
CONTINUOUS
 62
    7
 10
417.09732643683719
 20
270.36120947287623
 11
417.09732643683719
 21
312.02787613954342
  0
LINE
  8
_0-d_寸法3
  6
CONTINUOUS
 62
    7
 10
417.09732643683719
 20
307.02787613954342
 11
426.75658469972797
 21
309.61606659056855
  0
LINE
  8
_0-d_寸法3
  6
CONTINUOUS
 62
    7
 10
417.09732643683719
 20
307.02787613954342
 11
426.75658469972791
 21
304.43968568851818
  0
LINE
  8
_0-d_寸法3
  6
CONTINUOUS
 62
    7
 10
407.09732643683719
 20
307.02787613954342
 11
442.09732643683719
 21
307.02787613954342
  0
TEXT
  8
_0-d_寸法3
 62
    7
 10
423.38919524512272
 20
307.02787613954342
 40
15
 41
1
 50
0
  1
6
  0
LINE
  8
_0-d_寸法3
  6
CONTINUOUS
 62
    7
 10
517.0973264368422
 20
270.36120947287623
 11
517.0973264368422
 21
312.02787613954342
  0
LINE
  8
_0-d_寸法3
  6
CONTINUOUS
 62
    7
 10
517.0973264368422
 20
307.02787613954342
 11
526.75658469973291
 21
309.61606659056861
  0
LINE
  8
_0-d_寸法3
  6
CONTINUOUS
 62
    7
 10
517.0973264368422
 20
307.02787613954342
 11
526.75658469973291
 21
304.43968568851824
  0
LINE
  8
_0-d_寸法3
  6
CONTINUOUS
 62
    7
 10
540.43065977017523
 20
270.36120947287623
 11
540.43065977017523
 21
312.02787613954342
  0
LINE
  8
_0-d_寸法3
  6
CONTINUOUS
 62
    7
 10
540.43065977017523
 20
307.02787613954342
 11
530.77140150728451
 21
304.43968568851824
  0
LINE
  8
_0-d_寸法3
  6
CONTINUOUS
 62
    7
 10
540.43065977017523
 20
307.02787613954342
 11
530.77140150728451
 21
309.61606659056872
  0
LINE
  8
_0-d_寸法3
  6
CONTINUOUS
 62
    7
 10
517.0973264368422
 20
307.02787613954342
 11
540.43065977017523
 21
307.02787613954342
  0
TEXT
  8
_0-d_寸法3
 62
    7
 10
521.26399310350871
 20
307.02787613954342
 40
15
 41
1
 50
0
  1
14
  0
LINE
  8
_0-d_寸法3
  6
CONTINUOUS
 62
    7
 10
540.43065977017523
 20
307.02787613954342
 11
550.08991803306594
 21
309.61606659056855
  0
LINE
  8
_0-d_寸法3
  6
CONTINUOUS
 62
    7
 10
540.43065977017523
 20
307.02787613954342
 11
550.08991803306594
 21
304.43968568851818
  0
LINE
  8
_0-d_寸法3
  6
CONTINUOUS
 62
    7
 10
563.76399310350871
 20
270.36120947287623
 11
563.76399310350871
 21
312.02787613954342
  0
LINE
  8
_0-d_寸法3
  6
CONTINUOUS
 62
    7
 10
563.76399310350871
 20
307.02787613954342
 11
554.10473484061799
 21
304.43968568851824
  0
LINE
  8
_0-d_寸法3
  6
CONTINUOUS
 62
    7
 10
563.76399310350871
 20
307.02787613954342
 11
554.10473484061799
 21
309.61606659056872
  0
LINE
  8
_0-d_寸法3
  6
CONTINUOUS
 62
    7
 10
540.43065977017523
 20
307.02787613954342
 11
563.76399310350871
 21
307.02787613954342
  0
TEXT
  8
_0-d_寸法3
 62
    7
 10
544.5973264368422
 20
307.02787613954342
 40
15
 41
1
 50
0
  1
14
  0
LINE
  8
_0-a_極細3
  6
CONTINUOUS
 62
    7
 10
769.26399310350587
 20
215.36120947287625
 11
765.4306597701725
 21
215.36120947287625
  0
LINE
  8
_0-a_極細3
  6
CONTINUOUS
 62
    7
 10
769.26399310350587
 20
218.69454280620971
 11
765.4306597701725
 21
218.69454280620971
  0
LINE
  8
_0-a_極細3
  6
CONTINUOUS
 62
    7
 10
769.26399310350587
 20
212.027876139543
 11
765.4306597701725
 21
212.027876139543
  0
LINE
  8
_0-a_極細3
  6
CONTINUOUS
 62
    7
 10
769.26399310350587
 20
222.027876139543
 11
765.4306597701725
 21
222.027876139543
  0
LINE
  8
_0-a_極細3
  6
CONTINUOUS
 62
    7
 10
765.4306597701725
 20
188.69454280620971
 11
769.26399310350587
 21
188.69454280620971
  0
LINE
  8
_0-a_極細3
  6
CONTINUOUS
 62
    7
 10
769.26399310350587
 20
238.69454280620971
 11
765.4306597701725
 21
238.69454280620971
  0
LINE
  8
_0-b_細線3
  6
CONTINUOUS
 62
    7
 10
765.4306597701725
 20
242.027876139543
 11
765.4306597701725
 21
183.69454280620971
  0
LINE
  8
_0-b_細線3
  6
CONTINUOUS
 62
    7
 10
765.4306597701725
 20
183.69454280620971
 11
769.26399310350587
 21
183.69454280620971
  0
LINE
  8
_0-b_細線3
  6
CONTINUOUS
 62
    7
 10
769.26399310350587
 20
183.69454280620971
 11
769.26399310350587
 21
242.027876139543
  0
LINE
  8
_0-b_細線3
  6
CONTINUOUS
 62
    7
 10
769.26399310350587
 20
242.027876139543
 11
765.4306597701725
 21
242.027876139543
  0
LINE
  8
_0-7_枠細線
  6
CONTINUOUS
 62
    5
 10
788.34986119674545
 20
219.75662613569699
 11
780.84986119674545
 21
234.75662613569699
  0
LINE
  8
_0-7_枠細線
  6
CONTINUOUS
 62
    5
 10
773.34986119674545
 20
219.75662613569699
 11
788.34986119674545
 21
219.75662613569699
  0
LINE
  8
_0-7_枠細線
  6
CONTINUOUS
 62
    5
 10
780.84986119674545
 20
234.75662613569699
 11
773.34986119674545
 21
219.75662613569699
  0
TEXT
  8
_0-7_枠細線
 62
    5
 10
775.71501246489345
 20
219.44962389031645
 40
12.5
 41
0.8
 50
0
  1
１
  0
LINE
  8
_0-a_極細3
  6
CONTINUOUS
 62
    7
 10
171.59732643683901
 20
215.36120947287625
 11
175.43065977017227
 21
215.36120947287625
  0
LINE
  8
_0-a_極細3
  6
CONTINUOUS
 62
    7
 10
171.59732643683901
 20
218.69454280620971
 11
175.43065977017227
 21
218.69454280620971
  0
LINE
  8
_0-a_極細3
  6
CONTINUOUS
 62
    7
 10
171.59732643683901
 20
212.027876139543
 11
175.43065977017227
 21
212.027876139543
  0
LINE
  8
_0-a_極細3
  6
CONTINUOUS
 62
    7
 10
171.59732643683901
 20
222.027876139543
 11
175.43065977017227
 21
222.027876139543
  0
LINE
  8
_0-a_極細3
  6
CONTINUOUS
 62
    7
 10
175.43065977017227
 20
188.69454280620971
 11
171.59732643683901
 21
188.69454280620971
  0
LINE
  8
_0-a_極細3
  6
CONTINUOUS
 62
    7
 10
171.59732643683901
 20
238.69454280620971
 11
175.43065977017227
 21
238.69454280620971
  0
LINE
  8
_0-b_細線3
  6
CONTINUOUS
 62
    7
 10
175.43065977017227
 20
242.027876139543
 11
175.43065977017227
 21
183.69454280620971
  0
LINE
  8
_0-b_細線3
  6
CONTINUOUS
 62
    7
 10
175.43065977017227
 20
183.69454280620971
 11
171.59732643683901
 21
183.69454280620971
  0
LINE
  8
_0-b_細線3
  6
CONTINUOUS
 62
    7
 10
171.59732643683901
 20
183.69454280620971
 11
171.59732643683901
 21
242.027876139543
  0
LINE
  8
_0-b_細線3
  6
CONTINUOUS
 62
    7
 10
171.59732643683901
 20
242.027876139543
 11
175.43065977017227
 21
242.027876139543
  0
TEXT
  8
_0-7_枠細線
 62
    5
 10
420.45807705364962
 20
85.360844471198121
 40
25
 41
0.8
 50
0
  1
断面詳細図
  0
TEXT
  8
_0-7_枠細線
 62
    5
 10
543.93371346948391
 20
87.114586586943119
 40
20
 41
0.6
 50
0
  1
Ｓ＝１：３
  0
LINE
  8
_0-5_寸法線
  6
CONTINUOUS
 62
    7
 10
1176.9337498636755
 20
455.46000651416557
 11
1221.9337498636755
 21
455.46000651416534
  0
LINE
  8
_0-5_寸法線
  6
CONTINUOUS
 62
    7
 10
1216.9337498636755
 20
455.46000651416534
 11
1219.5219403147007
 21
445.80074825127468
  0
LINE
  8
_0-5_寸法線
  6
CONTINUOUS
 62
    7
 10
1216.9337498636755
 20
455.46000651416534
 11
1214.3455594126503
 21
445.80074825127468
  0
LINE
  8
_0-5_寸法線
  6
CONTINUOUS
 62
    7
 10
1176.9337498636755
 20
458.46000651416693
 11
1221.9337498636755
 21
458.46000651416693
  0
CIRCLE
  8
_0-5_寸法線
  6
CONTINUOUS
 62
    1
 10
1216.9337498636755
 20
458.46000651416693
 40
1.5000000000000002
  0
LINE
  8
_0-5_寸法線
  6
CONTINUOUS
 62
    7
 10
1216.9337498636755
 20
430.46000651416534
 11
1216.9337498636755
 21
458.46000651416693
  0
TEXT
  8
_0-5_寸法線
 62
    7
 10
1216.9337498636755
 20
434.25947547214128
 40
15
 41
1
 50
90
  1
3
  0
LINE
  8
_0-5_寸法線
  6
CONTINUOUS
 62
    7
 10
1176.9337498636755
 20
460.46000651416676
 11
1221.9337498636755
 21
460.46000651416676
  0
LINE
  8
_0-5_寸法線
  6
CONTINUOUS
 62
    7
 10
1216.9337498636755
 20
458.46000651416693
 11
1216.9337498636755
 21
460.46000651416676
  0
TEXT
  8
_0-5_寸法線
 62
    7
 10
1235.8271556005732
 20
458.46000651416693
 40
15
 41
1
 50
90
  1
2
  0
LINE
  8
_0-5_寸法線
  6
CONTINUOUS
 62
    7
 10
1216.9337498636755
 20
460.46000651416676
 11
1214.3455594126503
 21
470.11926477705742
  0
LINE
  8
_0-5_寸法線
  6
CONTINUOUS
 62
    7
 10
1216.9337498636755
 20
460.46000651416676
 11
1219.5219403147007
 21
470.11926477705742
  0
LINE
  8
_0-5_寸法線
  6
CONTINUOUS
 62
    7
 10
1176.9337498636755
 20
804.46000651416682
 11
1221.9337498636755
 21
804.46000651416682
  0
LINE
  8
_0-5_寸法線
  6
CONTINUOUS
 62
    7
 10
1216.9337498636755
 20
804.46000651416682
 11
1219.5219403147007
 21
794.80074825127599
  0
LINE
  8
_0-5_寸法線
  6
CONTINUOUS
 62
    7
 10
1216.9337498636755
 20
804.46000651416682
 11
1214.3455594126503
 21
794.80074825127599
  0
LINE
  8
_0-5_寸法線
  6
CONTINUOUS
 62
    7
 10
1216.9337498636755
 20
460.46000651416676
 11
1216.9337498636755
 21
804.46000651416682
  0
TEXT
  8
_0-5_寸法線
 62
    7
 10
1216.9337498636755
 20
621.21000651416648
 40
15
 41
1
 50
90
  1
344
  0
LINE
  8
_0-5_寸法線
  6
CONTINUOUS
 62
    7
 10
1176.9337498636755
 20
806.46000651416693
 11
1221.9337498636755
 21
806.46000651416671
  0
CIRCLE
  8
_0-5_寸法線
  6
CONTINUOUS
 62
    1
 10
1216.9337498636755
 20
806.46000651416671
 40
1.5000000000000002
  0
LINE
  8
_0-5_寸法線
  6
CONTINUOUS
 62
    7
 10
1216.9337498636755
 20
804.46000651416682
 11
1216.9337498636755
 21
806.46000651416671
  0
TEXT
  8
_0-5_寸法線
 62
    7
 10
1235.6627422772226
 20
798.96000651416693
 40
15
 41
1
 50
90
  1
2
  0
LINE
  8
_0-5_寸法線
  6
CONTINUOUS
 62
    7
 10
1176.9337498636755
 20
809.46000651416568
 11
1221.9337498636755
 21
809.46000651416534
  0
LINE
  8
_0-5_寸法線
  6
CONTINUOUS
 62
    7
 10
1216.9337498636755
 20
809.46000651416534
 11
1214.3455594126503
 21
819.11926477705606
  0
LINE
  8
_0-5_寸法線
  6
CONTINUOUS
 62
    7
 10
1216.9337498636755
 20
809.46000651416534
 11
1219.5219403147007
 21
819.11926477705606
  0
LINE
  8
_0-5_寸法線
  6
CONTINUOUS
 62
    7
 10
1216.9337498636755
 20
806.46000651416671
 11
1216.9337498636755
 21
834.46000651416534
  0
TEXT
  8
_0-5_寸法線
 62
    7
 10
1216.9337498636755
 20
822.84734927186219
 40
15
 41
1
 50
90
  1
3
  0
LINE
  8
_0-d_寸法3
  6
CONTINUOUS
 62
    7
 10
175.43065977017227
 20
335.36120780453166
 11
165.77140150728155
 21
332.77301735350648
  0
LINE
  8
_0-d_寸法3
  6
CONTINUOUS
 62
    7
 10
175.43065977017227
 20
335.36120780453166
 11
165.77140150728161
 21
337.94939825555696
  0
LINE
  8
_0-d_寸法3
  6
CONTINUOUS
 62
    7
 10
180.43065977017227
 20
264.52787613954274
 11
180.43065977017227
 21
340.36120780453166
  0
CIRCLE
  8
_0-d_寸法3
  6
CONTINUOUS
 62
    1
 10
180.43065977017227
 20
335.36120780453166
 40
1.5000000000000002
  0
LINE
  8
_0-d_寸法3
  6
CONTINUOUS
 62
    7
 10
150.43065977017227
 20
335.36120780453166
 11
180.43065977017227
 21
335.36120780453166
  0
TEXT
  8
_0-d_寸法3
 62
    7
 10
154.28599182624907
 20
335.36120780453166
 40
15
 41
1
 50
0
  1
3
  0
LINE
  8
_0-d_寸法3
  6
CONTINUOUS
 62
    7
 10
183.76399310350536
 20
262.0278744711984
 11
183.76399310350578
 21
340.36120780453166
  0
LINE
  8
_0-d_寸法3
  6
CONTINUOUS
 62
    7
 10
180.43065977017227
 20
335.36120780453166
 11
183.76399310350578
 21
335.36120780453166
  0
TEXT
  8
_0-d_寸法3
 62
    7
 10
178.34732643683878
 20
335.36120780453166
 40
15
 41
1
 50
0
  1
2
  0
LINE
  8
_0-d_寸法3
  6
CONTINUOUS
 62
    7
 10
183.76399310350578
 20
335.36120780453166
 11
193.42325136639644
 21
337.94939825555684
  0
LINE
  8
_0-d_寸法3
  6
CONTINUOUS
 62
    7
 10
183.76399310350578
 20
335.36120780453166
 11
193.42325136639644
 21
332.77301735350648
  0
LINE
  8
_0-d_寸法3
  6
CONTINUOUS
 62
    7
 10
757.09732643683901
 20
262.0278744711984
 11
757.09732643683901
 21
340.36120780453166
  0
LINE
  8
_0-d_寸法3
  6
CONTINUOUS
 62
    7
 10
757.09732643683901
 20
335.36120780453166
 11
747.4380681739483
 21
332.77301735350648
  0
LINE
  8
_0-d_寸法3
  6
CONTINUOUS
 62
    7
 10
757.09732643683901
 20
335.36120780453166
 11
747.4380681739483
 21
337.94939825555696
  0
LINE
  8
_0-d_寸法3
  6
CONTINUOUS
 62
    7
 10
183.76399310350578
 20
335.36120780453166
 11
757.09732643683901
 21
335.36120780453166
  0
TEXT
  8
_0-d_寸法3
 62
    7
 10
459.18065977017204
 20
335.36120780453166
 40
15
 41
1
 50
0
  1
344
  0
LINE
  8
_0-d_寸法3
  6
CONTINUOUS
 62
    7
 10
760.43065977017204
 20
264.52787613954274
 11
760.43065977017204
 21
340.36120780453166
  0
CIRCLE
  8
_0-d_寸法3
  6
CONTINUOUS
 62
    1
 10
760.43065977017204
 20
335.36120780453166
 40
1.5000000000000002
  0
LINE
  8
_0-d_寸法3
  6
CONTINUOUS
 62
    7
 10
757.09732643683901
 20
335.36120780453166
 11
760.43065977017204
 21
335.36120780453166
  0
TEXT
  8
_0-d_寸法3
 62
    7
 10
755.01399310350507
 20
335.36120780453166
 40
15
 41
1
 50
0
  1
2
  0
LINE
  8
_0-d_寸法3
  6
CONTINUOUS
 62
    7
 10
765.43065977017204
 20
335.36120780453166
 11
775.08991803306287
 21
337.94939825555679
  0
LINE
  8
_0-d_寸法3
  6
CONTINUOUS
 62
    7
 10
765.43065977017204
 20
335.36120780453166
 11
775.08991803306287
 21
332.77301735350642
  0
LINE
  8
_0-d_寸法3
  6
CONTINUOUS
 62
    7
 10
760.43065977017204
 20
335.36120780453166
 11
790.43065977017204
 21
335.36120780453166
  0
TEXT
  8
_0-d_寸法3
 62
    7
 10
780.12066763553094
 20
335.36120780453166
 40
15
 41
1
 50
0
  1
3
  0
ENDSEC
  0
EOF
