  0
SECTION
  2
HEADER
  9
$ACADVER
  1
AC1009
  9
$INSBASE
 10
0
 20
0
 30
0
  9
$EXTMIN
 10
0
 20
0
  9
$EXTMAX
 10
1485
 20
1050
  9
$LIMMIN
 10
0
 20
0
  9
$LIMMAX
 10
1485
 20
1050
  9
$LTSCALE
 40
5
  0
ENDSEC
  0
SECTION
  2
TABLES
  0
TABLE
  2
LTYPE
 70
     9
  0
LTYPE
  2
CONTINUOUS
 70
    64
  3
実線
 72
    65
 73
     0
 40
0.0
  0
LTYPE
  2
DASHED1
 70
    64
  3
--  --  --  --  --  --  --  --  
 72
    65
 73
     2
 40
2.5
 49
1.25
 49
-1.25
  0
LTYPE
  2
DASHED2
 70
    64
  3
----    ----    ----    ----    
 72
    65
 73
     2
 40
5.0
 49
2.5
 49
-2.5
  0
LTYPE
  2
DASHED3
 70
    64
  3
------  ------  ------  ------  
 72
    65
 73
     2
 40
5.0
 49
3.75
 49
-1.25
  0
LTYPE
  2
CENTER1
 70
    64
  3
----- - ----- - ----- - ----- - 
 72
    65
 73
     4
 40
10.0
 49
6.25
 49
-1.25
 49
1.25
 49
-1.25
  0
LTYPE
  2
CENTER2
 70
    64
  3
----------  --  ----------  --  
 72
    65
 73
     4
 40
20.0
 49
12.5
 49
-2.5
 49
2.5
 49
-2.5
  0
LTYPE
  2
PHANTOM1
 70
    64
  3
--- - - --- - - --- - - --- - - 
 72
    65
 73
     6
 40
10.0
 49
3.25
 49
-1.25
 49
1.25
 49
-1.25
 49
1.25
 49
-1.25
  0
LTYPE
  2
PHANTOM2
 70
    64
  3
--------  -  -  --------  -  -  
 72
    65
 73
     6
 40
20.0
 49
10.0
 49
-2.5
 49
1.25
 49
-2.5
 49
1.25
 49
-2.5
  0
LTYPE
  2
DOT
 70
    64
  3
-   -   -   -   -   -   -   -   
 72
    65
 73
     2
 40
2.5
 49
0.625
 49
-1.875
  0
LTYPE
  2
DUMMY
 70
    64
  3
ダミー
 72
    65
 73
     0
 40
0.0
  0
LTYPE
  2
RAND1
 70
    64
  3
ランダム線1
 72
    65
 73
     4
 40
10.0
 49
1.0
 49
-2.0
 49
3.0
 49
-4.0
  0
LTYPE
  2
RAND2
 70
    64
  3
ランダム線2
 72
    65
 73
     4
 40
14.0
 49
2.0
 49
-3.0
 49
4.0
 49
-5.0
  0
LTYPE
  2
RAND3
 70
    64
  3
ランダム線3
 72
    65
 73
     4
 40
18.0
 49
3.0
 49
-4.0
 49
5.0
 49
-6.0
  0
LTYPE
  2
RAND4
 70
    64
  3
ランダム線4
 72
    65
 73
     4
 40
22.0
 49
4.0
 49
-5.0
 49
6.0
 49
-7.0
  0
LTYPE
  2
RAND5
 70
    64
  3
ランダム線5
 72
    65
 73
     4
 40
26.0
 49
5.0
 49
-6.0
 49
7.0
 49
-8.0
  0
LTYPE
  2
LONG1
 70
    64
  3
----------  --  ----------  --  
 72
    65
 73
     4
 40
40.0
 49
32.5
 49
-2.5
 49
2.5
 49
-2.5
  0
LTYPE
  2
LONG2
 70
    64
  3
--------  -  -  --------  -  -  
 72
    65
 73
     6
 40
40.0
 49
30.0
 49
-2.5
 49
1.25
 49
-2.5
 49
1.25
 49
-2.5
  0
LTYPE
  2
LONG3
 70
    64
  3
+++++++++++++++..+++++++++++++++
 72
    65
 73
     2
 40
40.0
 49
37.5
 49
-2.5
  0
LTYPE
  2
LONG4
 70
    64
  3
+++++++++++++++..+++++++++++++++
 72
    65
 73
     2
 40
80.0
 49
75.0
 49
-5.0
  0
LTYPE
  2
LONG5
 70
    64
  3
----------  --  ----------  --  
 72
    65
 73
     4
 40
60.0
 49
37.5
 49
-7.5
 49
7.5
 49
-7.5
  0
LTYPE
  2
dashed
 70
   64
  3
-------   -------------   ------
 72
   65
 73
    2
 40
7.5
 49
6
 49
-1.5
  0
LTYPE
  2
dashed_spaced
 70
   64
  3
----        --------        ----
 72
   65
 73
    2
 40
12
 49
6
 49
-6
  0
LTYPE
  2
long_dashed_dotted
 70
   64
  3
------------- --- --------------
 72
   65
 73
    4
 40
15.25
 49
12
 49
-1.5
 49
0.25
 49
-1.5
  0
LTYPE
  2
long_dashed_double-dotted
 70
   64
  3
----------- --- --- ------------
 72
   65
 73
    6
 40
17
 49
12
 49
-1.5
 49
0.25
 49
-1.5
 49
0.25
 49
-1.5
  0
LTYPE
  2
long_dashed_triplicate-dotted
 70
   64
  3
--------- --- --- --- ----------
 72
   65
 73
    8
 40
18.75
 49
12
 49
-1.5
 49
0.25
 49
-1.5
 49
0.25
 49
-1.5
 49
0.25
 49
-1.5
  0
LTYPE
  2
dotted
 70
   64
  3
   -       -       -       -    
 72
   65
 73
    2
 40
1.75
 49
0.25
 49
-1.5
  0
LTYPE
  2
chain
 70
   64
  3
-------------- -- --------------
 72
   65
 73
    4
 40
18.5
 49
12
 49
-1.5
 49
3.5
 49
-1.5
  0
LTYPE
  2
chain_double_dash
 70
   64
  3
------------ -- -- -------------
 72
   65
 73
    6
 40
23.5
 49
12
 49
-1.5
 49
3.5
 49
-1.5
 49
3.5
 49
-1.5
  0
LTYPE
  2
dashed_dotted
 70
   64
  3
-----------     -     ----------
 72
   65
 73
    4
 40
9.25
 49
6
 49
-1.5
 49
0.25
 49
-1.5
  0
LTYPE
  2
double-dashed_dotted
 70
   64
  3
------   -----------   -   -----
 72
   65
 73
    6
 40
16.75
 49
6
 49
-1.5
 49
6
 49
-1.5
 49
0.25
 49
-1.5
  0
LTYPE
  2
dashed_double-dotted
 70
   64
  3
---------    -    -    ---------
 72
   65
 73
    6
 40
11
 49
6
 49
-1.5
 49
0.25
 49
-1.5
 49
0.25
 49
-1.5
  0
LTYPE
  2
double-dashed_double-dotted
 70
   64
  3
-----   ---------   -   -   ----
 72
   65
 73
    8
 40
18.5
 49
6
 49
-1.5
 49
6
 49
-1.5
 49
0.25
 49
-1.5
 49
0.25
 49
-1.5
  0
LTYPE
  2
dashed_triplicate-dotted
 70
   64
  3
-------    -    -    -    ------
 72
   65
 73
    8
 40
12.75
 49
6
 49
-1.5
 49
0.25
 49
-1.5
 49
0.25
 49
-1.5
 49
0.25
 49
-1.5
  0
LTYPE
  2
double-dashed_triplicate-dotted
 70
   64
  3
-----  ---------  -  -  -  -----
 72
   65
 73
   10
 40
20.25
 49
6
 49
-1.5
 49
6
 49
-1.5
 49
0.25
 49
-1.5
 49
0.25
 49
-1.5
 49
0.25
 49
-1.5
  0
LTYPE
  2
undefined
 70
   64
  3
--------------------------------
 72
   65
 73
    0
 40
0
  0
ENDTAB
  0
TABLE
  2
STYLE
  5
3
100
AcDbSymbolTable
 70
     1
  0
STYLE
  5
10
100
AcDbSymbolTableRecord
100
AcDbTextStyleTableRecord
  2
STANDARD
 70
     0
 40
0.0
 41
1.0
 50
0.0
 71
     0
 42
0.2
  3
txt
  4
bigfont.shx
  0
STYLE
  5
26
100
AcDbSymbolTableRecord
100
AcDbTextStyleTableRecord
  2
TATEGAKI
 70
    68
 40
0.0
 41
1.0
 50
0.0
 71
     0
 42
1.0
  3
txt
  4
bigfont.shx
  0
ENDTAB
  0
TABLE
  2
LAYER
 70
   10
  0
LAYER
  2
_0-0_計極細
 70
   64
 62
    7
  6
CONTINUOUS
  0
LAYER
  2
_0-1_計細線
 70
   64
 62
    7
  6
CONTINUOUS
  0
LAYER
  2
_0-5_寸法線
 70
   64
 62
    7
  6
CONTINUOUS
  0
LAYER
  2
_0-7_枠細線
 70
   64
 62
    7
  6
CONTINUOUS
  0
LAYER
  2
_0-8_枠中線
 70
   64
 62
    7
  6
CONTINUOUS
  0
LAYER
  2
_0-9_枠極太
 70
   64
 62
    7
  6
CONTINUOUS
  0
LAYER
  2
_0-a_極細3
 70
   64
 62
    7
  6
CONTINUOUS
  0
LAYER
  2
_0-b_細線3
 70
   64
 62
    7
  6
CONTINUOUS
  0
LAYER
  2
_0-d_寸法3
 70
   64
 62
    7
  6
CONTINUOUS
  0
LAYER
  2
ADD_LINE
 70
   64
 62
    7
  6
CONTINUOUS
  0
ENDTAB
  0
ENDSEC
  0
SECTION
  2
BLOCKS
  0
ENDSEC
  0
SECTION
  2
ENTITIES
  0
LINE
  8
_0-7_枠細線
  6
CONTINUOUS
 62
    5
 10
1425
 20
942.5
 11
890
 21
942.5
  0
TEXT
  8
_0-7_枠細線
 62
    5
 10
895
 20
945
 40
12.5
 41
1
 50
0
  1
記号
  0
TEXT
  8
_0-7_枠細線
 62
    5
 10
996.875
 20
945
 40
12.5
 41
1
 50
0
  1
訂　 正　 記　 事
  0
TEXT
  8
_0-7_枠細線
 62
    5
 10
1181.25
 20
945
 40
12.5
 41
1
 50
0
  1
訂 正 年 月 日
  0
TEXT
  8
_0-7_枠細線
 62
    5
 10
1306.25
 20
945
 40
12.5
 41
1
 50
0
  1
備　　　　　考
  0
LINE
  8
_0-7_枠細線
  6
CONTINUOUS
 62
    5
 10
1185
 20
180
 11
1185
 21
100
  0
TEXT
  8
_0-7_枠細線
 62
    5
 10
937.5
 20
97.5
 40
17.5
 41
1
 50
0
  1
備考
  7
TATEGAKI
  0
TEXT
  8
_0-7_枠細線
 62
    5
 10
937.5
 20
137.5
 40
17.5
 41
1
 50
0
  1
品番
  7
TATEGAKI
  0
TEXT
  8
_0-7_枠細線
 62
    5
 10
937.5
 20
177.5
 40
17.5
 41
1
 50
0
  1
品名
  7
TATEGAKI
  0
LINE
  8
_0-7_枠細線
  6
CONTINUOUS
 62
    5
 10
1185
 20
140
 11
925
 21
140
  0
LINE
  8
_0-7_枠細線
  6
CONTINUOUS
 62
    5
 10
950
 20
180
 11
950
 21
60
  0
LINE
  8
_0-8_枠中線
  6
CONTINUOUS
 62
    5
 10
1425
 20
180
 11
925
 21
180
  0
LINE
  8
_0-8_枠中線
  6
CONTINUOUS
 62
    5
 10
925
 20
180
 11
925
 21
60
  0
LINE
  8
_0-7_枠細線
  6
CONTINUOUS
 62
    5
 10
1245
 20
180
 11
1245
 21
60
  0
TEXT
  8
_0-7_枠細線
 62
    5
 10
1192.5
 20
160
 40
15
 41
1
 50
0
  1
縮　尺
  0
LINE
  8
_0-7_枠細線
  6
CONTINUOUS
 62
    5
 10
1185
 20
155
 11
1245
 21
155
  0
LINE
  8
_0-7_枠細線
  6
CONTINUOUS
 62
    5
 10
1245
 20
100
 11
925
 21
100
  0
LINE
  8
_0-7_枠細線
  6
CONTINUOUS
 62
    5
 10
1425
 20
90
 11
1245
 21
90
  0
LINE
  8
_0-7_枠細線
  6
CONTINUOUS
 62
    5
 10
1245
 20
120
 11
1425
 21
120
  0
LINE
  8
_0-7_枠細線
  6
CONTINUOUS
 62
    5
 10
1425
 20
140
 11
1245
 21
140
  0
TEXT
  8
_0-7_枠細線
 62
    5
 10
1255
 20
147.5
 40
25
 41
0.8
 50
0
  1
株式会社シマブン
  0
TEXT
  8
_0-7_枠細線
 62
    5
 10
1252.5
 20
60
 40
15
 41
1
 50
0
  1
年月日
  0
TEXT
  8
_0-7_枠細線
 62
    5
 10
1252.5
 20
75
 40
15
 41
1
 50
0
  1
作　成
  0
TEXT
  8
_0-7_枠細線
 62
    5
 10
1256.25
 20
122.5
 40
15
 41
1
 50
0
  1
承 認
  0
LINE
  8
_0-7_枠細線
  6
CONTINUOUS
 62
    5
 10
1305
 20
140
 11
1305
 21
60
  0
TEXT
  8
_0-7_枠細線
 62
    5
 10
1316.25
 20
122.5
 40
15
 41
1
 50
0
  1
検 図
  0
LINE
  8
_0-7_枠細線
  6
CONTINUOUS
 62
    5
 10
1365
 20
140
 11
1365
 21
90
  0
TEXT
  8
_0-7_枠細線
 62
    5
 10
1375
 20
95
 40
20
 41
1
 50
0
  1
藤戸
  0
TEXT
  8
_0-7_枠細線
 62
    5
 10
1376.25
 20
122.5
 40
15
 41
1
 50
0
  1
設 計
  0
TEXT
  8
_0-7_枠細線
 62
    5
 10
1255
 20
95
 40
20
 41
1
 50
0
  1
隠塚
  0
TEXT
  8
_0-7_枠細線
 62
    5
 10
1315
 20
95
 40
20
 41
1
 50
0
  1
渋田
  0
TEXT
  8
_0-7_枠細線
 62
    5
 10
1193.9999999999998
 20
117.5
 40
20
 41
0.7000000000000001
 50
0
  1
１：５
  0
TEXT
  8
_0-7_枠細線
 62
    5
 10
366.62546759064583
 20
115.70578772854788
 40
20.000000000000004
 41
0.5999999999999999
 50
0
  1
Ｓ＝１：３
  0
TEXT
  8
_0-7_枠細線
 62
    5
 10
1005.9999999999991
 20
422.76107767489867
 40
15
 41
0.8000000000000001
 50
0
  1
品　　番
  0
TEXT
  8
_0-7_枠細線
 62
    5
 10
943.99999999999966
 20
422.76107767489867
 40
15
 41
0.8000000000000001
 50
0
  1
Ｂ
  0
TEXT
  8
_0-7_枠細線
 62
    5
 10
931.9601466049329
 20
447.76107767489867
 40
17.5
 41
1
 50
0
  1
品番寸法表
  0
TEXT
  8
_0-7_枠細線
 62
    5
 10
1153.9999999999982
 20
422.76107767489867
 40
15
 41
0.8000000000000001
 50
0
  1
Ｌ
  0
TEXT
  8
_0-7_枠細線
 62
    5
 10
1103.9999999999989
 20
422.76107767489867
 40
15
 41
0.8000000000000001
 50
0
  1
Ａ
  0
TEXT
  8
_0-7_枠細線
 62
    5
 10
938.74999999999977
 20
372.76107767489907
 40
15
 41
1
 50
0
  1
300
  0
TEXT
  8
_0-7_枠細線
 62
    5
 10
938.74999999999977
 20
347.7610776748989
 40
15
 41
1
 50
0
  1
350
  0
TEXT
  8
_0-7_枠細線
 62
    5
 10
938.74999999999977
 20
322.76107767489884
 40
15
 41
1
 50
0
  1
400
  0
TEXT
  8
_0-7_枠細線
 62
    5
 10
1098.7499999999991
 20
397.7610776748989
 40
15
 41
1
 50
0
  1
300
  0
TEXT
  8
_0-7_枠細線
 62
    5
 10
1098.7499999999991
 20
372.76107767489907
 40
15
 41
1
 50
0
  1
350
  0
TEXT
  8
_0-7_枠細線
 62
    5
 10
1098.7499999999991
 20
347.7610776748989
 40
15
 41
1
 50
0
  1
400
  0
TEXT
  8
_0-7_枠細線
 62
    5
 10
1098.7499999999991
 20
322.76107767489884
 40
15
 41
1
 50
0
  1
450
  0
TEXT
  8
_0-7_枠細線
 62
    5
 10
1148.7499999999982
 20
397.7610776748989
 40
15
 41
1
 50
0
  1
300
  0
TEXT
  8
_0-7_枠細線
 62
    5
 10
1148.7499999999982
 20
372.76107767489907
 40
15
 41
1
 50
0
  1
350
  0
TEXT
  8
_0-7_枠細線
 62
    5
 10
1148.7499999999982
 20
347.7610776748989
 40
15
 41
1
 50
0
  1
400
  0
TEXT
  8
_0-7_枠細線
 62
    5
 10
1148.7499999999982
 20
322.76107767489884
 40
15
 41
1
 50
0
  1
450
  0
TEXT
  8
_0-7_枠細線
 62
    5
 10
938.74999999999977
 20
397.7610776748989
 40
15
 41
1
 50
0
  1
250
  0
TEXT
  8
_0-7_枠細線
 62
    5
 10
938.74999999999977
 20
297.7610776748989
 40
15
 41
1
 50
0
  1
450
  0
TEXT
  8
_0-7_枠細線
 62
    5
 10
1098.7499999999991
 20
297.7610776748989
 40
15
 41
1
 50
0
  1
500
  0
TEXT
  8
_0-7_枠細線
 62
    5
 10
1148.7499999999982
 20
297.7610776748989
 40
15
 41
1
 50
0
  1
500
  0
LINE
  8
_0-7_枠細線
  6
CONTINUOUS
 62
    5
 10
925
 20
442.76107767489867
 11
925
 21
292.76107767489873
  0
LINE
  8
_0-7_枠細線
  6
CONTINUOUS
 62
    5
 10
974.99999999999932
 20
442.76107767489867
 11
974.99999999999932
 21
292.76107767489873
  0
LINE
  8
_0-7_枠細線
  6
CONTINUOUS
 62
    5
 10
1084.9999999999995
 20
442.76107767489867
 11
1084.9999999999995
 21
292.76107767489873
  0
LINE
  8
_0-7_枠細線
  6
CONTINUOUS
 62
    5
 10
1134.9999999999986
 20
442.76107767489867
 11
1134.9999999999986
 21
292.76107767489873
  0
LINE
  8
_0-7_枠細線
  6
CONTINUOUS
 62
    5
 10
1184.9999999999977
 20
442.76107767489867
 11
1184.9999999999977
 21
292.76107767489873
  0
ARC
  8
_0-a_極細3
  6
CONTINUOUS
 62
    7
 10
264.70135452177601
 20
227.90216087431139
 40
21.070607518177617
 50
150.03871396148165
 51
205.23810402387883
  0
ARC
  8
_0-a_極細3
  6
CONTINUOUS
 62
    7
 10
226.58278429389833
 20
209.93394981915455
 40
21.070607518177617
 50
330.03871396148202
 51
25.238104023878375
  0
LINE
  8
_0-d_寸法3
  6
CONTINUOUS
 62
    7
 10
233.92615326537708
 20
231.41805534673267
 11
205.59281993204371
 21
231.41805534673279
  0
LINE
  8
_0-d_寸法3
  6
CONTINUOUS
 62
    7
 10
210.59281993204371
 20
231.41805534673273
 11
213.18101038306892
 21
221.75879708384204
  0
LINE
  8
_0-d_寸法3
  6
CONTINUOUS
 62
    7
 10
210.59281993204371
 20
231.41805534673273
 11
208.00462948101853
 21
221.75879708384204
  0
LINE
  8
_0-d_寸法3
  6
CONTINUOUS
 62
    7
 10
233.92615326537708
 20
206.41805534673267
 11
205.59281993204371
 21
206.41805534673273
  0
LINE
  8
_0-d_寸法3
  6
CONTINUOUS
 62
    7
 10
210.59281993204371
 20
206.41805534673273
 11
208.00462948101853
 21
216.07731360962345
  0
LINE
  8
_0-d_寸法3
  6
CONTINUOUS
 62
    7
 10
210.59281993204371
 20
206.41805534673273
 11
213.18101038306892
 21
216.07731360962345
  0
LINE
  8
_0-d_寸法3
  6
CONTINUOUS
 62
    7
 10
210.59281993204371
 20
231.41805534673273
 11
210.59281993204371
 21
206.41805534673273
  0
TEXT
  8
_0-d_寸法3
 62
    7
 10
210.59281993204371
 20
211.41805534673273
 40
15
 41
1
 50
90
  1
15
  0
LINE
  8
_0-a_極細3
  6
CENTER1
 62
    7
 10
225.7915461700739
 20
218.91805534673264
 11
388.77097344297056
 21
218.91805534673264
  0
TEXT
  8
_0-7_枠細線
 62
    5
 10
960.5
 20
158.74999999999994
 40
20.000000000000007
 41
0.5249999999999998
 50
0
  1
Ｔバー ステンレスグレーチングＨ１５タイプ
  0
TEXT
  8
_0-7_枠細線
 62
    5
 10
261.67649784147761
 20
115.70578772854788
 40
25.000000000000007
 41
0.8
 50
0
  1
側面詳細
  0
TEXT
  8
_0-7_枠細線
 62
    5
 10
1302.999999999995
 20
417.76107767489867
 40
12.5
 41
0.9600000000000001
 50
0
  1
重量
  0
TEXT
  8
_0-7_枠細線
 62
    5
 10
1253.9999999999964
 20
422.76107767489867
 40
15
 41
0.8000000000000001
 50
0
  1
Ｗ
  0
TEXT
  8
_0-7_枠細線
 62
    5
 10
1290.9999999999955
 20
430.26107767489867
 40
12.5
 41
0.9600000000000001
 50
0
  1
ｸﾞﾚｰﾁﾝｸﾞ
  0
TEXT
  8
_0-7_枠細線
 62
    5
 10
1248.7499999999964
 20
397.7610776748989
 40
15
 41
1
 50
0
  1
310
  0
TEXT
  8
_0-7_枠細線
 62
    5
 10
1248.7499999999964
 20
372.76107767489907
 40
15
 41
1
 50
0
  1
360
  0
TEXT
  8
_0-7_枠細線
 62
    5
 10
1248.7499999999964
 20
347.7610776748989
 40
15
 41
1
 50
0
  1
410
  0
TEXT
  8
_0-7_枠細線
 62
    5
 10
1248.7499999999964
 20
322.76107767489884
 40
15
 41
1
 50
0
  1
460
  0
TEXT
  8
_0-7_枠細線
 62
    5
 10
1248.7499999999964
 20
297.7610776748989
 40
15
 41
1
 50
0
  1
510
  0
LINE
  8
_0-7_枠細線
  6
CONTINUOUS
 62
    5
 10
1344.9999999999952
 20
442.76107767489867
 11
1344.9999999999952
 21
292.76107767489873
  0
LINE
  8
_0-7_枠細線
  6
CONTINUOUS
 62
    5
 10
1284.9999999999959
 20
442.76107767489867
 11
1284.9999999999959
 21
292.76107767489873
  0
LINE
  8
_0-7_枠細線
  6
CONTINUOUS
 62
    5
 10
1234.9999999999968
 20
442.76107767489867
 11
1234.9999999999968
 21
292.76107767489873
  0
LINE
  8
_0-7_枠細線
  6
CONTINUOUS
 62
    5
 10
1404.9999999999941
 20
442.76107767489867
 11
1404.9999999999941
 21
292.76107767489873
  0
LINE
  8
_0-7_枠細線
  6
CONTINUOUS
 62
    5
 10
925
 20
442.76107767489867
 11
1404.9999999999941
 21
442.76107767489867
  0
LINE
  8
_0-7_枠細線
  6
CONTINUOUS
 62
    5
 10
925
 20
417.76107767489867
 11
1404.9999999999941
 21
417.76107767489867
  0
LINE
  8
_0-7_枠細線
  6
CONTINUOUS
 62
    5
 10
925
 20
292.76107767489879
 11
1404.9999999999941
 21
292.76107767489879
  0
TEXT
  8
_0-7_枠細線
 62
    5
 10
1203.999999999997
 20
422.76107767489867
 40
15
 41
0.8000000000000001
 50
0
  1
Ｐ
  0
TEXT
  8
_0-7_枠細線
 62
    5
 10
1352.6814814814761
 20
422.76107767489867
 40
15
 41
0.8000000000000001
 50
0
  1
適用荷重
  0
TEXT
  8
_0-7_枠細線
 62
    5
 10
1187.4999999999973
 20
397.7610776748989
 40
15
 41
1
 50
0
  1
125×2
  0
TEXT
  8
_0-7_枠細線
 62
    5
 10
1187.4999999999973
 20
372.76107767489907
 40
15
 41
1
 50
0
  1
150×2
  0
TEXT
  8
_0-7_枠細線
 62
    5
 10
1200.9999999999975
 20
317.32906121399361
 40
12.000000000000002
 41
1
 50
0
  1
150
  0
TEXT
  8
_0-7_枠細線
 62
    5
 10
1185.9999999999975
 20
329.96401320301976
 40
12.000000000000002
 41
1
 50
0
  1
端125×2
  0
LINE
  8
_0-7_枠細線
  6
CONTINUOUS
 62
    5
 10
925
 20
317.76107767489867
 11
1344.9999999999952
 21
317.76107767489867
  0
LINE
  8
_0-7_枠細線
  6
CONTINUOUS
 62
    5
 10
925
 20
392.76107767489884
 11
1344.9999999999952
 21
392.76107767489884
  0
LINE
  8
_0-7_枠細線
  6
CONTINUOUS
 62
    5
 10
925
 20
367.7610776748989
 11
1344.9999999999952
 21
367.7610776748989
  0
LINE
  8
_0-7_枠細線
  6
CONTINUOUS
 62
    5
 10
925
 20
342.76107767489884
 11
1344.9999999999952
 21
342.76107767489884
  0
TEXT
  8
_0-7_枠細線
 62
    5
 10
1352.877777777778
 20
363.39801419444774
 40
15
 41
1
 50
0
  1
歩道用
  0
TEXT
  8
_0-7_枠細線
 62
    5
 10
1340.8777777777775
 20
343.39801419444768
 40
15
 41
0.7666666666666667
 50
0
  1
（5.0kN/㎡）
  0
ARC
  8
_0-b_細線3
  6
CONTINUOUS
 62
    7
 10
269.81512832218516
 20
308.94719630376278
 40
97.696522151887564
 50
263.73185704547734
 51
276.26814295452198
  0
ARC
  8
_0-b_細線3
  6
CONTINUOUS
 62
    7
 10
269.81512832218516
 20
127.22224772303612
 40
97.696522151887407
 50
83.731857045477668
 51
96.268142954522204
  0
LINE
  8
_0-b_細線3
  6
CONTINUOUS
 62
    7
 10
264.81512832218596
 20
229.41805534673264
 11
264.81512832218596
 21
231.41805534673264
  0
LINE
  8
_0-b_細線3
  6
CONTINUOUS
 62
    7
 10
259.14846165551933
 20
229.41805534673264
 11
264.81512832218596
 21
229.41805534673264
  0
LINE
  8
_0-b_細線3
  6
CONTINUOUS
 62
    7
 10
259.14846165551933
 20
206.41805534673264
 11
259.14846165551933
 21
229.41805534673264
  0
LINE
  8
_0-b_細線3
  6
CONTINUOUS
 62
    7
 10
257.14846165551933
 20
206.41805534673264
 11
259.14846165551933
 21
206.41805534673264
  0
LINE
  8
_0-b_細線3
  6
CONTINUOUS
 62
    7
 10
257.14846165551933
 20
229.41805534673264
 11
257.14846165551933
 21
206.41805534673264
  0
LINE
  8
_0-b_細線3
  6
CONTINUOUS
 62
    7
 10
251.4817949888527
 20
229.41805534673264
 11
257.14846165551933
 21
229.41805534673264
  0
LINE
  8
_0-b_細線3
  6
CONTINUOUS
 62
    7
 10
251.4817949888527
 20
231.41805534673264
 11
251.4817949888527
 21
229.41805534673264
  0
LINE
  8
_0-b_細線3
  6
CONTINUOUS
 62
    7
 10
264.81512832218596
 20
231.41805534673264
 11
251.4817949888527
 21
231.41805534673264
  0
ARC
  8
_0-b_細線3
  6
CONTINUOUS
 62
    7
 10
316.48179498885241
 20
308.94719630376176
 40
97.696522151886498
 50
263.73185704547689
 51
276.26814295452243
  0
ARC
  8
_0-b_細線3
  6
CONTINUOUS
 62
    7
 10
316.48179498885241
 20
127.22224772303704
 40
97.696522151886498
 50
83.731857045477213
 51
96.268142954522787
  0
ARC
  8
_0-b_細線3
  6
CONTINUOUS
 62
    7
 10
293.14846165551899
 20
308.94719630376176
 40
97.696522151886498
 50
263.73185704547689
 51
276.26814295452243
  0
ARC
  8
_0-b_細線3
  6
CONTINUOUS
 62
    7
 10
293.14846165551899
 20
127.22224772303704
 40
97.696522151886498
 50
83.731857045477213
 51
96.26814295452273
  0
LINE
  8
_0-b_細線3
  6
CONTINUOUS
 62
    7
 10
288.14846165551933
 20
229.41805534673264
 11
288.14846165551933
 21
231.41805534673264
  0
LINE
  8
_0-b_細線3
  6
CONTINUOUS
 62
    7
 10
282.4817949888527
 20
229.41805534673264
 11
288.14846165551933
 21
229.41805534673264
  0
LINE
  8
_0-b_細線3
  6
CONTINUOUS
 62
    7
 10
282.4817949888527
 20
206.41805534673264
 11
282.4817949888527
 21
229.41805534673264
  0
LINE
  8
_0-b_細線3
  6
CONTINUOUS
 62
    7
 10
280.48179498885276
 20
206.41805534673264
 11
282.4817949888527
 21
206.41805534673264
  0
LINE
  8
_0-b_細線3
  6
CONTINUOUS
 62
    7
 10
280.48179498885276
 20
229.41805534673264
 11
280.48179498885276
 21
206.41805534673264
  0
LINE
  8
_0-b_細線3
  6
CONTINUOUS
 62
    7
 10
274.81512832218596
 20
229.41805534673264
 11
280.48179498885276
 21
229.41805534673264
  0
LINE
  8
_0-b_細線3
  6
CONTINUOUS
 62
    7
 10
274.81512832218596
 20
231.41805534673264
 11
274.81512832218596
 21
229.41805534673264
  0
LINE
  8
_0-b_細線3
  6
CONTINUOUS
 62
    7
 10
288.14846165551933
 20
231.41805534673264
 11
274.81512832218596
 21
231.41805534673264
  0
LINE
  8
_0-b_細線3
  6
CONTINUOUS
 62
    7
 10
311.48179498885241
 20
229.41805534673264
 11
311.48179498885241
 21
231.41805534673264
  0
LINE
  8
_0-b_細線3
  6
CONTINUOUS
 62
    7
 10
305.81512832218596
 20
229.41805534673264
 11
311.48179498885241
 21
229.41805534673264
  0
LINE
  8
_0-b_細線3
  6
CONTINUOUS
 62
    7
 10
305.81512832218596
 20
206.41805534673264
 11
305.81512832218596
 21
229.41805534673264
  0
LINE
  8
_0-b_細線3
  6
CONTINUOUS
 62
    7
 10
303.81512832218596
 20
206.41805534673264
 11
305.81512832218596
 21
206.41805534673264
  0
LINE
  8
_0-b_細線3
  6
CONTINUOUS
 62
    7
 10
303.81512832218596
 20
229.41805534673264
 11
303.81512832218596
 21
206.41805534673264
  0
LINE
  8
_0-b_細線3
  6
CONTINUOUS
 62
    7
 10
298.14846165551899
 20
229.41805534673264
 11
303.81512832218596
 21
229.41805534673264
  0
LINE
  8
_0-b_細線3
  6
CONTINUOUS
 62
    7
 10
298.14846165551899
 20
231.41805534673264
 11
298.14846165551899
 21
229.41805534673264
  0
LINE
  8
_0-b_細線3
  6
CONTINUOUS
 62
    7
 10
311.48179498885241
 20
231.41805534673264
 11
298.14846165551899
 21
231.41805534673264
  0
LINE
  8
_0-b_細線3
  6
CONTINUOUS
 62
    7
 10
334.81512832218596
 20
229.41805534673264
 11
334.81512832218596
 21
231.41805534673264
  0
LINE
  8
_0-b_細線3
  6
CONTINUOUS
 62
    7
 10
329.14846165551899
 20
229.41805534673264
 11
334.81512832218596
 21
229.41805534673264
  0
LINE
  8
_0-b_細線3
  6
CONTINUOUS
 62
    7
 10
329.14846165551899
 20
206.41805534673264
 11
329.14846165551899
 21
229.41805534673264
  0
LINE
  8
_0-b_細線3
  6
CONTINUOUS
 62
    7
 10
327.14846165551933
 20
206.41805534673264
 11
329.14846165551899
 21
206.41805534673264
  0
LINE
  8
_0-b_細線3
  6
CONTINUOUS
 62
    7
 10
327.14846165551933
 20
229.41805534673264
 11
327.14846165551933
 21
206.41805534673264
  0
LINE
  8
_0-b_細線3
  6
CONTINUOUS
 62
    7
 10
321.4817949888527
 20
229.41805534673264
 11
327.14846165551933
 21
229.41805534673264
  0
LINE
  8
_0-b_細線3
  6
CONTINUOUS
 62
    7
 10
321.4817949888527
 20
231.41805534673264
 11
321.4817949888527
 21
229.41805534673264
  0
LINE
  8
_0-b_細線3
  6
CONTINUOUS
 62
    7
 10
334.81512832218596
 20
231.41805534673264
 11
321.4817949888527
 21
231.41805534673264
  0
LINE
  8
_0-d_寸法3
  6
CONTINUOUS
 62
    7
 10
251.48179498885276
 20
241.41805534673264
 11
251.48179498885284
 21
286.41805534673261
  0
LINE
  8
_0-d_寸法3
  6
CONTINUOUS
 62
    7
 10
251.48179498885284
 20
281.41805534673261
 11
241.82253672596218
 21
278.82986489570743
  0
LINE
  8
_0-d_寸法3
  6
CONTINUOUS
 62
    7
 10
251.48179498885284
 20
281.41805534673261
 11
241.82253672596218
 21
284.00624579775786
  0
LINE
  8
_0-d_寸法3
  6
CONTINUOUS
 62
    7
 10
264.81512832218613
 20
241.41805534673264
 11
264.81512832218613
 21
286.41805534673261
  0
CIRCLE
  8
_0-d_寸法3
  6
CONTINUOUS
 62
    1
 10
264.81512832218613
 20
281.41805534673261
 40
1.5000000000000002
  0
LINE
  8
_0-d_寸法3
  6
CONTINUOUS
 62
    7
 10
226.48179498885284
 20
281.41805534673261
 11
264.81512832218613
 21
281.41805534673261
  0
TEXT
  8
_0-d_寸法3
 62
    7
 10
233.9763609392719
 20
281.41805534673261
 40
15
 41
1
 50
0
  1
8
  0
LINE
  8
_0-d_寸法3
  6
CONTINUOUS
 62
    7
 10
274.81512832218613
 20
241.41805534673264
 11
274.81512832218613
 21
286.41805534673261
  0
LINE
  8
_0-d_寸法3
  6
CONTINUOUS
 62
    7
 10
274.81512832218613
 20
281.41805534673261
 11
284.47438658507684
 21
284.00624579775774
  0
LINE
  8
_0-d_寸法3
  6
CONTINUOUS
 62
    7
 10
274.81512832218613
 20
281.41805534673261
 11
284.47438658507679
 21
278.82986489570737
  0
LINE
  8
_0-d_寸法3
  6
CONTINUOUS
 62
    7
 10
264.81512832218613
 20
281.41805534673261
 11
299.81512832218613
 21
281.41805534673261
  0
TEXT
  8
_0-d_寸法3
 62
    7
 10
284.53586711211165
 20
281.41805534673261
 40
15
 41
1
 50
0
  1
6
  0
ARC
  8
_0-b_細線3
  6
CONTINUOUS
 62
    7
 10
339.81512832218539
 20
308.94719630376176
 40
97.696522151886498
 50
263.73185704547689
 51
276.26814295452243
  0
ARC
  8
_0-b_細線3
  6
CONTINUOUS
 62
    7
 10
339.81512832218539
 20
127.22224772303704
 40
97.696522151886498
 50
83.731857045477213
 51
96.268142954522787
  0
LINE
  8
_0-b_細線3
  6
CONTINUOUS
 62
    7
 10
358.14846165551899
 20
229.41805534673264
 11
358.14846165551899
 21
231.41805534673264
  0
LINE
  8
_0-b_細線3
  6
CONTINUOUS
 62
    7
 10
352.48179498885202
 20
229.41805534673264
 11
358.14846165551899
 21
229.41805534673264
  0
LINE
  8
_0-b_細線3
  6
CONTINUOUS
 62
    7
 10
352.48179498885202
 20
206.41805534673264
 11
352.48179498885202
 21
229.41805534673264
  0
LINE
  8
_0-b_細線3
  6
CONTINUOUS
 62
    7
 10
350.48179498885241
 20
206.41805534673264
 11
352.48179498885202
 21
206.41805534673264
  0
LINE
  8
_0-b_細線3
  6
CONTINUOUS
 62
    7
 10
350.48179498885241
 20
229.41805534673264
 11
350.48179498885241
 21
206.41805534673264
  0
LINE
  8
_0-b_細線3
  6
CONTINUOUS
 62
    7
 10
344.81512832218579
 20
229.41805534673264
 11
350.48179498885241
 21
229.41805534673264
  0
LINE
  8
_0-b_細線3
  6
CONTINUOUS
 62
    7
 10
344.81512832218579
 20
231.41805534673264
 11
344.81512832218579
 21
229.41805534673264
  0
LINE
  8
_0-b_細線3
  6
CONTINUOUS
 62
    7
 10
358.14846165551899
 20
231.41805534673264
 11
344.81512832218579
 21
231.41805534673264
  0
ARC
  8
_0-b_細線3
  6
CONTINUOUS
 62
    7
 10
363.14846165551842
 20
308.94719630376176
 40
97.696522151886498
 50
263.73185704547689
 51
276.26814295452243
  0
ARC
  8
_0-b_細線3
  6
CONTINUOUS
 62
    7
 10
363.14846165551842
 20
127.22224772303704
 40
97.696522151886498
 50
83.731857045477213
 51
96.268142954522787
  0
LINE
  8
_0-b_細線3
  6
CONTINUOUS
 62
    7
 10
381.48179498885207
 20
229.41805534673264
 11
381.48179498885207
 21
231.41805534673264
  0
LINE
  8
_0-b_細線3
  6
CONTINUOUS
 62
    7
 10
375.81512832218505
 20
229.41805534673264
 11
381.48179498885207
 21
229.41805534673264
  0
LINE
  8
_0-b_細線3
  6
CONTINUOUS
 62
    7
 10
375.81512832218505
 20
206.41805534673264
 11
375.81512832218505
 21
229.41805534673264
  0
LINE
  8
_0-b_細線3
  6
CONTINUOUS
 62
    7
 10
373.81512832218539
 20
206.41805534673264
 11
375.81512832218505
 21
206.41805534673264
  0
LINE
  8
_0-b_細線3
  6
CONTINUOUS
 62
    7
 10
373.81512832218539
 20
229.41805534673264
 11
373.81512832218539
 21
206.41805534673264
  0
LINE
  8
_0-b_細線3
  6
CONTINUOUS
 62
    7
 10
368.14846165551876
 20
229.41805534673264
 11
373.81512832218539
 21
229.41805534673264
  0
LINE
  8
_0-b_細線3
  6
CONTINUOUS
 62
    7
 10
368.14846165551876
 20
231.41805534673264
 11
368.14846165551876
 21
229.41805534673264
  0
LINE
  8
_0-b_細線3
  6
CONTINUOUS
 62
    7
 10
381.48179498885207
 20
231.41805534673264
 11
368.14846165551876
 21
231.41805534673264
  0
ARC
  8
_0-a_極細3
  6
CONTINUOUS
 62
    7
 10
407.83025855690914
 20
227.90216087431139
 40
21.070607518177617
 50
150.03871396148168
 51
205.2381040238788
  0
ARC
  8
_0-a_極細3
  6
CONTINUOUS
 62
    7
 10
369.7116883290314
 20
209.93394981915455
 40
21.070607518177617
 50
330.03871396148202
 51
25.238104023878375
  0
ARC
  8
_0-b_細線3
  6
CONTINUOUS
 62
    7
 10
386.4817949888515
 20
127.22224772303704
 40
97.696522151886498
 50
89.712447716540268
 51
96.268142954522801
  0
ARC
  8
_0-b_細線3
  6
CONTINUOUS
 62
    7
 10
386.4817949888515
 20
308.94719630376176
 40
97.696522151886498
 50
263.73185704547654
 51
272.49521673648439
  0
ARC
  8
_0-b_細線3
  6
CONTINUOUS
 62
    7
 10
246.48179498885185
 20
127.22224772303612
 40
97.696522151887407
 50
83.731857045477668
 51
91.544741679869389
  0
ARC
  8
_0-b_細線3
  6
CONTINUOUS
 62
    7
 10
246.48179498885185
 20
308.94719630376278
 40
97.696522151887564
 50
270.66272511896574
 51
276.26814295452198
  0
LINE
  8
_0-d_寸法3
  6
CONTINUOUS
 62
    7
 10
328.14846165551921
 20
241.4180553467327
 11
328.14846165551933
 21
286.41805534673261
  0
LINE
  8
_0-d_寸法3
  6
CONTINUOUS
 62
    7
 10
328.14846165551933
 20
281.41805534673261
 11
337.80771991840999
 21
284.0062457977578
  0
LINE
  8
_0-d_寸法3
  6
CONTINUOUS
 62
    7
 10
328.14846165551933
 20
281.41805534673261
 11
337.80771991840999
 21
278.82986489570743
  0
LINE
  8
_0-d_寸法3
  6
CONTINUOUS
 62
    7
 10
351.48179498885264
 20
241.41805534673264
 11
351.48179498885264
 21
286.41805534673261
  0
LINE
  8
_0-d_寸法3
  6
CONTINUOUS
 62
    7
 10
351.48179498885264
 20
281.41805534673261
 11
341.82253672596198
 21
278.82986489570743
  0
LINE
  8
_0-d_寸法3
  6
CONTINUOUS
 62
    7
 10
351.48179498885264
 20
281.41805534673261
 11
341.82253672596198
 21
284.00624579775786
  0
LINE
  8
_0-d_寸法3
  6
CONTINUOUS
 62
    7
 10
328.14846165551933
 20
281.41805534673261
 11
351.48179498885264
 21
281.41805534673261
  0
TEXT
  8
_0-d_寸法3
 62
    7
 10
332.31512832218596
 20
281.41805534673261
 40
15
 41
1
 50
0
  1
14
  0
LINE
  8
_0-d_寸法3
  6
CONTINUOUS
 62
    7
 10
351.48179498885264
 20
281.41805534673261
 11
361.14105325174336
 21
284.00624579775774
  0
LINE
  8
_0-d_寸法3
  6
CONTINUOUS
 62
    7
 10
351.48179498885264
 20
281.41805534673261
 11
361.1410532517433
 21
278.82986489570737
  0
LINE
  8
_0-d_寸法3
  6
CONTINUOUS
 62
    7
 10
374.81512832218584
 20
241.41805534673264
 11
374.81512832218596
 21
286.41805534673261
  0
LINE
  8
_0-d_寸法3
  6
CONTINUOUS
 62
    7
 10
374.81512832218596
 20
281.41805534673261
 11
365.15587005929524
 21
278.82986489570743
  0
LINE
  8
_0-d_寸法3
  6
CONTINUOUS
 62
    7
 10
374.81512832218596
 20
281.41805534673261
 11
365.15587005929535
 21
284.00624579775786
  0
LINE
  8
_0-d_寸法3
  6
CONTINUOUS
 62
    7
 10
351.48179498885264
 20
281.41805534673261
 11
374.81512832218596
 21
281.41805534673261
  0
TEXT
  8
_0-d_寸法3
 62
    7
 10
355.64846165551933
 20
281.41805534673261
 40
15
 41
1
 50
0
  1
14
  0
LINE
  8
_0-b_細線3
  6
CONTINUOUS
 62
    7
 10
247.35798555029703
 20
206.41805534673188
 11
390.48688958543011
 21
206.41805534673179
  0
LINE
  8
_0-b_細線3
  6
CONTINUOUS
 62
    7
 10
243.92615326537708
 20
231.41805534673264
 11
387.05505730051016
 21
231.41805534673264
  0
LINE
  8
_0-1_計細線
  6
CONTINUOUS
 62
    3
 10
638.91999999999643
 20
785.49999999999898
 11
638.91999999999643
 21
381.49999999999864
  0
LINE
  8
_0-1_計細線
  6
CONTINUOUS
 62
    3
 10
234.91999999999649
 20
785.49999999999898
 11
638.91999999999643
 21
785.49999999999898
  0
LINE
  8
_0-1_計細線
  6
CONTINUOUS
 62
    3
 10
234.91999999999649
 20
381.49999999999864
 11
234.91999999999649
 21
785.49999999999898
  0
LINE
  8
_0-1_計細線
  6
CONTINUOUS
 62
    3
 10
638.91999999999643
 20
381.49999999999864
 11
234.91999999999649
 21
381.49999999999864
  0
LINE
  8
_0-1_計細線
  6
CONTINUOUS
 62
    3
 10
641.91999999999655
 20
788.49999999999898
 11
641.91999999999655
 21
378.49999999999864
  0
LINE
  8
_0-1_計細線
  6
CONTINUOUS
 62
    3
 10
231.91999999999643
 20
788.49999999999898
 11
641.91999999999655
 21
788.49999999999898
  0
LINE
  8
_0-1_計細線
  6
CONTINUOUS
 62
    3
 10
231.91999999999643
 20
378.49999999999864
 11
231.91999999999643
 21
788.49999999999898
  0
LINE
  8
_0-1_計細線
  6
CONTINUOUS
 62
    3
 10
641.91999999999655
 20
378.49999999999864
 11
231.91999999999643
 21
378.49999999999864
  0
LINE
  8
_0-1_計細線
  6
CONTINUOUS
 62
    3
 10
552.91999999999643
 20
580.99999999999864
 11
558.91999999999643
 21
580.99999999999864
  0
LINE
  8
_0-1_計細線
  6
CONTINUOUS
 62
    3
 10
552.91999999999643
 20
585.99999999999864
 11
558.91999999999643
 21
585.99999999999864
  0
LINE
  8
_0-1_計細線
  6
CONTINUOUS
 62
    3
 10
538.91999999999643
 20
580.99999999999864
 11
544.91999999999643
 21
580.99999999999864
  0
LINE
  8
_0-1_計細線
  6
CONTINUOUS
 62
    3
 10
538.91999999999643
 20
585.99999999999864
 11
544.91999999999643
 21
585.99999999999864
  0
LINE
  8
_0-1_計細線
  6
CONTINUOUS
 62
    3
 10
552.91999999999643
 20
410.99999999999864
 11
558.91999999999643
 21
410.99999999999864
  0
LINE
  8
_0-1_計細線
  6
CONTINUOUS
 62
    3
 10
552.91999999999643
 20
405.99999999999864
 11
558.91999999999643
 21
405.99999999999864
  0
LINE
  8
_0-1_計細線
  6
CONTINUOUS
 62
    3
 10
538.91999999999643
 20
410.99999999999864
 11
544.91999999999643
 21
410.99999999999864
  0
LINE
  8
_0-1_計細線
  6
CONTINUOUS
 62
    3
 10
538.91999999999643
 20
405.99999999999864
 11
544.91999999999643
 21
405.99999999999864
  0
LINE
  8
_0-1_計細線
  6
CONTINUOUS
 62
    3
 10
552.91999999999643
 20
755.99999999999898
 11
558.91999999999643
 21
755.99999999999898
  0
LINE
  8
_0-1_計細線
  6
CONTINUOUS
 62
    3
 10
552.91999999999643
 20
760.99999999999898
 11
558.91999999999643
 21
760.99999999999898
  0
LINE
  8
_0-1_計細線
  6
CONTINUOUS
 62
    3
 10
538.91999999999643
 20
755.99999999999898
 11
544.91999999999643
 21
755.99999999999898
  0
LINE
  8
_0-1_計細線
  6
CONTINUOUS
 62
    3
 10
538.91999999999643
 20
760.99999999999898
 11
544.91999999999643
 21
760.99999999999898
  0
LINE
  8
_0-1_計細線
  6
CONTINUOUS
 62
    3
 10
544.91999999999643
 20
386.49999999999864
 11
544.91999999999643
 21
780.49999999999898
  0
LINE
  8
_0-1_計細線
  6
CONTINUOUS
 62
    3
 10
552.91999999999643
 20
386.49999999999864
 11
544.91999999999643
 21
386.49999999999864
  0
LINE
  8
_0-1_計細線
  6
CONTINUOUS
 62
    3
 10
552.91999999999643
 20
780.49999999999898
 11
552.91999999999643
 21
386.49999999999864
  0
LINE
  8
_0-1_計細線
  6
CONTINUOUS
 62
    3
 10
544.91999999999643
 20
780.49999999999898
 11
552.91999999999643
 21
780.49999999999898
  0
LINE
  8
_0-1_計細線
  6
CONTINUOUS
 62
    3
 10
524.91999999999643
 20
580.99999999999864
 11
530.91999999999643
 21
580.99999999999864
  0
LINE
  8
_0-1_計細線
  6
CONTINUOUS
 62
    3
 10
524.91999999999643
 20
585.99999999999864
 11
530.91999999999643
 21
585.99999999999864
  0
LINE
  8
_0-1_計細線
  6
CONTINUOUS
 62
    3
 10
510.91999999999643
 20
580.99999999999864
 11
516.91999999999643
 21
580.99999999999864
  0
LINE
  8
_0-1_計細線
  6
CONTINUOUS
 62
    3
 10
510.91999999999643
 20
585.99999999999864
 11
516.91999999999643
 21
585.99999999999864
  0
LINE
  8
_0-1_計細線
  6
CONTINUOUS
 62
    3
 10
496.91999999999643
 20
580.99999999999864
 11
502.91999999999643
 21
580.99999999999864
  0
LINE
  8
_0-1_計細線
  6
CONTINUOUS
 62
    3
 10
496.91999999999643
 20
585.99999999999864
 11
502.91999999999643
 21
585.99999999999864
  0
LINE
  8
_0-1_計細線
  6
CONTINUOUS
 62
    3
 10
482.91999999999643
 20
580.99999999999864
 11
488.91999999999649
 21
580.99999999999864
  0
LINE
  8
_0-1_計細線
  6
CONTINUOUS
 62
    3
 10
482.91999999999643
 20
585.99999999999864
 11
488.91999999999649
 21
585.99999999999864
  0
LINE
  8
_0-1_計細線
  6
CONTINUOUS
 62
    3
 10
524.91999999999643
 20
410.99999999999864
 11
530.91999999999643
 21
410.99999999999864
  0
LINE
  8
_0-1_計細線
  6
CONTINUOUS
 62
    3
 10
524.91999999999643
 20
405.99999999999864
 11
530.91999999999643
 21
405.99999999999864
  0
LINE
  8
_0-1_計細線
  6
CONTINUOUS
 62
    3
 10
510.91999999999643
 20
410.99999999999864
 11
516.91999999999643
 21
410.99999999999864
  0
LINE
  8
_0-1_計細線
  6
CONTINUOUS
 62
    3
 10
510.91999999999643
 20
405.99999999999864
 11
516.91999999999643
 21
405.99999999999864
  0
LINE
  8
_0-1_計細線
  6
CONTINUOUS
 62
    3
 10
496.91999999999643
 20
410.99999999999864
 11
502.91999999999643
 21
410.99999999999864
  0
LINE
  8
_0-1_計細線
  6
CONTINUOUS
 62
    3
 10
496.91999999999643
 20
405.99999999999864
 11
502.91999999999643
 21
405.99999999999864
  0
LINE
  8
_0-1_計細線
  6
CONTINUOUS
 62
    3
 10
482.91999999999643
 20
410.99999999999864
 11
488.91999999999649
 21
410.99999999999864
  0
LINE
  8
_0-1_計細線
  6
CONTINUOUS
 62
    3
 10
482.91999999999643
 20
405.99999999999864
 11
488.91999999999649
 21
405.99999999999864
  0
LINE
  8
_0-1_計細線
  6
CONTINUOUS
 62
    3
 10
524.91999999999643
 20
755.99999999999898
 11
530.91999999999643
 21
755.99999999999898
  0
LINE
  8
_0-1_計細線
  6
CONTINUOUS
 62
    3
 10
524.91999999999643
 20
760.99999999999898
 11
530.91999999999643
 21
760.99999999999898
  0
LINE
  8
_0-1_計細線
  6
CONTINUOUS
 62
    3
 10
510.91999999999643
 20
755.99999999999898
 11
516.91999999999643
 21
755.99999999999898
  0
LINE
  8
_0-1_計細線
  6
CONTINUOUS
 62
    3
 10
510.91999999999643
 20
760.99999999999898
 11
516.91999999999643
 21
760.99999999999898
  0
LINE
  8
_0-1_計細線
  6
CONTINUOUS
 62
    3
 10
530.91999999999643
 20
386.49999999999864
 11
530.91999999999643
 21
780.49999999999898
  0
LINE
  8
_0-1_計細線
  6
CONTINUOUS
 62
    3
 10
538.91999999999643
 20
386.49999999999864
 11
530.91999999999643
 21
386.49999999999864
  0
LINE
  8
_0-1_計細線
  6
CONTINUOUS
 62
    3
 10
538.91999999999643
 20
780.49999999999898
 11
538.91999999999643
 21
386.49999999999864
  0
LINE
  8
_0-1_計細線
  6
CONTINUOUS
 62
    3
 10
530.91999999999643
 20
780.49999999999898
 11
538.91999999999643
 21
780.49999999999898
  0
LINE
  8
_0-1_計細線
  6
CONTINUOUS
 62
    3
 10
516.91999999999643
 20
386.49999999999864
 11
516.91999999999643
 21
780.49999999999898
  0
LINE
  8
_0-1_計細線
  6
CONTINUOUS
 62
    3
 10
524.91999999999643
 20
386.49999999999864
 11
516.91999999999643
 21
386.49999999999864
  0
LINE
  8
_0-1_計細線
  6
CONTINUOUS
 62
    3
 10
524.91999999999643
 20
780.49999999999898
 11
524.91999999999643
 21
386.49999999999864
  0
LINE
  8
_0-1_計細線
  6
CONTINUOUS
 62
    3
 10
516.91999999999643
 20
780.49999999999898
 11
524.91999999999643
 21
780.49999999999898
  0
LINE
  8
_0-1_計細線
  6
CONTINUOUS
 62
    3
 10
496.91999999999643
 20
755.99999999999898
 11
502.91999999999643
 21
755.99999999999898
  0
LINE
  8
_0-1_計細線
  6
CONTINUOUS
 62
    3
 10
496.91999999999643
 20
760.99999999999898
 11
502.91999999999643
 21
760.99999999999898
  0
LINE
  8
_0-1_計細線
  6
CONTINUOUS
 62
    3
 10
482.91999999999643
 20
755.99999999999898
 11
488.91999999999649
 21
755.99999999999898
  0
LINE
  8
_0-1_計細線
  6
CONTINUOUS
 62
    3
 10
482.91999999999643
 20
760.99999999999898
 11
488.91999999999649
 21
760.99999999999898
  0
LINE
  8
_0-1_計細線
  6
CONTINUOUS
 62
    3
 10
502.91999999999643
 20
386.49999999999864
 11
502.91999999999643
 21
780.49999999999898
  0
LINE
  8
_0-1_計細線
  6
CONTINUOUS
 62
    3
 10
510.91999999999643
 20
386.49999999999864
 11
502.91999999999643
 21
386.49999999999864
  0
LINE
  8
_0-1_計細線
  6
CONTINUOUS
 62
    3
 10
510.91999999999643
 20
780.49999999999898
 11
510.91999999999643
 21
386.49999999999864
  0
LINE
  8
_0-1_計細線
  6
CONTINUOUS
 62
    3
 10
502.91999999999643
 20
780.49999999999898
 11
510.91999999999643
 21
780.49999999999898
  0
LINE
  8
_0-1_計細線
  6
CONTINUOUS
 62
    3
 10
488.91999999999649
 20
386.49999999999864
 11
488.91999999999649
 21
780.49999999999898
  0
LINE
  8
_0-1_計細線
  6
CONTINUOUS
 62
    3
 10
496.91999999999643
 20
386.49999999999864
 11
488.91999999999649
 21
386.49999999999864
  0
LINE
  8
_0-1_計細線
  6
CONTINUOUS
 62
    3
 10
496.91999999999643
 20
780.49999999999898
 11
496.91999999999643
 21
386.49999999999864
  0
LINE
  8
_0-1_計細線
  6
CONTINUOUS
 62
    3
 10
488.91999999999649
 20
780.49999999999898
 11
496.91999999999643
 21
780.49999999999898
  0
LINE
  8
_0-1_計細線
  6
CONTINUOUS
 62
    3
 10
468.91999999999649
 20
580.99999999999864
 11
474.91999999999649
 21
580.99999999999864
  0
LINE
  8
_0-1_計細線
  6
CONTINUOUS
 62
    3
 10
468.91999999999649
 20
585.99999999999864
 11
474.91999999999649
 21
585.99999999999864
  0
LINE
  8
_0-1_計細線
  6
CONTINUOUS
 62
    3
 10
454.91999999999649
 20
580.99999999999864
 11
460.91999999999643
 21
580.99999999999864
  0
LINE
  8
_0-1_計細線
  6
CONTINUOUS
 62
    3
 10
454.91999999999649
 20
585.99999999999864
 11
460.91999999999643
 21
585.99999999999864
  0
LINE
  8
_0-1_計細線
  6
CONTINUOUS
 62
    3
 10
440.91999999999643
 20
580.99999999999864
 11
446.91999999999643
 21
580.99999999999864
  0
LINE
  8
_0-1_計細線
  6
CONTINUOUS
 62
    3
 10
440.91999999999643
 20
585.99999999999864
 11
446.91999999999643
 21
585.99999999999864
  0
LINE
  8
_0-1_計細線
  6
CONTINUOUS
 62
    3
 10
426.91999999999643
 20
580.99999999999864
 11
432.91999999999643
 21
580.99999999999864
  0
LINE
  8
_0-1_計細線
  6
CONTINUOUS
 62
    3
 10
426.91999999999643
 20
585.99999999999864
 11
432.91999999999643
 21
585.99999999999864
  0
LINE
  8
_0-1_計細線
  6
CONTINUOUS
 62
    3
 10
468.91999999999649
 20
410.99999999999864
 11
474.91999999999649
 21
410.99999999999864
  0
LINE
  8
_0-1_計細線
  6
CONTINUOUS
 62
    3
 10
468.91999999999649
 20
405.99999999999864
 11
474.91999999999649
 21
405.99999999999864
  0
LINE
  8
_0-1_計細線
  6
CONTINUOUS
 62
    3
 10
454.91999999999649
 20
410.99999999999864
 11
460.91999999999643
 21
410.99999999999864
  0
LINE
  8
_0-1_計細線
  6
CONTINUOUS
 62
    3
 10
454.91999999999649
 20
405.99999999999864
 11
460.91999999999643
 21
405.99999999999864
  0
LINE
  8
_0-1_計細線
  6
CONTINUOUS
 62
    3
 10
440.91999999999643
 20
410.99999999999864
 11
446.91999999999643
 21
410.99999999999864
  0
LINE
  8
_0-1_計細線
  6
CONTINUOUS
 62
    3
 10
440.91999999999643
 20
405.99999999999864
 11
446.91999999999643
 21
405.99999999999864
  0
LINE
  8
_0-1_計細線
  6
CONTINUOUS
 62
    3
 10
426.91999999999643
 20
410.99999999999864
 11
432.91999999999643
 21
410.99999999999864
  0
LINE
  8
_0-1_計細線
  6
CONTINUOUS
 62
    3
 10
426.91999999999643
 20
405.99999999999864
 11
432.91999999999643
 21
405.99999999999864
  0
LINE
  8
_0-1_計細線
  6
CONTINUOUS
 62
    3
 10
468.91999999999649
 20
755.99999999999898
 11
474.91999999999649
 21
755.99999999999898
  0
LINE
  8
_0-1_計細線
  6
CONTINUOUS
 62
    3
 10
468.91999999999649
 20
760.99999999999898
 11
474.91999999999649
 21
760.99999999999898
  0
LINE
  8
_0-1_計細線
  6
CONTINUOUS
 62
    3
 10
454.91999999999649
 20
755.99999999999898
 11
460.91999999999643
 21
755.99999999999898
  0
LINE
  8
_0-1_計細線
  6
CONTINUOUS
 62
    3
 10
454.91999999999649
 20
760.99999999999898
 11
460.91999999999643
 21
760.99999999999898
  0
LINE
  8
_0-1_計細線
  6
CONTINUOUS
 62
    3
 10
474.91999999999649
 20
386.49999999999864
 11
474.91999999999649
 21
780.49999999999898
  0
LINE
  8
_0-1_計細線
  6
CONTINUOUS
 62
    3
 10
482.91999999999643
 20
386.49999999999864
 11
474.91999999999649
 21
386.49999999999864
  0
LINE
  8
_0-1_計細線
  6
CONTINUOUS
 62
    3
 10
482.91999999999643
 20
780.49999999999898
 11
482.91999999999643
 21
386.49999999999864
  0
LINE
  8
_0-1_計細線
  6
CONTINUOUS
 62
    3
 10
474.91999999999649
 20
780.49999999999898
 11
482.91999999999643
 21
780.49999999999898
  0
LINE
  8
_0-1_計細線
  6
CONTINUOUS
 62
    3
 10
460.91999999999643
 20
386.49999999999864
 11
460.91999999999643
 21
780.49999999999898
  0
LINE
  8
_0-1_計細線
  6
CONTINUOUS
 62
    3
 10
468.91999999999649
 20
386.49999999999864
 11
460.91999999999643
 21
386.49999999999864
  0
LINE
  8
_0-1_計細線
  6
CONTINUOUS
 62
    3
 10
468.91999999999649
 20
780.49999999999898
 11
468.91999999999649
 21
386.49999999999864
  0
LINE
  8
_0-1_計細線
  6
CONTINUOUS
 62
    3
 10
460.91999999999643
 20
780.49999999999898
 11
468.91999999999649
 21
780.49999999999898
  0
LINE
  8
_0-1_計細線
  6
CONTINUOUS
 62
    3
 10
440.91999999999643
 20
755.99999999999898
 11
446.91999999999643
 21
755.99999999999898
  0
LINE
  8
_0-1_計細線
  6
CONTINUOUS
 62
    3
 10
440.91999999999643
 20
760.99999999999898
 11
446.91999999999643
 21
760.99999999999898
  0
LINE
  8
_0-1_計細線
  6
CONTINUOUS
 62
    3
 10
426.91999999999643
 20
755.99999999999898
 11
432.91999999999643
 21
755.99999999999898
  0
LINE
  8
_0-1_計細線
  6
CONTINUOUS
 62
    3
 10
426.91999999999643
 20
760.99999999999898
 11
432.91999999999643
 21
760.99999999999898
  0
LINE
  8
_0-1_計細線
  6
CONTINUOUS
 62
    3
 10
446.91999999999643
 20
386.49999999999864
 11
446.91999999999643
 21
780.49999999999898
  0
LINE
  8
_0-1_計細線
  6
CONTINUOUS
 62
    3
 10
454.91999999999649
 20
386.49999999999864
 11
446.91999999999643
 21
386.49999999999864
  0
LINE
  8
_0-1_計細線
  6
CONTINUOUS
 62
    3
 10
454.91999999999649
 20
780.49999999999898
 11
454.91999999999649
 21
386.49999999999864
  0
LINE
  8
_0-1_計細線
  6
CONTINUOUS
 62
    3
 10
446.91999999999643
 20
780.49999999999898
 11
454.91999999999649
 21
780.49999999999898
  0
LINE
  8
_0-1_計細線
  6
CONTINUOUS
 62
    3
 10
432.91999999999643
 20
386.49999999999864
 11
432.91999999999643
 21
780.49999999999898
  0
LINE
  8
_0-1_計細線
  6
CONTINUOUS
 62
    3
 10
440.91999999999643
 20
386.49999999999864
 11
432.91999999999643
 21
386.49999999999864
  0
LINE
  8
_0-1_計細線
  6
CONTINUOUS
 62
    3
 10
440.91999999999643
 20
780.49999999999898
 11
440.91999999999643
 21
386.49999999999864
  0
LINE
  8
_0-1_計細線
  6
CONTINUOUS
 62
    3
 10
432.91999999999643
 20
780.49999999999898
 11
440.91999999999643
 21
780.49999999999898
  0
LINE
  8
_0-1_計細線
  6
CONTINUOUS
 62
    3
 10
412.91999999999643
 20
580.99999999999864
 11
418.91999999999649
 21
580.99999999999864
  0
LINE
  8
_0-1_計細線
  6
CONTINUOUS
 62
    3
 10
412.91999999999643
 20
585.99999999999864
 11
418.91999999999649
 21
585.99999999999864
  0
LINE
  8
_0-1_計細線
  6
CONTINUOUS
 62
    3
 10
398.91999999999649
 20
580.99999999999864
 11
404.91999999999649
 21
580.99999999999864
  0
LINE
  8
_0-1_計細線
  6
CONTINUOUS
 62
    3
 10
398.91999999999649
 20
585.99999999999864
 11
404.91999999999649
 21
585.99999999999864
  0
LINE
  8
_0-1_計細線
  6
CONTINUOUS
 62
    3
 10
384.91999999999649
 20
580.99999999999864
 11
390.91999999999643
 21
580.99999999999864
  0
LINE
  8
_0-1_計細線
  6
CONTINUOUS
 62
    3
 10
384.91999999999649
 20
585.99999999999864
 11
390.91999999999643
 21
585.99999999999864
  0
LINE
  8
_0-1_計細線
  6
CONTINUOUS
 62
    3
 10
370.91999999999643
 20
580.99999999999864
 11
376.91999999999643
 21
580.99999999999864
  0
LINE
  8
_0-1_計細線
  6
CONTINUOUS
 62
    3
 10
370.91999999999643
 20
585.99999999999864
 11
376.91999999999643
 21
585.99999999999864
  0
LINE
  8
_0-1_計細線
  6
CONTINUOUS
 62
    3
 10
412.91999999999643
 20
410.99999999999864
 11
418.91999999999649
 21
410.99999999999864
  0
LINE
  8
_0-1_計細線
  6
CONTINUOUS
 62
    3
 10
412.91999999999643
 20
405.99999999999864
 11
418.91999999999649
 21
405.99999999999864
  0
LINE
  8
_0-1_計細線
  6
CONTINUOUS
 62
    3
 10
398.91999999999649
 20
410.99999999999864
 11
404.91999999999649
 21
410.99999999999864
  0
LINE
  8
_0-1_計細線
  6
CONTINUOUS
 62
    3
 10
398.91999999999649
 20
405.99999999999864
 11
404.91999999999649
 21
405.99999999999864
  0
LINE
  8
_0-1_計細線
  6
CONTINUOUS
 62
    3
 10
384.91999999999649
 20
410.99999999999864
 11
390.91999999999643
 21
410.99999999999864
  0
LINE
  8
_0-1_計細線
  6
CONTINUOUS
 62
    3
 10
384.91999999999649
 20
405.99999999999864
 11
390.91999999999643
 21
405.99999999999864
  0
LINE
  8
_0-1_計細線
  6
CONTINUOUS
 62
    3
 10
370.91999999999643
 20
410.99999999999864
 11
376.91999999999643
 21
410.99999999999864
  0
LINE
  8
_0-1_計細線
  6
CONTINUOUS
 62
    3
 10
370.91999999999643
 20
405.99999999999864
 11
376.91999999999643
 21
405.99999999999864
  0
LINE
  8
_0-1_計細線
  6
CONTINUOUS
 62
    3
 10
412.91999999999643
 20
755.99999999999898
 11
418.91999999999649
 21
755.99999999999898
  0
LINE
  8
_0-1_計細線
  6
CONTINUOUS
 62
    3
 10
412.91999999999643
 20
760.99999999999898
 11
418.91999999999649
 21
760.99999999999898
  0
LINE
  8
_0-1_計細線
  6
CONTINUOUS
 62
    3
 10
398.91999999999649
 20
755.99999999999898
 11
404.91999999999649
 21
755.99999999999898
  0
LINE
  8
_0-1_計細線
  6
CONTINUOUS
 62
    3
 10
398.91999999999649
 20
760.99999999999898
 11
404.91999999999649
 21
760.99999999999898
  0
LINE
  8
_0-1_計細線
  6
CONTINUOUS
 62
    3
 10
418.91999999999649
 20
386.49999999999864
 11
418.91999999999649
 21
780.49999999999898
  0
LINE
  8
_0-1_計細線
  6
CONTINUOUS
 62
    3
 10
426.91999999999643
 20
386.49999999999864
 11
418.91999999999649
 21
386.49999999999864
  0
LINE
  8
_0-1_計細線
  6
CONTINUOUS
 62
    3
 10
426.91999999999643
 20
780.49999999999898
 11
426.91999999999643
 21
386.49999999999864
  0
LINE
  8
_0-1_計細線
  6
CONTINUOUS
 62
    3
 10
418.91999999999649
 20
780.49999999999898
 11
426.91999999999643
 21
780.49999999999898
  0
LINE
  8
_0-1_計細線
  6
CONTINUOUS
 62
    3
 10
404.91999999999649
 20
386.49999999999864
 11
404.91999999999649
 21
780.49999999999898
  0
LINE
  8
_0-1_計細線
  6
CONTINUOUS
 62
    3
 10
412.91999999999643
 20
386.49999999999864
 11
404.91999999999649
 21
386.49999999999864
  0
LINE
  8
_0-1_計細線
  6
CONTINUOUS
 62
    3
 10
412.91999999999643
 20
780.49999999999898
 11
412.91999999999643
 21
386.49999999999864
  0
LINE
  8
_0-1_計細線
  6
CONTINUOUS
 62
    3
 10
404.91999999999649
 20
780.49999999999898
 11
412.91999999999643
 21
780.49999999999898
  0
LINE
  8
_0-1_計細線
  6
CONTINUOUS
 62
    3
 10
384.91999999999649
 20
755.99999999999898
 11
390.91999999999643
 21
755.99999999999898
  0
LINE
  8
_0-1_計細線
  6
CONTINUOUS
 62
    3
 10
384.91999999999649
 20
760.99999999999898
 11
390.91999999999643
 21
760.99999999999898
  0
LINE
  8
_0-1_計細線
  6
CONTINUOUS
 62
    3
 10
370.91999999999643
 20
755.99999999999898
 11
376.91999999999643
 21
755.99999999999898
  0
LINE
  8
_0-1_計細線
  6
CONTINUOUS
 62
    3
 10
370.91999999999643
 20
760.99999999999898
 11
376.91999999999643
 21
760.99999999999898
  0
LINE
  8
_0-1_計細線
  6
CONTINUOUS
 62
    3
 10
390.91999999999643
 20
386.49999999999864
 11
390.91999999999643
 21
780.49999999999898
  0
LINE
  8
_0-1_計細線
  6
CONTINUOUS
 62
    3
 10
398.91999999999649
 20
386.49999999999864
 11
390.91999999999643
 21
386.49999999999864
  0
LINE
  8
_0-1_計細線
  6
CONTINUOUS
 62
    3
 10
398.91999999999649
 20
780.49999999999898
 11
398.91999999999649
 21
386.49999999999864
  0
LINE
  8
_0-1_計細線
  6
CONTINUOUS
 62
    3
 10
390.91999999999643
 20
780.49999999999898
 11
398.91999999999649
 21
780.49999999999898
  0
LINE
  8
_0-1_計細線
  6
CONTINUOUS
 62
    3
 10
376.91999999999643
 20
386.49999999999864
 11
376.91999999999643
 21
780.49999999999898
  0
LINE
  8
_0-1_計細線
  6
CONTINUOUS
 62
    3
 10
384.91999999999649
 20
386.49999999999864
 11
376.91999999999643
 21
386.49999999999864
  0
LINE
  8
_0-1_計細線
  6
CONTINUOUS
 62
    3
 10
384.91999999999649
 20
780.49999999999898
 11
384.91999999999649
 21
386.49999999999864
  0
LINE
  8
_0-1_計細線
  6
CONTINUOUS
 62
    3
 10
376.91999999999643
 20
780.49999999999898
 11
384.91999999999649
 21
780.49999999999898
  0
LINE
  8
_0-1_計細線
  6
CONTINUOUS
 62
    3
 10
356.91999999999643
 20
580.99999999999864
 11
362.91999999999643
 21
580.99999999999864
  0
LINE
  8
_0-1_計細線
  6
CONTINUOUS
 62
    3
 10
356.91999999999643
 20
585.99999999999864
 11
362.91999999999643
 21
585.99999999999864
  0
LINE
  8
_0-1_計細線
  6
CONTINUOUS
 62
    3
 10
342.91999999999643
 20
580.99999999999864
 11
348.91999999999649
 21
580.99999999999864
  0
LINE
  8
_0-1_計細線
  6
CONTINUOUS
 62
    3
 10
342.91999999999643
 20
585.99999999999864
 11
348.91999999999649
 21
585.99999999999864
  0
LINE
  8
_0-1_計細線
  6
CONTINUOUS
 62
    3
 10
328.91999999999649
 20
580.99999999999864
 11
334.91999999999643
 21
580.99999999999864
  0
LINE
  8
_0-1_計細線
  6
CONTINUOUS
 62
    3
 10
328.91999999999649
 20
585.99999999999864
 11
334.91999999999643
 21
585.99999999999864
  0
LINE
  8
_0-1_計細線
  6
CONTINUOUS
 62
    3
 10
314.91999999999649
 20
580.99999999999864
 11
320.91999999999643
 21
580.99999999999864
  0
LINE
  8
_0-1_計細線
  6
CONTINUOUS
 62
    3
 10
314.91999999999649
 20
585.99999999999864
 11
320.91999999999643
 21
585.99999999999864
  0
LINE
  8
_0-1_計細線
  6
CONTINUOUS
 62
    3
 10
356.91999999999643
 20
410.99999999999864
 11
362.91999999999643
 21
410.99999999999864
  0
LINE
  8
_0-1_計細線
  6
CONTINUOUS
 62
    3
 10
356.91999999999643
 20
405.99999999999864
 11
362.91999999999643
 21
405.99999999999864
  0
LINE
  8
_0-1_計細線
  6
CONTINUOUS
 62
    3
 10
342.91999999999643
 20
410.99999999999864
 11
348.91999999999649
 21
410.99999999999864
  0
LINE
  8
_0-1_計細線
  6
CONTINUOUS
 62
    3
 10
342.91999999999643
 20
405.99999999999864
 11
348.91999999999649
 21
405.99999999999864
  0
LINE
  8
_0-1_計細線
  6
CONTINUOUS
 62
    3
 10
328.91999999999649
 20
410.99999999999864
 11
334.91999999999643
 21
410.99999999999864
  0
LINE
  8
_0-1_計細線
  6
CONTINUOUS
 62
    3
 10
328.91999999999649
 20
405.99999999999864
 11
334.91999999999643
 21
405.99999999999864
  0
LINE
  8
_0-1_計細線
  6
CONTINUOUS
 62
    3
 10
314.91999999999649
 20
410.99999999999864
 11
320.91999999999643
 21
410.99999999999864
  0
LINE
  8
_0-1_計細線
  6
CONTINUOUS
 62
    3
 10
314.91999999999649
 20
405.99999999999864
 11
320.91999999999643
 21
405.99999999999864
  0
LINE
  8
_0-1_計細線
  6
CONTINUOUS
 62
    3
 10
356.91999999999643
 20
755.99999999999898
 11
362.91999999999643
 21
755.99999999999898
  0
LINE
  8
_0-1_計細線
  6
CONTINUOUS
 62
    3
 10
356.91999999999643
 20
760.99999999999898
 11
362.91999999999643
 21
760.99999999999898
  0
LINE
  8
_0-1_計細線
  6
CONTINUOUS
 62
    3
 10
342.91999999999643
 20
755.99999999999898
 11
348.91999999999649
 21
755.99999999999898
  0
LINE
  8
_0-1_計細線
  6
CONTINUOUS
 62
    3
 10
342.91999999999643
 20
760.99999999999898
 11
348.91999999999649
 21
760.99999999999898
  0
LINE
  8
_0-1_計細線
  6
CONTINUOUS
 62
    3
 10
362.91999999999643
 20
386.49999999999864
 11
362.91999999999643
 21
780.49999999999898
  0
LINE
  8
_0-1_計細線
  6
CONTINUOUS
 62
    3
 10
370.91999999999643
 20
386.49999999999864
 11
362.91999999999643
 21
386.49999999999864
  0
LINE
  8
_0-1_計細線
  6
CONTINUOUS
 62
    3
 10
370.91999999999643
 20
780.49999999999898
 11
370.91999999999643
 21
386.49999999999864
  0
LINE
  8
_0-1_計細線
  6
CONTINUOUS
 62
    3
 10
362.91999999999643
 20
780.49999999999898
 11
370.91999999999643
 21
780.49999999999898
  0
LINE
  8
_0-1_計細線
  6
CONTINUOUS
 62
    3
 10
348.91999999999649
 20
386.49999999999864
 11
348.91999999999649
 21
780.49999999999898
  0
LINE
  8
_0-1_計細線
  6
CONTINUOUS
 62
    3
 10
356.91999999999643
 20
386.49999999999864
 11
348.91999999999649
 21
386.49999999999864
  0
LINE
  8
_0-1_計細線
  6
CONTINUOUS
 62
    3
 10
356.91999999999643
 20
780.49999999999898
 11
356.91999999999643
 21
386.49999999999864
  0
LINE
  8
_0-1_計細線
  6
CONTINUOUS
 62
    3
 10
348.91999999999649
 20
780.49999999999898
 11
356.91999999999643
 21
780.49999999999898
  0
LINE
  8
_0-1_計細線
  6
CONTINUOUS
 62
    3
 10
328.91999999999649
 20
755.99999999999898
 11
334.91999999999643
 21
755.99999999999898
  0
LINE
  8
_0-1_計細線
  6
CONTINUOUS
 62
    3
 10
328.91999999999649
 20
760.99999999999898
 11
334.91999999999643
 21
760.99999999999898
  0
LINE
  8
_0-1_計細線
  6
CONTINUOUS
 62
    3
 10
314.91999999999649
 20
755.99999999999898
 11
320.91999999999643
 21
755.99999999999898
  0
LINE
  8
_0-1_計細線
  6
CONTINUOUS
 62
    3
 10
314.91999999999649
 20
760.99999999999898
 11
320.91999999999643
 21
760.99999999999898
  0
LINE
  8
_0-1_計細線
  6
CONTINUOUS
 62
    3
 10
334.91999999999643
 20
386.49999999999864
 11
334.91999999999643
 21
780.49999999999898
  0
LINE
  8
_0-1_計細線
  6
CONTINUOUS
 62
    3
 10
342.91999999999643
 20
386.49999999999864
 11
334.91999999999643
 21
386.49999999999864
  0
LINE
  8
_0-1_計細線
  6
CONTINUOUS
 62
    3
 10
342.91999999999643
 20
780.49999999999898
 11
342.91999999999643
 21
386.49999999999864
  0
LINE
  8
_0-1_計細線
  6
CONTINUOUS
 62
    3
 10
334.91999999999643
 20
780.49999999999898
 11
342.91999999999643
 21
780.49999999999898
  0
LINE
  8
_0-1_計細線
  6
CONTINUOUS
 62
    3
 10
320.91999999999643
 20
386.49999999999864
 11
320.91999999999643
 21
780.49999999999898
  0
LINE
  8
_0-1_計細線
  6
CONTINUOUS
 62
    3
 10
328.91999999999649
 20
386.49999999999864
 11
320.91999999999643
 21
386.49999999999864
  0
LINE
  8
_0-1_計細線
  6
CONTINUOUS
 62
    3
 10
328.91999999999649
 20
780.49999999999898
 11
328.91999999999649
 21
386.49999999999864
  0
LINE
  8
_0-1_計細線
  6
CONTINUOUS
 62
    3
 10
320.91999999999643
 20
780.49999999999898
 11
328.91999999999649
 21
780.49999999999898
  0
LINE
  8
_0-1_計細線
  6
CONTINUOUS
 62
    3
 10
572.91999999999643
 20
580.99999999999864
 11
566.91999999999643
 21
580.99999999999864
  0
LINE
  8
_0-1_計細線
  6
CONTINUOUS
 62
    3
 10
572.91999999999643
 20
585.99999999999864
 11
566.91999999999643
 21
585.99999999999864
  0
LINE
  8
_0-1_計細線
  6
CONTINUOUS
 62
    3
 10
586.91999999999643
 20
580.99999999999864
 11
580.91999999999643
 21
580.99999999999864
  0
LINE
  8
_0-1_計細線
  6
CONTINUOUS
 62
    3
 10
586.91999999999643
 20
585.99999999999864
 11
580.91999999999643
 21
585.99999999999864
  0
LINE
  8
_0-1_計細線
  6
CONTINUOUS
 62
    3
 10
600.91999999999643
 20
580.99999999999864
 11
594.91999999999643
 21
580.99999999999864
  0
LINE
  8
_0-1_計細線
  6
CONTINUOUS
 62
    3
 10
600.91999999999643
 20
585.99999999999864
 11
594.91999999999643
 21
585.99999999999864
  0
LINE
  8
_0-1_計細線
  6
CONTINUOUS
 62
    3
 10
614.91999999999643
 20
580.99999999999864
 11
608.91999999999643
 21
580.99999999999864
  0
LINE
  8
_0-1_計細線
  6
CONTINUOUS
 62
    3
 10
614.91999999999643
 20
585.99999999999864
 11
608.91999999999643
 21
585.99999999999864
  0
LINE
  8
_0-1_計細線
  6
CONTINUOUS
 62
    3
 10
628.91999999999643
 20
580.99999999999864
 11
622.91999999999643
 21
580.99999999999864
  0
LINE
  8
_0-1_計細線
  6
CONTINUOUS
 62
    3
 10
628.91999999999643
 20
585.99999999999864
 11
622.91999999999643
 21
585.99999999999864
  0
LINE
  8
_0-1_計細線
  6
CONTINUOUS
 62
    3
 10
572.91999999999643
 20
410.99999999999864
 11
566.91999999999643
 21
410.99999999999864
  0
LINE
  8
_0-1_計細線
  6
CONTINUOUS
 62
    3
 10
572.91999999999643
 20
405.99999999999864
 11
566.91999999999643
 21
405.99999999999864
  0
LINE
  8
_0-1_計細線
  6
CONTINUOUS
 62
    3
 10
586.91999999999643
 20
410.99999999999864
 11
580.91999999999643
 21
410.99999999999864
  0
LINE
  8
_0-1_計細線
  6
CONTINUOUS
 62
    3
 10
586.91999999999643
 20
405.99999999999864
 11
580.91999999999643
 21
405.99999999999864
  0
LINE
  8
_0-1_計細線
  6
CONTINUOUS
 62
    3
 10
600.91999999999643
 20
410.99999999999864
 11
594.91999999999643
 21
410.99999999999864
  0
LINE
  8
_0-1_計細線
  6
CONTINUOUS
 62
    3
 10
600.91999999999643
 20
405.99999999999864
 11
594.91999999999643
 21
405.99999999999864
  0
LINE
  8
_0-1_計細線
  6
CONTINUOUS
 62
    3
 10
614.91999999999643
 20
410.99999999999864
 11
608.91999999999643
 21
410.99999999999864
  0
LINE
  8
_0-1_計細線
  6
CONTINUOUS
 62
    3
 10
614.91999999999643
 20
405.99999999999864
 11
608.91999999999643
 21
405.99999999999864
  0
LINE
  8
_0-1_計細線
  6
CONTINUOUS
 62
    3
 10
628.91999999999643
 20
410.99999999999864
 11
622.91999999999643
 21
410.99999999999864
  0
LINE
  8
_0-1_計細線
  6
CONTINUOUS
 62
    3
 10
628.91999999999643
 20
405.99999999999864
 11
622.91999999999643
 21
405.99999999999864
  0
LINE
  8
_0-1_計細線
  6
CONTINUOUS
 62
    3
 10
572.91999999999643
 20
755.99999999999898
 11
566.91999999999643
 21
755.99999999999898
  0
LINE
  8
_0-1_計細線
  6
CONTINUOUS
 62
    3
 10
572.91999999999643
 20
760.99999999999898
 11
566.91999999999643
 21
760.99999999999898
  0
LINE
  8
_0-1_計細線
  6
CONTINUOUS
 62
    3
 10
586.91999999999643
 20
755.99999999999898
 11
580.91999999999643
 21
755.99999999999898
  0
LINE
  8
_0-1_計細線
  6
CONTINUOUS
 62
    3
 10
586.91999999999643
 20
760.99999999999898
 11
580.91999999999643
 21
760.99999999999898
  0
LINE
  8
_0-1_計細線
  6
CONTINUOUS
 62
    3
 10
566.91999999999643
 20
386.49999999999864
 11
566.91999999999643
 21
780.49999999999898
  0
LINE
  8
_0-1_計細線
  6
CONTINUOUS
 62
    3
 10
558.91999999999643
 20
386.49999999999864
 11
566.91999999999643
 21
386.49999999999864
  0
LINE
  8
_0-1_計細線
  6
CONTINUOUS
 62
    3
 10
558.91999999999643
 20
780.49999999999898
 11
558.91999999999643
 21
386.49999999999864
  0
LINE
  8
_0-1_計細線
  6
CONTINUOUS
 62
    3
 10
566.91999999999643
 20
780.49999999999898
 11
558.91999999999643
 21
780.49999999999898
  0
LINE
  8
_0-1_計細線
  6
CONTINUOUS
 62
    3
 10
580.91999999999643
 20
386.49999999999864
 11
580.91999999999643
 21
780.49999999999898
  0
LINE
  8
_0-1_計細線
  6
CONTINUOUS
 62
    3
 10
572.91999999999643
 20
386.49999999999864
 11
580.91999999999643
 21
386.49999999999864
  0
LINE
  8
_0-1_計細線
  6
CONTINUOUS
 62
    3
 10
572.91999999999643
 20
780.49999999999898
 11
572.91999999999643
 21
386.49999999999864
  0
LINE
  8
_0-1_計細線
  6
CONTINUOUS
 62
    3
 10
580.91999999999643
 20
780.49999999999898
 11
572.91999999999643
 21
780.49999999999898
  0
LINE
  8
_0-1_計細線
  6
CONTINUOUS
 62
    3
 10
600.91999999999643
 20
755.99999999999898
 11
594.91999999999643
 21
755.99999999999898
  0
LINE
  8
_0-1_計細線
  6
CONTINUOUS
 62
    3
 10
600.91999999999643
 20
760.99999999999898
 11
594.91999999999643
 21
760.99999999999898
  0
LINE
  8
_0-1_計細線
  6
CONTINUOUS
 62
    3
 10
614.91999999999643
 20
755.99999999999898
 11
608.91999999999643
 21
755.99999999999898
  0
LINE
  8
_0-1_計細線
  6
CONTINUOUS
 62
    3
 10
614.91999999999643
 20
760.99999999999898
 11
608.91999999999643
 21
760.99999999999898
  0
LINE
  8
_0-1_計細線
  6
CONTINUOUS
 62
    3
 10
628.91999999999643
 20
755.99999999999898
 11
622.91999999999643
 21
755.99999999999898
  0
LINE
  8
_0-1_計細線
  6
CONTINUOUS
 62
    3
 10
628.91999999999643
 20
760.99999999999898
 11
622.91999999999643
 21
760.99999999999898
  0
LINE
  8
_0-1_計細線
  6
CONTINUOUS
 62
    3
 10
594.91999999999643
 20
386.49999999999864
 11
594.91999999999643
 21
780.49999999999898
  0
LINE
  8
_0-1_計細線
  6
CONTINUOUS
 62
    3
 10
586.91999999999643
 20
386.49999999999864
 11
594.91999999999643
 21
386.49999999999864
  0
LINE
  8
_0-1_計細線
  6
CONTINUOUS
 62
    3
 10
586.91999999999643
 20
780.49999999999898
 11
586.91999999999643
 21
386.49999999999864
  0
LINE
  8
_0-1_計細線
  6
CONTINUOUS
 62
    3
 10
594.91999999999643
 20
780.49999999999898
 11
586.91999999999643
 21
780.49999999999898
  0
LINE
  8
_0-1_計細線
  6
CONTINUOUS
 62
    3
 10
608.91999999999643
 20
386.49999999999864
 11
608.91999999999643
 21
780.49999999999898
  0
LINE
  8
_0-1_計細線
  6
CONTINUOUS
 62
    3
 10
600.91999999999643
 20
386.49999999999864
 11
608.91999999999643
 21
386.49999999999864
  0
LINE
  8
_0-1_計細線
  6
CONTINUOUS
 62
    3
 10
600.91999999999643
 20
780.49999999999898
 11
600.91999999999643
 21
386.49999999999864
  0
LINE
  8
_0-1_計細線
  6
CONTINUOUS
 62
    3
 10
608.91999999999643
 20
780.49999999999898
 11
600.91999999999643
 21
780.49999999999898
  0
LINE
  8
_0-1_計細線
  6
CONTINUOUS
 62
    3
 10
622.91999999999643
 20
386.49999999999864
 11
622.91999999999643
 21
780.49999999999898
  0
LINE
  8
_0-1_計細線
  6
CONTINUOUS
 62
    3
 10
614.91999999999643
 20
386.49999999999864
 11
622.91999999999643
 21
386.49999999999864
  0
LINE
  8
_0-1_計細線
  6
CONTINUOUS
 62
    3
 10
614.91999999999643
 20
780.49999999999898
 11
614.91999999999643
 21
386.49999999999864
  0
LINE
  8
_0-1_計細線
  6
CONTINUOUS
 62
    3
 10
622.91999999999643
 20
780.49999999999898
 11
614.91999999999643
 21
780.49999999999898
  0
LINE
  8
_0-1_計細線
  6
CONTINUOUS
 62
    3
 10
636.91999999999643
 20
386.49999999999864
 11
636.91999999999643
 21
780.49999999999898
  0
LINE
  8
_0-1_計細線
  6
CONTINUOUS
 62
    3
 10
628.91999999999643
 20
386.49999999999864
 11
636.91999999999643
 21
386.49999999999864
  0
LINE
  8
_0-1_計細線
  6
CONTINUOUS
 62
    3
 10
628.91999999999643
 20
780.49999999999898
 11
628.91999999999643
 21
386.49999999999864
  0
LINE
  8
_0-1_計細線
  6
CONTINUOUS
 62
    3
 10
636.91999999999643
 20
780.49999999999898
 11
628.91999999999643
 21
780.49999999999898
  0
LINE
  8
_0-1_計細線
  6
CONTINUOUS
 62
    3
 10
300.91999999999643
 20
580.99999999999864
 11
306.91999999999643
 21
580.99999999999864
  0
LINE
  8
_0-1_計細線
  6
CONTINUOUS
 62
    3
 10
300.91999999999643
 20
585.99999999999864
 11
306.91999999999643
 21
585.99999999999864
  0
LINE
  8
_0-1_計細線
  6
CONTINUOUS
 62
    3
 10
286.91999999999643
 20
580.99999999999864
 11
292.91999999999643
 21
580.99999999999864
  0
LINE
  8
_0-1_計細線
  6
CONTINUOUS
 62
    3
 10
286.91999999999643
 20
585.99999999999864
 11
292.91999999999643
 21
585.99999999999864
  0
LINE
  8
_0-1_計細線
  6
CONTINUOUS
 62
    3
 10
272.91999999999643
 20
580.99999999999864
 11
278.91999999999643
 21
580.99999999999864
  0
LINE
  8
_0-1_計細線
  6
CONTINUOUS
 62
    3
 10
272.91999999999643
 20
585.99999999999864
 11
278.91999999999643
 21
585.99999999999864
  0
LINE
  8
_0-1_計細線
  6
CONTINUOUS
 62
    3
 10
258.91999999999643
 20
580.99999999999864
 11
264.91999999999649
 21
580.99999999999864
  0
LINE
  8
_0-1_計細線
  6
CONTINUOUS
 62
    3
 10
258.91999999999643
 20
585.99999999999864
 11
264.91999999999649
 21
585.99999999999864
  0
LINE
  8
_0-1_計細線
  6
CONTINUOUS
 62
    3
 10
244.91999999999649
 20
580.99999999999864
 11
250.91999999999643
 21
580.99999999999864
  0
LINE
  8
_0-1_計細線
  6
CONTINUOUS
 62
    3
 10
244.91999999999649
 20
585.99999999999864
 11
250.91999999999643
 21
585.99999999999864
  0
LINE
  8
_0-1_計細線
  6
CONTINUOUS
 62
    3
 10
300.91999999999643
 20
410.99999999999864
 11
306.91999999999643
 21
410.99999999999864
  0
LINE
  8
_0-1_計細線
  6
CONTINUOUS
 62
    3
 10
300.91999999999643
 20
405.99999999999864
 11
306.91999999999643
 21
405.99999999999864
  0
LINE
  8
_0-1_計細線
  6
CONTINUOUS
 62
    3
 10
286.91999999999643
 20
410.99999999999864
 11
292.91999999999643
 21
410.99999999999864
  0
LINE
  8
_0-1_計細線
  6
CONTINUOUS
 62
    3
 10
286.91999999999643
 20
405.99999999999864
 11
292.91999999999643
 21
405.99999999999864
  0
LINE
  8
_0-1_計細線
  6
CONTINUOUS
 62
    3
 10
272.91999999999643
 20
410.99999999999864
 11
278.91999999999643
 21
410.99999999999864
  0
LINE
  8
_0-1_計細線
  6
CONTINUOUS
 62
    3
 10
272.91999999999643
 20
405.99999999999864
 11
278.91999999999643
 21
405.99999999999864
  0
LINE
  8
_0-1_計細線
  6
CONTINUOUS
 62
    3
 10
258.91999999999643
 20
410.99999999999864
 11
264.91999999999649
 21
410.99999999999864
  0
LINE
  8
_0-1_計細線
  6
CONTINUOUS
 62
    3
 10
258.91999999999643
 20
405.99999999999864
 11
264.91999999999649
 21
405.99999999999864
  0
LINE
  8
_0-1_計細線
  6
CONTINUOUS
 62
    3
 10
244.91999999999649
 20
410.99999999999864
 11
250.91999999999643
 21
410.99999999999864
  0
LINE
  8
_0-1_計細線
  6
CONTINUOUS
 62
    3
 10
244.91999999999649
 20
405.99999999999864
 11
250.91999999999643
 21
405.99999999999864
  0
LINE
  8
_0-1_計細線
  6
CONTINUOUS
 62
    3
 10
300.91999999999643
 20
755.99999999999898
 11
306.91999999999643
 21
755.99999999999898
  0
LINE
  8
_0-1_計細線
  6
CONTINUOUS
 62
    3
 10
300.91999999999643
 20
760.99999999999898
 11
306.91999999999643
 21
760.99999999999898
  0
LINE
  8
_0-1_計細線
  6
CONTINUOUS
 62
    3
 10
286.91999999999643
 20
755.99999999999898
 11
292.91999999999643
 21
755.99999999999898
  0
LINE
  8
_0-1_計細線
  6
CONTINUOUS
 62
    3
 10
286.91999999999643
 20
760.99999999999898
 11
292.91999999999643
 21
760.99999999999898
  0
LINE
  8
_0-1_計細線
  6
CONTINUOUS
 62
    3
 10
306.91999999999643
 20
386.49999999999864
 11
306.91999999999643
 21
780.49999999999898
  0
LINE
  8
_0-1_計細線
  6
CONTINUOUS
 62
    3
 10
314.91999999999649
 20
386.49999999999864
 11
306.91999999999643
 21
386.49999999999864
  0
LINE
  8
_0-1_計細線
  6
CONTINUOUS
 62
    3
 10
314.91999999999649
 20
780.49999999999898
 11
314.91999999999649
 21
386.49999999999864
  0
LINE
  8
_0-1_計細線
  6
CONTINUOUS
 62
    3
 10
306.91999999999643
 20
780.49999999999898
 11
314.91999999999649
 21
780.49999999999898
  0
LINE
  8
_0-1_計細線
  6
CONTINUOUS
 62
    3
 10
292.91999999999643
 20
386.49999999999864
 11
292.91999999999643
 21
780.49999999999898
  0
LINE
  8
_0-1_計細線
  6
CONTINUOUS
 62
    3
 10
300.91999999999643
 20
386.49999999999864
 11
292.91999999999643
 21
386.49999999999864
  0
LINE
  8
_0-1_計細線
  6
CONTINUOUS
 62
    3
 10
300.91999999999643
 20
780.49999999999898
 11
300.91999999999643
 21
386.49999999999864
  0
LINE
  8
_0-1_計細線
  6
CONTINUOUS
 62
    3
 10
292.91999999999643
 20
780.49999999999898
 11
300.91999999999643
 21
780.49999999999898
  0
LINE
  8
_0-1_計細線
  6
CONTINUOUS
 62
    3
 10
272.91999999999643
 20
755.99999999999898
 11
278.91999999999643
 21
755.99999999999898
  0
LINE
  8
_0-1_計細線
  6
CONTINUOUS
 62
    3
 10
272.91999999999643
 20
760.99999999999898
 11
278.91999999999643
 21
760.99999999999898
  0
LINE
  8
_0-1_計細線
  6
CONTINUOUS
 62
    3
 10
258.91999999999643
 20
755.99999999999898
 11
264.91999999999649
 21
755.99999999999898
  0
LINE
  8
_0-1_計細線
  6
CONTINUOUS
 62
    3
 10
258.91999999999643
 20
760.99999999999898
 11
264.91999999999649
 21
760.99999999999898
  0
LINE
  8
_0-1_計細線
  6
CONTINUOUS
 62
    3
 10
244.91999999999649
 20
755.99999999999898
 11
250.91999999999643
 21
755.99999999999898
  0
LINE
  8
_0-1_計細線
  6
CONTINUOUS
 62
    3
 10
244.91999999999649
 20
760.99999999999898
 11
250.91999999999643
 21
760.99999999999898
  0
LINE
  8
_0-1_計細線
  6
CONTINUOUS
 62
    3
 10
278.91999999999643
 20
386.49999999999864
 11
278.91999999999643
 21
780.49999999999898
  0
LINE
  8
_0-1_計細線
  6
CONTINUOUS
 62
    3
 10
286.91999999999643
 20
386.49999999999864
 11
278.91999999999643
 21
386.49999999999864
  0
LINE
  8
_0-1_計細線
  6
CONTINUOUS
 62
    3
 10
286.91999999999643
 20
780.49999999999898
 11
286.91999999999643
 21
386.49999999999864
  0
LINE
  8
_0-1_計細線
  6
CONTINUOUS
 62
    3
 10
278.91999999999643
 20
780.49999999999898
 11
286.91999999999643
 21
780.49999999999898
  0
LINE
  8
_0-1_計細線
  6
CONTINUOUS
 62
    3
 10
264.91999999999649
 20
386.49999999999864
 11
264.91999999999649
 21
780.49999999999898
  0
LINE
  8
_0-1_計細線
  6
CONTINUOUS
 62
    3
 10
272.91999999999643
 20
386.49999999999864
 11
264.91999999999649
 21
386.49999999999864
  0
LINE
  8
_0-1_計細線
  6
CONTINUOUS
 62
    3
 10
272.91999999999643
 20
780.49999999999898
 11
272.91999999999643
 21
386.49999999999864
  0
LINE
  8
_0-1_計細線
  6
CONTINUOUS
 62
    3
 10
264.91999999999649
 20
780.49999999999898
 11
272.91999999999643
 21
780.49999999999898
  0
LINE
  8
_0-1_計細線
  6
CONTINUOUS
 62
    3
 10
250.91999999999643
 20
386.49999999999864
 11
250.91999999999643
 21
780.49999999999898
  0
LINE
  8
_0-1_計細線
  6
CONTINUOUS
 62
    3
 10
258.91999999999643
 20
386.49999999999864
 11
250.91999999999643
 21
386.49999999999864
  0
LINE
  8
_0-1_計細線
  6
CONTINUOUS
 62
    3
 10
258.91999999999643
 20
780.49999999999898
 11
258.91999999999643
 21
386.49999999999864
  0
LINE
  8
_0-1_計細線
  6
CONTINUOUS
 62
    3
 10
250.91999999999643
 20
780.49999999999898
 11
258.91999999999643
 21
780.49999999999898
  0
LINE
  8
_0-1_計細線
  6
CONTINUOUS
 62
    3
 10
236.91999999999643
 20
386.49999999999864
 11
236.91999999999643
 21
780.49999999999898
  0
LINE
  8
_0-1_計細線
  6
CONTINUOUS
 62
    3
 10
244.91999999999649
 20
386.49999999999864
 11
236.91999999999643
 21
386.49999999999864
  0
LINE
  8
_0-1_計細線
  6
CONTINUOUS
 62
    3
 10
244.91999999999649
 20
780.49999999999898
 11
244.91999999999649
 21
386.49999999999864
  0
LINE
  8
_0-1_計細線
  6
CONTINUOUS
 62
    3
 10
236.91999999999643
 20
780.49999999999898
 11
244.91999999999649
 21
780.49999999999898
  0
LINE
  8
_0-1_計細線
  6
CONTINUOUS
 62
    3
 10
236.91999999999643
 20
383.49999999999864
 11
236.91999999999643
 21
386.49999999999864
  0
LINE
  8
_0-1_計細線
  6
CONTINUOUS
 62
    3
 10
636.91999999999643
 20
383.49999999999864
 11
236.91999999999643
 21
383.49999999999864
  0
LINE
  8
_0-1_計細線
  6
CONTINUOUS
 62
    3
 10
636.91999999999643
 20
386.49999999999864
 11
636.91999999999643
 21
383.49999999999864
  0
LINE
  8
_0-1_計細線
  6
CONTINUOUS
 62
    3
 10
236.91999999999643
 20
386.49999999999864
 11
636.91999999999643
 21
386.49999999999864
  0
LINE
  8
_0-1_計細線
  6
CONTINUOUS
 62
    3
 10
236.91999999999643
 20
780.49999999999898
 11
236.91999999999643
 21
783.49999999999898
  0
LINE
  8
_0-1_計細線
  6
CONTINUOUS
 62
    3
 10
636.91999999999643
 20
780.49999999999898
 11
236.91999999999643
 21
780.49999999999898
  0
LINE
  8
_0-1_計細線
  6
CONTINUOUS
 62
    3
 10
636.91999999999643
 20
783.49999999999898
 11
636.91999999999643
 21
780.49999999999898
  0
LINE
  8
_0-1_計細線
  6
CONTINUOUS
 62
    3
 10
236.91999999999643
 20
783.49999999999898
 11
636.91999999999643
 21
783.49999999999898
  0
LINE
  8
_0-0_計極細
  6
CENTER2
 62
    2
 10
244.91999999999649
 20
408.49999999999864
 11
628.91999999999643
 21
408.49999999999864
  0
LINE
  8
_0-0_計極細
  6
CENTER2
 62
    2
 10
244.91999999999649
 20
758.49999999999898
 11
628.91999999999643
 21
758.49999999999898
  0
LINE
  8
_0-5_寸法線
  6
CONTINUOUS
 62
    7
 10
231.91999999999652
 20
798.49999999999898
 11
231.91999999999666
 21
913.49999999999898
  0
LINE
  8
_0-5_寸法線
  6
CONTINUOUS
 62
    7
 10
231.91999999999666
 20
908.49999999999898
 11
241.57925826288732
 21
911.08819045102405
  0
LINE
  8
_0-5_寸法線
  6
CONTINUOUS
 62
    7
 10
231.91999999999666
 20
908.49999999999898
 11
241.57925826288732
 21
905.91180954897368
  0
LINE
  8
_0-5_寸法線
  6
CONTINUOUS
 62
    7
 10
641.91999999999564
 20
798.49999999999898
 11
641.91999999999598
 21
913.49999999999898
  0
LINE
  8
_0-5_寸法線
  6
CONTINUOUS
 62
    7
 10
641.91999999999598
 20
908.49999999999898
 11
632.26074173710515
 21
905.91180954897368
  0
LINE
  8
_0-5_寸法線
  6
CONTINUOUS
 62
    7
 10
641.91999999999598
 20
908.49999999999898
 11
632.26074173710515
 21
911.08819045102405
  0
LINE
  8
_0-5_寸法線
  6
CONTINUOUS
 62
    7
 10
231.91999999999666
 20
908.49999999999898
 11
641.91999999999598
 21
908.49999999999898
  0
TEXT
  8
_0-5_寸法線
 62
    7
 10
429.41999999999621
 20
908.49999999999898
 40
15
 41
1
 50
0
  1
Ｗ
  0
LINE
  8
_0-5_寸法線
  6
CONTINUOUS
 62
    7
 10
236.91999999999965
 20
798.49999999999898
 11
236.91999999999979
 21
843.49999999999898
  0
LINE
  8
_0-5_寸法線
  6
CONTINUOUS
 62
    7
 10
236.91999999999979
 20
838.49999999999898
 11
246.57925826289045
 21
841.08819045102405
  0
LINE
  8
_0-5_寸法線
  6
CONTINUOUS
 62
    7
 10
236.91999999999979
 20
838.49999999999898
 11
246.57925826289045
 21
835.91180954897368
  0
LINE
  8
_0-5_寸法線
  6
CONTINUOUS
 62
    7
 10
636.9199999999995
 20
798.49999999999898
 11
636.91999999999962
 21
843.49999999999898
  0
LINE
  8
_0-5_寸法線
  6
CONTINUOUS
 62
    7
 10
636.91999999999962
 20
838.49999999999898
 11
627.2607417371089
 21
835.91180954897368
  0
LINE
  8
_0-5_寸法線
  6
CONTINUOUS
 62
    7
 10
636.91999999999962
 20
838.49999999999898
 11
627.2607417371089
 21
841.08819045102405
  0
LINE
  8
_0-5_寸法線
  6
CONTINUOUS
 62
    7
 10
236.91999999999979
 20
838.49999999999898
 11
636.91999999999962
 21
838.49999999999898
  0
TEXT
  8
_0-5_寸法線
 62
    7
 10
429.41999999999962
 20
838.49999999999898
 40
15
 41
1
 50
0
  1
Ｌ
  0
LINE
  8
_0-5_寸法線
  6
CONTINUOUS
 62
    7
 10
221.91999999999643
 20
378.49999999999937
 11
106.91999999999645
 21
378.49999999999972
  0
LINE
  8
_0-5_寸法線
  6
CONTINUOUS
 62
    7
 10
111.91999999999645
 20
378.49999999999972
 11
109.33180954897125
 21
388.15925826289038
  0
LINE
  8
_0-5_寸法線
  6
CONTINUOUS
 62
    7
 10
111.91999999999645
 20
378.49999999999972
 11
114.50819045102165
 21
388.15925826289038
  0
LINE
  8
_0-5_寸法線
  6
CONTINUOUS
 62
    7
 10
221.91999999999643
 20
788.49999999999898
 11
106.91999999999645
 21
788.4999999999992
  0
LINE
  8
_0-5_寸法線
  6
CONTINUOUS
 62
    7
 10
111.91999999999645
 20
788.4999999999992
 11
114.50819045102165
 21
778.8407417371086
  0
LINE
  8
_0-5_寸法線
  6
CONTINUOUS
 62
    7
 10
111.91999999999645
 20
788.4999999999992
 11
109.33180954897125
 21
778.8407417371086
  0
LINE
  8
_0-5_寸法線
  6
CONTINUOUS
 62
    7
 10
111.91999999999645
 20
378.49999999999972
 11
111.91999999999645
 21
788.4999999999992
  0
TEXT
  8
_0-5_寸法線
 62
    7
 10
111.91999999999645
 20
575.99999999999943
 40
15
 41
1
 50
90
  1
Ｗ
  0
LINE
  8
_0-5_寸法線
  6
CONTINUOUS
 62
    7
 10
221.91999999999643
 20
383.49999999999989
 11
176.91999999999643
 21
383.49999999999994
  0
LINE
  8
_0-5_寸法線
  6
CONTINUOUS
 62
    7
 10
181.91999999999643
 20
383.49999999999994
 11
179.33180954897125
 21
393.1592582628906
  0
LINE
  8
_0-5_寸法線
  6
CONTINUOUS
 62
    7
 10
181.91999999999643
 20
383.49999999999994
 11
184.50819045102165
 21
393.1592582628906
  0
LINE
  8
_0-5_寸法線
  6
CONTINUOUS
 62
    7
 10
221.91999999999643
 20
783.49999999999898
 11
176.91999999999643
 21
783.49999999999909
  0
LINE
  8
_0-5_寸法線
  6
CONTINUOUS
 62
    7
 10
181.91999999999643
 20
783.49999999999909
 11
184.50819045102165
 21
773.84074173710826
  0
LINE
  8
_0-5_寸法線
  6
CONTINUOUS
 62
    7
 10
181.91999999999643
 20
783.49999999999909
 11
179.33180954897125
 21
773.84074173710826
  0
LINE
  8
_0-5_寸法線
  6
CONTINUOUS
 62
    7
 10
181.91999999999643
 20
383.49999999999994
 11
181.91999999999643
 21
783.49999999999909
  0
TEXT
  8
_0-5_寸法線
 62
    7
 10
181.91999999999643
 20
575.99999999999943
 40
15
 41
1
 50
90
  1
Ａ
  0
LINE
  8
_0-5_寸法線
  6
CONTINUOUS
 62
    7
 10
640.15757972193092
 20
541.22639485122988
 11
647.22864753379645
 21
548.2974626630953
  0
LINE
  8
_0-5_寸法線
  6
CONTINUOUS
 62
    7
 10
640.15757972193092
 20
541.22639485122988
 11
649.81683798482152
 21
543.81458530225507
  0
LINE
  8
_0-5_寸法線
  6
CONTINUOUS
 62
    7
 10
640.15757972193092
 20
541.22639485122988
 11
681.55757972193089
 21
565.12869599568046
  0
LINE
  8
_0-5_寸法線
  6
CONTINUOUS
 62
    7
 10
681.55757972193089
 20
565.12869599568046
 11
789.55757972193101
 21
565.12869599568046
  0
TEXT
  8
_0-5_寸法線
 62
    7
 10
681.55757972193089
 20
565.12869599568046
 40
15
 41
0.8000000000000001
 50
0
  1
ＳＵＳアングル受枠
  0
LINE
  8
_0-5_寸法線
  6
CONTINUOUS
 62
    7
 10
616.62221621027072
 20
656.77997509814293
 11
623.69328402213625
 21
663.85104291000835
  0
LINE
  8
_0-5_寸法線
  6
CONTINUOUS
 62
    7
 10
616.62221621027072
 20
656.77997509814293
 11
626.28147447316144
 21
659.368165549168
  0
LINE
  8
_0-5_寸法線
  6
CONTINUOUS
 62
    7
 10
616.62221621027072
 20
656.77997509814293
 11
681.55757972193089
 21
694.27042470152605
  0
LINE
  8
_0-5_寸法線
  6
CONTINUOUS
 62
    7
 10
681.55757972193089
 20
694.27042470152605
 11
813.55757972193089
 21
694.27042470152605
  0
TEXT
  8
_0-5_寸法線
 62
    7
 10
681.55757972193089
 20
694.27042470152605
 40
15
 41
0.8000000000000001
 50
0
  1
ステンレスグレーチング
  0
TEXT
  8
_0-7_枠細線
 62
    5
 10
1296.2499999999955
 20
397.7610776748989
 40
15
 41
1
 50
0
  1
1.6kg
  0
TEXT
  8
_0-7_枠細線
 62
    5
 10
1296.2499999999955
 20
372.76107767489907
 40
15
 41
1
 50
0
  1
2.4kg
  0
TEXT
  8
_0-7_枠細線
 62
    5
 10
1296.2499999999955
 20
347.7610776748989
 40
15
 41
1
 50
0
  1
2.8kg
  0
TEXT
  8
_0-7_枠細線
 62
    5
 10
1296.2499999999955
 20
322.76107767489884
 40
15
 41
1
 50
0
  1
3.5kg
  0
TEXT
  8
_0-7_枠細線
 62
    5
 10
1296.2499999999955
 20
297.7610776748989
 40
15
 41
1
 50
0
  1
4.6kg
  0
TEXT
  8
_0-7_枠細線
 62
    5
 10
1187.4999999999973
 20
297.7610776748989
 40
15
 41
1
 50
0
  1
150×3
  0
TEXT
  8
_0-7_枠細線
 62
    5
 10
1310
 20
67.5
 40
15
 41
0.6666666666666666
 50
0
  1
２０１２年０２月２９日
  0
TEXT
  8
_0-7_枠細線
 62
    5
 10
1200.9999999999975
 20
342.32906121399373
 40
12.000000000000002
 41
1
 50
0
  1
150
  0
TEXT
  8
_0-7_枠細線
 62
    5
 10
1185.9999999999975
 20
354.96401320301993
 40
12.000000000000002
 41
1
 50
0
  1
端100×2
  0
LINE
  8
_0-7_枠細線
  6
CONTINUOUS
 62
    5
 10
1425
 20
925
 11
890
 21
925
  0
TEXT
  8
_0-5_寸法線
 62
    7
 10
681.55757972193089
 20
550.12869599568046
 40
15
 41
0.8000000000000001
 50
0
  1
ＧＳＬ－１５
  0
TEXT
  8
_0-7_枠細線
 62
    5
 10
992.49999999999909
 20
397.76107767489867
 40
15
 41
1
 50
0
  1
GST-15K300
  0
TEXT
  8
_0-7_枠細線
 62
    5
 10
992.49999999999909
 20
372.76107767489884
 40
15
 41
1
 50
0
  1
GST-15K350
  0
TEXT
  8
_0-7_枠細線
 62
    5
 10
992.49999999999909
 20
347.7610776748989
 40
15
 41
1
 50
0
  1
GST-15K400
  0
TEXT
  8
_0-7_枠細線
 62
    5
 10
992.49999999999909
 20
322.76107767489884
 40
15
 41
1
 50
0
  1
GST-15K450
  0
TEXT
  8
_0-7_枠細線
 62
    5
 10
992.49999999999909
 20
297.76107767489867
 40
15
 41
1
 50
0
  1
GST-15K500
  0
TEXT
  8
_0-7_枠細線
 62
    5
 10
938.85037037037023
 20
927.5
 40
12.500000000000002
 41
1
 50
0
  1
品番変更
  0
TEXT
  8
_0-7_枠細線
 62
    5
 10
960.5
 20
109.99999999999993
 40
20.000000000000007
 41
0.5999999999999998
 50
0
  1
ＧＳＴ－１５Ｋ３００～５００
  0
TEXT
  8
_0-7_枠細線
 62
    5
 10
1180
 20
927.5
 40
12.5
 41
0.7199999999999999
 50
0
  1
２０１５．０４．０１
  0
TEXT
  8
_0-7_枠細線
 62
    5
 10
965.49999999999955
 20
70
 40
20.000000000000004
 41
0.5999999999999997
 50
0
  1
表面形状については記号表参照のこと
  0
LINE
  8
_0-7_枠細線
  6
CONTINUOUS
 62
    5
 10
875.00000000000023
 20
179.99999999999972
 11
875.00000000000023
 21
75.000000000000142
  0
TEXT
  8
_0-7_枠細線
 62
    5
 10
784.00000000000114
 20
159.99999999999966
 40
15.000000000000002
 41
0.8
 50
0
  1
ノンスリップ
  0
TEXT
  8
_0-7_枠細線
 62
    5
 10
796.00000000000045
 20
134.99999999999977
 40
15.000000000000002
 41
0.8
 50
0
  1
品番－Ｄ
  0
LINE
  8
_0-7_枠細線
  6
CONTINUOUS
 62
    5
 10
764.99999999999989
 20
179.99999999999972
 11
764.99999999999989
 21
75.000000000000142
  0
TEXT
  8
_0-7_枠細線
 62
    5
 10
685.99999999999977
 20
159.99999999999977
 40
15.000000000000002
 41
0.8
 50
0
  1
プレーン
  0
TEXT
  8
_0-7_枠細線
 62
    5
 10
686.00000000000045
 20
134.99999999999977
 40
15.000000000000002
 41
0.8
 50
0
  1
品番－Ｆ
  0
TEXT
  8
_0-7_枠細線
 62
    5
 10
606
 20
159.99999999999966
 40
15.000000000000002
 41
0.8
 50
0
  1
タ イ プ
  0
LINE
  8
_0-7_枠細線
  6
CONTINUOUS
 62
    5
 10
604.99999999999932
 20
129.99999999999977
 11
875.00000000000023
 21
129.99999999999977
  0
LINE
  8
_0-7_枠細線
  6
CONTINUOUS
 62
    5
 10
604.99999999999932
 20
154.99999999999966
 11
875.00000000000023
 21
154.99999999999966
  0
LINE
  8
_0-7_枠細線
  6
CONTINUOUS
 62
    5
 10
604.99999999999932
 20
179.99999999999972
 11
875.00000000000023
 21
179.99999999999972
  0
LINE
  8
_0-7_枠細線
  6
CONTINUOUS
 62
    5
 10
604.99999999999932
 20
75.000000000000142
 11
875.00000000000023
 21
75.000000000000142
  0
LINE
  8
_0-7_枠細線
  6
CONTINUOUS
 62
    5
 10
655.00000000000023
 20
179.99999999999972
 11
655.00000000000023
 21
75.000000000000142
  0
LINE
  8
_0-7_枠細線
  6
CONTINUOUS
 62
    5
 10
604.99999999999932
 20
179.99999999999972
 11
604.99999999999932
 21
75.000000000000142
  0
TEXT
  8
_0-7_枠細線
 62
    5
 10
606
 20
94.999999999999929
 40
15.000000000000002
 41
0.8
 50
0
  1
表面形状
  0
TEXT
  8
_0-7_枠細線
 62
    5
 10
612.77421134081055
 20
182.49999999999977
 40
17.500000000000004
 41
0.7999999999999996
 50
0
  1
記号表
  0
TEXT
  8
_0-7_枠細線
 62
    5
 10
606
 20
134.99999999999986
 40
15.000000000000002
 41
0.8
 50
0
  1
記　　号
  0
ARC
  8
_0-7_枠細線
  6
CONTINUOUS
 62
    5
 10
748.56464347565225
 20
94.384556926306331
 40
12.026499332130607
 50
317.5616290000047
 51
42.438370999994966
  0
ARC
  8
_0-7_枠細線
  6
CONTINUOUS
 62
    5
 10
766.31584314054476
 20
110.61544292468355
 40
12.026499332130607
 50
137.56162900000001
 51
222.43837100000309
  0
ARC
  8
_0-7_枠細線
  6
CONTINUOUS
 62
    5
 10
653.6841566991236
 20
94.384556926306331
 40
12.026499332130607
 50
317.5616290000047
 51
42.438370999994966
  0
ARC
  8
_0-7_枠細線
  6
CONTINUOUS
 62
    5
 10
671.43535636401612
 20
110.61544292468355
 40
12.026499332130607
 50
137.56162900000001
 51
222.43837100000309
  0
LINE
  8
_0-7_枠細線
  6
CONTINUOUS
 62
    5
 10
660.05348907023767
 20
114.49999992549479
 11
754.93397584676609
 21
114.49999992549479
  0
LINE
  8
_0-7_枠細線
  6
CONTINUOUS
 62
    5
 10
759.94651076943046
 20
90.499999925494734
 11
665.06602399290205
 21
90.499999925494734
  0
ARC
  8
_0-7_枠細線
  6
CONTINUOUS
 62
    5
 10
858.56464347565282
 20
94.384556926306331
 40
12.026499332130607
 50
317.5616290000047
 51
42.438370999994966
  0
ARC
  8
_0-7_枠細線
  6
CONTINUOUS
 62
    5
 10
876.31584314054521
 20
110.61544292468355
 40
12.026499332130607
 50
137.56162900000001
 51
222.43837100000309
  0
ARC
  8
_0-7_枠細線
  6
CONTINUOUS
 62
    5
 10
763.68415669912406
 20
94.384556926306331
 40
12.026499332130607
 50
317.5616290000047
 51
42.438370999994966
  0
ARC
  8
_0-7_枠細線
  6
CONTINUOUS
 62
    5
 10
781.43535636401668
 20
110.61544292468355
 40
12.026499332130607
 50
137.56162900000001
 51
222.43837100000309
  0
LINE
  8
_0-7_枠細線
  6
CONTINUOUS
 62
    5
 10
770.05348907023813
 20
114.49999992549479
 11
864.93397584676654
 21
114.49999992549479
  0
LINE
  8
_0-7_枠細線
  6
CONTINUOUS
 62
    5
 10
869.94651076943103
 20
90.499999925494734
 11
775.06602399290261
 21
90.499999925494734
  0
LINE
  8
_0-7_枠細線
  6
CONTINUOUS
 62
    5
 10
775.60374839004862
 20
95.984563209849583
 11
781.08831167440326
 21
90.499999925494876
  0
LINE
  8
_0-7_枠細線
  6
CONTINUOUS
 62
    5
 10
769.99427221070573
 20
114.32196145055045
 11
793.81623373576099
 21
90.499999925494876
  0
LINE
  8
_0-7_枠細線
  6
CONTINUOUS
 62
    5
 10
782.54415579711906
 20
114.49999992549486
 11
806.54415579711883
 21
90.499999925494876
  0
LINE
  8
_0-7_枠細線
  6
CONTINUOUS
 62
    5
 10
795.27207785847679
 20
114.49999992549486
 11
819.27207785847656
 21
90.499999925494876
  0
LINE
  8
_0-7_枠細線
  6
CONTINUOUS
 62
    5
 10
807.99999991983441
 20
114.49999992549486
 11
831.99999991983418
 21
90.499999925494805
  0
LINE
  8
_0-7_枠細線
  6
CONTINUOUS
 62
    5
 10
820.72792198119214
 20
114.49999992549479
 11
844.72792198119191
 21
90.499999925494805
  0
LINE
  8
_0-7_枠細線
  6
CONTINUOUS
 62
    5
 10
833.45584404255021
 20
114.49999992549479
 11
857.45584404254964
 21
90.499999925494805
  0
LINE
  8
_0-7_枠細線
  6
CONTINUOUS
 62
    5
 10
846.18376610390783
 20
114.49999992549479
 11
870.00572762896343
 21
90.678038400438865
  0
LINE
  8
_0-7_枠細線
  6
CONTINUOUS
 62
    5
 10
858.91168816526556
 20
114.49999992549479
 11
864.39625144962065
 21
109.01543664113944
  0
LINE
  8
_0-7_枠細線
  6
CONTINUOUS
 62
    5
 10
858.91168816526601
 20
90.499999925494805
 11
868.91705344575814
 21
100.50536520598669
  0
LINE
  8
_0-7_枠細線
  6
CONTINUOUS
 62
    5
 10
846.1837661039084
 20
90.499999925494805
 11
864.43474620879999
 21
108.75098003038644
  0
LINE
  8
_0-7_枠細線
  6
CONTINUOUS
 62
    5
 10
833.45584404255032
 20
90.499999925494805
 11
857.45584404255044
 21
114.49999992549479
  0
LINE
  8
_0-7_枠細線
  6
CONTINUOUS
 62
    5
 10
820.72792198119259
 20
90.499999925494876
 11
844.72792198119259
 21
114.49999992549479
  0
LINE
  8
_0-7_枠細線
  6
CONTINUOUS
 62
    5
 10
807.99999991983464
 20
90.499999925494876
 11
831.99999991983475
 21
114.49999992549479
  0
LINE
  8
_0-7_枠細線
  6
CONTINUOUS
 62
    5
 10
795.27207785847691
 20
90.499999925494876
 11
819.27207785847702
 21
114.49999992549479
  0
LINE
  8
_0-7_枠細線
  6
CONTINUOUS
 62
    5
 10
782.54415579711917
 20
90.499999925494876
 11
806.54415579711917
 21
114.49999992549486
  0
LINE
  8
_0-7_枠細線
  6
CONTINUOUS
 62
    5
 10
775.56525363086951
 20
96.249019820603081
 11
793.81623373576133
 21
114.49999992549486
  0
LINE
  8
_0-7_枠細線
  6
CONTINUOUS
 62
    5
 10
771.08294639391147
 20
104.4946346450029
 11
781.0883116744036
 21
114.49999992549486
  0
TEXT
  8
_0-7_枠細線
 62
    5
 10
1128.5
 20
141.25
 40
20.000000000000007
 41
0.5999999999999998
 50
0
  1
集水マス
  0
LINE
  8
_0-9_枠極太
  6
CONTINUOUS
 62
    5
 10
60
 20
60
 11
60
 21
960
  0
LINE
  8
_0-9_枠極太
  6
CONTINUOUS
 62
    5
 10
60
 20
960
 11
1425
 21
960
  0
LINE
  8
_0-9_枠極太
  6
CONTINUOUS
 62
    5
 10
1425
 20
960
 11
1425
 21
60
  0
LINE
  8
_0-9_枠極太
  6
CONTINUOUS
 62
    5
 10
1425
 20
60
 11
60
 21
60
  0
LINE
  8
_0-7_枠細線
  6
CONTINUOUS
 62
    5
 10
1425
 20
907.5
 11
890
 21
907.5
  0
LINE
  8
_0-7_枠細線
  6
CONTINUOUS
 62
    5
 10
915
 20
908.94233397174708
 11
907.5
 21
923.94233397174708
  0
LINE
  8
_0-7_枠細線
  6
CONTINUOUS
 62
    5
 10
900
 20
908.94233397174708
 11
915
 21
908.94233397174708
  0
LINE
  8
_0-7_枠細線
  6
CONTINUOUS
 62
    5
 10
907.5
 20
923.94233397174708
 11
900
 21
908.94233397174708
  0
TEXT
  8
_0-7_枠細線
 62
    5
 10
902.36515126814822
 20
908.63533172636653
 40
12.5
 41
0.8
 50
0
  1
１
  0
TEXT
  8
_0-7_枠細線
 62
    5
 10
1180
 20
910
 40
12.5
 41
0.7199999999999999
 50
0
  1
２０１９．０９．０１
  0
TEXT
  8
_0-7_枠細線
 62
    5
 10
938.85037037037023
 20
910
 40
12.500000000000002
 41
1
 50
0
  1
アンカー材質･厚み変更
  0
LINE
  8
_0-7_枠細線
  6
CONTINUOUS
 62
    5
 10
890
 20
907.5
 11
890
 21
959.99999999999943
  0
LINE
  8
_0-7_枠細線
  6
CONTINUOUS
 62
    5
 10
925
 20
907.5
 11
925
 21
959.99999999999943
  0
LINE
  8
_0-7_枠細線
  6
CONTINUOUS
 62
    5
 10
1175
 20
907.5
 11
1175
 21
959.99999999999943
  0
LINE
  8
_0-7_枠細線
  6
CONTINUOUS
 62
    5
 10
1275
 20
907.5
 11
1275
 21
959.99999999999943
  0
CIRCLE
  8
_0-0_計極細
  6
CONTINUOUS
 62
    2
 10
1361.310472896193
 20
690.593410366787
 40
0.3318518518518431
  0
CIRCLE
  8
_0-0_計極細
  6
CONTINUOUS
 62
    2
 10
1392.5104728961926
 20
690.03341036678705
 40
0.3318518518518431
  0
CIRCLE
  8
_0-0_計極細
  6
CONTINUOUS
 62
    2
 10
1402.5904728961925
 20
690.03341036678705
 40
0.3318518518518431
  0
LINE
  8
_0-0_計極細
  6
CONTINUOUS
 62
    2
 10
1395.3871457916196
 20
691.87414189456922
 11
1402.3871454155458
 21
698.87414151849589
  0
LINE
  8
_0-0_計極細
  6
CONTINUOUS
 62
    2
 10
1382.6592237302614
 20
691.87414189456922
 11
1389.6592234537572
 21
698.87414161806475
  0
LINE
  8
_0-0_計極細
  6
CONTINUOUS
 62
    2
 10
1369.9313016689039
 20
691.87414189456922
 11
1376.9313014919683
 21
698.87414171763385
  0
LINE
  8
_0-0_計極細
  6
CONTINUOUS
 62
    2
 10
1357.2033796075459
 20
691.87414189456922
 11
1364.20337953018
 21
698.87414181720317
  0
LINE
  8
_0-0_計極細
  6
DASHED2
 62
    2
 10
1401.7511068222982
 20
691.87414189456922
 11
1407.8203108385062
 21
697.94334591077711
  0
LINE
  8
_0-0_計極細
  6
DASHED2
 62
    2
 10
1389.0231847609405
 20
691.87414189456922
 11
1396.0231844346515
 21
698.87414156828049
  0
LINE
  8
_0-0_計極細
  6
DASHED2
 62
    2
 10
1376.2952626995823
 20
691.87414189456922
 11
1383.2952624728632
 21
698.87414166784924
  0
LINE
  8
_0-0_計極細
  6
DASHED2
 62
    2
 10
1363.5673406382248
 20
691.87414189456922
 11
1370.5673405110742
 21
698.87414176741845
  0
LINE
  8
_0-0_計極細
  6
DASHED2
 62
    2
 10
1354.3136625514373
 20
695.34838586913963
 11
1357.8394185492855
 21
698.87414186698766
  0
LINE
  8
_0-0_計極細
  6
CONTINUOUS
 62
    2
 10
1354.3136625514373
 20
694.07559366300393
 11
1352.1122107830026
 21
691.87414189456922
  0
LINE
  8
_0-0_計極細
  6
CONTINUOUS
 62
    2
 10
1354.3136625514373
 20
696.62117807527522
 11
1349.566626370731
 21
691.87414189456922
  0
LINE
  8
_0-0_計極細
  6
CONTINUOUS
 62
    2
 10
1349.3136625514373
 20
694.16676248754686
 11
1354.0210419584594
 21
698.87414189456922
  0
LINE
  8
_0-0_計極細
  6
CONTINUOUS
 62
    2
 10
1349.3136625514373
 20
696.71234689981873
 11
1351.475457546188
 21
698.87414189456922
  0
LINE
  8
_0-0_計極細
  6
CONTINUOUS
 62
    2
 10
1354.3136625514373
 20
697.96854856886603
 11
1353.4080692257342
 21
698.87414189456922
  0
LINE
  8
_0-0_計極細
  6
CONTINUOUS
 62
    2
 10
1354.3136625514373
 20
695.42296415659439
 11
1350.8624848134625
 21
698.87414189456922
  0
LINE
  8
_0-0_計極細
  6
CONTINUOUS
 62
    2
 10
1354.3136625514373
 20
692.87737974432252
 11
1349.3136625514373
 21
697.87737974432264
  0
LINE
  8
_0-0_計極細
  6
CONTINUOUS
 62
    2
 10
1352.7713159889195
 20
691.87414189456922
 11
1349.3136625514373
 21
695.33179533205134
  0
LINE
  8
_0-0_計極細
  6
CONTINUOUS
 62
    2
 10
1350.2257315766483
 20
691.87414189456922
 11
1349.3136625514373
 21
692.78621091977936
  0
LINE
  8
_0-0_計極細
  6
CONTINUOUS
 62
    2
 10
1349.3136625514373
 20
698.37414189456899
 11
1349.3136625514373
 21
698.87414189456922
  0
LINE
  8
_0-0_計極細
  6
CONTINUOUS
 62
    2
 10
1349.3136625514373
 20
698.87414189456922
 11
1354.3136625514373
 21
698.87414189456922
  0
LINE
  8
_0-0_計極細
  6
CONTINUOUS
 62
    2
 10
1349.3136625514373
 20
691.87414189456922
 11
1407.8203108385062
 21
691.87414189456922
  0
LINE
  8
_0-0_計極細
  6
CONTINUOUS
 62
    2
 10
1354.3136625514373
 20
698.87414189456922
 11
1407.8203108385062
 21
698.87414189456922
  0
LINE
  8
_0-0_計極細
  6
CONTINUOUS
 62
    2
 10
1354.3136625514373
 20
698.87414189456922
 11
1354.3136625514373
 21
691.87414189456922
  0
CIRCLE
  8
_0-0_計極細
  6
CONTINUOUS
 62
    2
 10
931.28380622952795
 20
689.84952147789829
 40
0.3318518518518431
  0
LINE
  8
_0-0_計極細
  6
CONTINUOUS
 62
    2
 10
929.012470744859
 20
691.8741418908927
 11
934.31366255143735
 21
697.17533369747093
  0
LINE
  8
_0-0_計極細
  6
CONTINUOUS
 62
    2
 10
916.28454867467451
 20
691.87414188206594
 11
923.28454868717756
 21
698.87414189456922
  0
LINE
  8
_0-0_計極細
  6
CONTINUOUS
 62
    2
 10
903.55662660448968
 20
691.87414187323895
 11
910.55662662581972
 21
698.87414189456922
  0
LINE
  8
_0-0_計極細
  6
CONTINUOUS
 62
    2
 10
890.82870453430519
 20
691.87414186441231
 11
897.82870456446176
 21
698.87414189456922
  0
LINE
  8
_0-0_計極細
  6
CONTINUOUS
 62
    2
 10
880.8070142643686
 20
694.58037365583334
 11
885.10078250310403
 21
698.87414189456922
  0
LINE
  8
_0-0_計極細
  6
DASHED2
 62
    2
 10
922.64850970976681
 20
691.87414188647926
 11
929.64850971785665
 21
698.87414189456933
  0
LINE
  8
_0-0_計極細
  6
DASHED2
 62
    2
 10
909.92058763958198
 20
691.87414187765262
 11
916.92058765649881
 21
698.87414189456922
  0
LINE
  8
_0-0_計極細
  6
DASHED2
 62
    2
 10
897.1926655693976
 20
691.87414186882597
 11
904.19266559514085
 21
698.87414189456922
  0
LINE
  8
_0-0_計極細
  6
DASHED2
 62
    2
 10
884.46474349921277
 20
691.87414185999899
 11
891.46474353378278
 21
698.87414189456922
  0
LINE
  8
_0-0_計極細
  6
CONTINUOUS
 62
    2
 10
939.19480839762173
 20
691.87414189456922
 11
939.31366255143735
 21
691.99299604838473
  0
LINE
  8
_0-0_計極細
  6
CONTINUOUS
 62
    2
 10
936.64922398535032
 20
691.87414189456922
 11
939.31366255143757
 21
694.53858046065625
  0
LINE
  8
_0-0_計極細
  6
CONTINUOUS
 62
    2
 10
934.31366255143735
 20
692.08416487292777
 11
939.31366255143757
 21
697.08416487292777
  0
LINE
  8
_0-0_計極細
  6
CONTINUOUS
 62
    2
 10
934.31366255143735
 20
694.6297492851993
 11
938.55805516080693
 21
698.87414189456922
  0
LINE
  8
_0-0_計極細
  6
CONTINUOUS
 62
    2
 10
934.31366255143735
 20
697.17533369747093
 11
936.01247074853563
 21
698.87414189456922
  0
LINE
  8
_0-0_計極細
  6
CONTINUOUS
 62
    2
 10
939.31366255143757
 20
697.50556177121416
 11
937.94508242808251
 21
698.87414189456922
  0
LINE
  8
_0-0_計極細
  6
CONTINUOUS
 62
    2
 10
939.31366255143757
 20
694.95997735894218
 11
935.39949801581065
 21
698.87414189456922
  0
LINE
  8
_0-0_計極細
  6
CONTINUOUS
 62
    2
 10
934.31366255143735
 20
697.414392946671
 11
939.31366255143757
 21
692.41439294667077
  0
LINE
  8
_0-0_計極細
  6
CONTINUOUS
 62
    2
 10
934.31366255143735
 20
694.86880853439914
 11
937.30832919126726
 21
691.87414189456922
  0
LINE
  8
_0-0_計極細
  6
CONTINUOUS
 62
    2
 10
934.31366255143735
 20
692.32322412212784
 11
934.76274477899597
 21
691.87414189456922
  0
LINE
  8
_0-0_計極細
  6
CONTINUOUS
 62
    2
 10
939.31366255143757
 20
698.37414189456899
 11
939.31366255143757
 21
698.87414189456922
  0
LINE
  8
_0-0_計極細
  6
CONTINUOUS
 62
    2
 10
939.31366255143757
 20
698.87414189456922
 11
934.31366255143735
 21
698.87414189456922
  0
LINE
  8
_0-0_計極細
  6
CONTINUOUS
 62
    2
 10
939.31366255143757
 20
691.87414189456922
 11
880.8070142643686
 21
691.87414189456922
  0
LINE
  8
_0-0_計極細
  6
CONTINUOUS
 62
    2
 10
934.31366255143735
 20
698.87414189456922
 11
880.8070142643686
 21
698.87414189456922
  0
LINE
  8
_0-0_計極細
  6
CONTINUOUS
 62
    2
 10
934.31366255143735
 20
698.87414189456922
 11
934.31366255143735
 21
691.87414189456922
  0
CIRCLE
  8
_0-0_計極細
  6
CONTINUOUS
 62
    2
 10
1366.7060284517488
 20
669.17563258900941
 40
0.3318518518518431
  0
LINE
  8
_0-0_計極細
  6
CONTINUOUS
 62
    2
 10
1364.3136625514373
 20
662.32547870355825
 11
1373.3136625514373
 21
662.32547870355825
  0
LINE
  8
_0-0_計極細
  6
CENTER1
 62
    2
 10
1368.8136625514376
 20
630.90809772389707
 11
1368.8136625514376
 21
664.89091080232402
  0
LINE
  8
_0-0_計極細
  6
CONTINUOUS
 62
    2
 10
1373.3136625514373
 20
662.32547870355825
 11
1373.3136625514373
 21
635.87414189456877
  0
LINE
  8
_0-0_計極細
  6
CONTINUOUS
 62
    2
 10
1364.3136625514373
 20
635.87414189456877
 11
1364.3136625514373
 21
662.32547870355825
  0
LINE
  8
_0-0_計極細
  6
CENTER1
 62
    2
 10
1380.0100541638899
 20
653.94960136158966
 11
1341.5914418743503
 21
667.93283265261061
  0
LINE
  8
_0-0_計極細
  6
CONTINUOUS
 62
    2
 10
1375.4977034837289
 20
650.80316259207075
 11
1342.4230965895204
 21
662.84133501161864
  0
LINE
  8
_0-0_計極細
  6
CONTINUOUS
 62
    2
 10
1378.5758847736599
 20
659.26039617914421
 11
1345.5012778794512
 21
671.29856859869187
  0
LINE
  8
_0-0_計極細
  6
CONTINUOUS
 62
    2
 10
1345.5012778794512
 20
671.29856859869187
 11
1342.4230965895204
 21
662.84133501161864
  0
LINE
  8
_0-0_計極細
  6
CONTINUOUS
 62
    2
 10
1375.4977034837289
 20
650.80316259207075
 11
1378.5758847736599
 21
659.26039617914421
  0
CIRCLE
  8
_0-0_計極細
  6
CONTINUOUS
 62
    2
 10
1325.0738062295268
 20
629.28544740382426
 40
1.0953188836088352
  0
CIRCLE
  8
_0-0_計極細
  6
CONTINUOUS
 62
    2
 10
1323.3049173406378
 20
672.85878073715776
 40
1.0953188836088352
  0
CIRCLE
  8
_0-0_計極細
  6
CONTINUOUS
 62
    2
 10
1323.6882506739717
 20
633.28674370012072
 40
0.3318518518518431
  0
CIRCLE
  8
_0-0_計極細
  6
CONTINUOUS
 62
    2
 10
1322.9043000566876
 20
656.84007703345389
 40
0.3318518518518431
  0
LINE
  8
_0-0_計極細
  6
CONTINUOUS
 62
    2
 10
1319.3136625514373
 20
680.87414189456877
 11
1319.3136625514373
 21
620.12918171770116
  0
LINE
  8
_0-0_計極細
  6
CONTINUOUS
 62
    2
 10
1319.8136625514373
 20
680.87414189456877
 11
1319.3136625514373
 21
680.87414189456877
  0
CIRCLE
  8
_0-0_計極細
  6
CONTINUOUS
 62
    2
 10
1374.1104728961927
 20
688.20211407049089
 40
1.0953188836088352
  0
CIRCLE
  8
_0-0_計極細
  6
CONTINUOUS
 62
    2
 10
1327.8875099332311
 20
651.76485749293556
 40
0.3318518518518431
  0
CIRCLE
  8
_0-0_計極細
  6
CONTINUOUS
 62
    2
 10
1327.7675099332307
 20
666.13819082626901
 40
0.3318518518518431
  0
CIRCLE
  8
_0-0_計極細
  6
CONTINUOUS
 62
    2
 10
1386.64625514403
 20
637.3598826353093
 40
1.0953188836088352
  0
CIRCLE
  8
_0-0_計極細
  6
CONTINUOUS
 62
    2
 10
1358.8871395628596
 20
643.47211407049133
 40
1.0953188836088352
  0
CIRCLE
  8
_0-0_計極細
  6
CONTINUOUS
 62
    2
 10
1337.7671395628602
 20
656.91211407049104
 40
1.0953188836088352
  0
CIRCLE
  8
_0-0_計極細
  6
CONTINUOUS
 62
    2
 10
1331.633806229527
 20
638.9921140704912
 40
1.0953188836088352
  0
CIRCLE
  8
_0-0_計極細
  6
CONTINUOUS
 62
    2
 10
1373.870472896193
 20
665.72211407049099
 40
1.0953188836088352
  0
CIRCLE
  8
_0-0_計極細
  6
CONTINUOUS
 62
    2
 10
1354.6704728961931
 20
684.92211407049058
 40
1.0953188836088352
  0
CIRCLE
  8
_0-0_計極細
  6
CONTINUOUS
 62
    2
 10
1387.923806229526
 20
680.97544740382386
 40
1.0953188836088352
  0
CIRCLE
  8
_0-0_計極細
  6
CONTINUOUS
 62
    2
 10
1397.3104728961923
 20
690.25544740382418
 40
1.0953188836088352
  0
CIRCLE
  8
_0-0_計極細
  6
CONTINUOUS
 62
    2
 10
1400.1904728961924
 20
681.99341036678697
 40
0.3318518518518431
  0
CIRCLE
  8
_0-0_計極細
  6
CONTINUOUS
 62
    2
 10
1382.4304728961929
 20
669.27341036678729
 40
0.3318518518518431
  0
CIRCLE
  8
_0-0_計極細
  6
CONTINUOUS
 62
    2
 10
1374.0304728961926
 20
673.59341036678711
 40
0.3318518518518431
  0
CIRCLE
  8
_0-0_計極細
  6
CONTINUOUS
 62
    2
 10
1384.830472896193
 20
660.87341036678708
 40
0.3318518518518431
  0
CIRCLE
  8
_0-0_計極細
  6
CONTINUOUS
 62
    2
 10
1385.790472896193
 20
648.39341036678729
 40
0.3318518518518431
  0
CIRCLE
  8
_0-0_計極細
  6
CONTINUOUS
 62
    2
 10
1381.4704728961929
 20
639.99341036678766
 40
0.3318518518518431
  0
CIRCLE
  8
_0-0_計極細
  6
CONTINUOUS
 62
    2
 10
1357.9504728961931
 20
671.91341036678682
 40
0.3318518518518431
  0
CIRCLE
  8
_0-0_計極細
  6
CONTINUOUS
 62
    2
 10
1359.7771395628602
 20
648.16674370012061
 40
0.3318518518518431
  0
CIRCLE
  8
_0-0_計極細
  6
CONTINUOUS
 62
    2
 10
1360.2571395628595
 20
639.36674370012065
 40
0.3318518518518431
  0
CIRCLE
  8
_0-0_計極細
  6
CONTINUOUS
 62
    2
 10
1344.0971395628596
 20
639.2067437001208
 40
0.3318518518518431
  0
CIRCLE
  8
_0-0_計極細
  6
CONTINUOUS
 62
    2
 10
1328.8971395628605
 20
624.16674370012083
 40
0.3318518518518431
  0
CIRCLE
  8
_0-0_計極細
  6
CONTINUOUS
 62
    2
 10
1334.4971395628602
 20
634.88674370012063
 40
0.3318518518518431
  0
CIRCLE
  8
_0-0_計極細
  6
CONTINUOUS
 62
    2
 10
1345.1971395628602
 20
648.86674370012076
 40
0.3318518518518431
  0
CIRCLE
  8
_0-0_計極細
  6
CONTINUOUS
 62
    2
 10
1334.6771395628602
 20
659.08007703345379
 40
0.3318518518518431
  0
CIRCLE
  8
_0-0_計極細
  6
CONTINUOUS
 62
    2
 10
1337.1304728961934
 20
674.06674370012058
 40
0.3318518518518431
  0
LINE
  8
_0-0_計極細
  6
CONTINUOUS
 62
    2
 10
1394.2876640001937
 20
620.12918171770116
 11
1407.8203108634309
 21
633.66182858093885
  0
LINE
  8
_0-0_計極細
  6
CONTINUOUS
 62
    2
 10
1351.8612571290005
 20
620.12918171770116
 11
1367.6062173058679
 21
635.87414189456877
  0
LINE
  8
_0-0_計極細
  6
CONTINUOUS
 62
    2
 10
1389.3136625514378
 20
657.58158714013848
 11
1407.8203108389596
 21
676.08823542766049
  0
LINE
  8
_0-0_計極細
  6
CONTINUOUS
 62
    2
 10
1390.0450233130741
 20
620.12918171770116
 11
1407.8203108609837
 21
637.90446926561094
  0
LINE
  8
_0-0_計極細
  6
CONTINUOUS
 62
    2
 10
1347.6186164418812
 20
620.12918171770116
 11
1363.3635766187488
 21
635.87414189456877
  0
LINE
  8
_0-0_計極細
  6
CONTINUOUS
 62
    2
 10
1389.3136625514378
 20
661.8242278272578
 11
1404.3635765110182
 21
676.87414178683855
  0
LINE
  8
_0-0_計極細
  6
CONTINUOUS
 62
    2
 10
1385.8023826259548
 20
620.12918171770116
 11
1407.8203108585365
 21
642.14710995028281
  0
LINE
  8
_0-0_計極細
  6
CONTINUOUS
 62
    2
 10
1343.3759757547616
 20
620.12918171770116
 11
1359.1209359316292
 21
635.87414189456877
  0
LINE
  8
_0-0_計極細
  6
CONTINUOUS
 62
    2
 10
1389.3136625514378
 20
666.06686851437667
 11
1400.120935854269
 21
676.87414181720828
  0
LINE
  8
_0-0_計極細
  6
CONTINUOUS
 62
    2
 10
1339.3136625514373
 20
635.87414189456877
 11
1339.3136625514373
 21
620.12918171770116
  0
LINE
  8
_0-0_計極細
  6
CONTINUOUS
 62
    2
 10
1389.3136625514378
 20
676.87414189456854
 11
1407.8203108385062
 21
676.87414189456854
  0
LINE
  8
_0-0_計極細
  6
CONTINUOUS
 62
    2
 10
1339.3136625514373
 20
635.87414189456877
 11
1389.3136625514378
 21
635.87414189456877
  0
LINE
  8
_0-0_計極細
  6
CONTINUOUS
 62
    2
 10
1389.3136625514378
 20
676.87414189456854
 11
1389.3136625514378
 21
635.87414189456877
  0
ARC
  8
_0-1_計細線
  6
CONTINUOUS
 62
    3
 10
1346.3136625514376
 20
683.87414189456877
 40
3.0000000000000004
 50
269.99999999999977
 51
359.99999999999966
  0
LINE
  8
_0-1_計細線
  6
CONTINUOUS
 62
    3
 10
1349.3136625514373
 20
683.87414189456877
 11
1349.3136625514373
 21
698.37414189456899
  0
LINE
  8
_0-1_計細線
  6
CONTINUOUS
 62
    3
 10
1346.3136625514376
 20
680.87414189456877
 11
1319.8136625514373
 21
680.87414189456877
  0
LINE
  8
_0-1_計細線
  6
CONTINUOUS
 62
    3
 10
1319.3136625514373
 20
681.37414189456865
 11
1319.8136625514373
 21
680.87414189456877
  0
LINE
  8
_0-1_計細線
  6
CONTINUOUS
 62
    3
 10
1319.3136625514373
 20
683.37414189456877
 11
1319.3136625514373
 21
681.37414189456865
  0
LINE
  8
_0-1_計細線
  6
CONTINUOUS
 62
    3
 10
1319.8136625514373
 20
683.87414189456877
 11
1319.3136625514373
 21
683.37414189456877
  0
LINE
  8
_0-1_計細線
  6
CONTINUOUS
 62
    3
 10
1346.3136625514376
 20
683.87414189456877
 11
1319.8136625514373
 21
683.87414189456877
  0
LINE
  8
_0-1_計細線
  6
CONTINUOUS
 62
    3
 10
1348.8136625514378
 20
698.87414189456922
 11
1349.3136625514373
 21
698.37414189456899
  0
LINE
  8
_0-1_計細線
  6
CONTINUOUS
 62
    3
 10
1346.8136625514373
 20
698.87414189456922
 11
1348.8136625514378
 21
698.87414189456922
  0
LINE
  8
_0-1_計細線
  6
CONTINUOUS
 62
    3
 10
1346.3136625514376
 20
698.37414189456899
 11
1346.8136625514373
 21
698.87414189456922
  0
LINE
  8
_0-1_計細線
  6
CONTINUOUS
 62
    3
 10
1346.3136625514376
 20
683.87414189456877
 11
1346.3136625514376
 21
698.37414189456899
  0
LINE
  8
_0-1_計細線
  6
CONTINUOUS
 62
    3
 10
1340.3136625537434
 20
683.87414189456877
 11
1336.9136625537433
 21
683.87414189456877
  0
LINE
  8
_0-1_計細線
  6
CONTINUOUS
 62
    3
 10
1323.513662553572
 20
683.87414189456877
 11
1320.1136625535717
 21
683.87414189456877
  0
LINE
  8
_0-0_計極細
  6
CENTER1
 62
    2
 10
919.81366255143757
 20
630.90809772389707
 11
919.81366255143757
 21
664.89091080232402
  0
LINE
  8
_0-0_計極細
  6
CONTINUOUS
 62
    2
 10
915.31366255143757
 20
662.32547870355825
 11
915.31366255143757
 21
635.87414189456877
  0
LINE
  8
_0-0_計極細
  6
CONTINUOUS
 62
    2
 10
924.31366255143757
 20
662.32547870355825
 11
915.31366255143757
 21
662.32547870355825
  0
LINE
  8
_0-0_計極細
  6
CONTINUOUS
 62
    2
 10
924.31366255143757
 20
635.87414189456877
 11
924.31366255143757
 21
662.32547870355825
  0
LINE
  8
_0-0_計極細
  6
CENTER1
 62
    2
 10
908.61727093898492
 20
653.94960136158966
 11
947.03588322852443
 21
667.93283265261061
  0
LINE
  8
_0-0_計極細
  6
CONTINUOUS
 62
    2
 10
913.12962161914629
 20
650.80316259207075
 11
946.20422851335491
 21
662.84133501161864
  0
LINE
  8
_0-0_計極細
  6
CONTINUOUS
 62
    2
 10
910.05144032921521
 20
659.26039617914421
 11
943.12604722342417
 21
671.29856859869187
  0
LINE
  8
_0-0_計極細
  6
CONTINUOUS
 62
    2
 10
943.12604722342417
 20
671.29856859869187
 11
946.20422851335491
 21
662.84133501161864
  0
LINE
  8
_0-0_計極細
  6
CONTINUOUS
 62
    2
 10
913.12962161914629
 20
650.80316259207075
 11
910.05144032921521
 21
659.26039617914421
  0
CIRCLE
  8
_0-0_計極細
  6
CONTINUOUS
 62
    2
 10
957.96380622952529
 20
659.81544740382469
 40
1.0953188836088352
  0
CIRCLE
  8
_0-0_計極細
  6
CONTINUOUS
 62
    2
 10
965.38602845175024
 20
624.86254552466312
 40
0.3318518518518431
  0
CIRCLE
  8
_0-0_計極細
  6
CONTINUOUS
 62
    2
 10
964.58602845174983
 20
638.45618814456498
 40
0.3318518518518431
  0
CIRCLE
  8
_0-0_計極細
  6
CONTINUOUS
 62
    2
 10
965.18120206286017
 20
671.28211407049093
 40
1.0953188836088352
  0
LINE
  8
_0-0_計極細
  6
CONTINUOUS
 62
    2
 10
969.31366255143757
 20
680.87414189456877
 11
969.31366255143757
 21
620.12918171770116
  0
LINE
  8
_0-0_計極細
  6
CONTINUOUS
 62
    2
 10
968.81366255143735
 20
680.87414189456877
 11
969.31366255143757
 21
680.87414189456877
  0
CIRCLE
  8
_0-0_計極細
  6
CONTINUOUS
 62
    2
 10
885.62828668401949
 20
689.89544740382394
 40
1.0953188836088352
  0
CIRCLE
  8
_0-0_計極細
  6
CONTINUOUS
 62
    2
 10
958.29713956286071
 20
627.68211407049125
 40
1.0953188836088352
  0
CIRCLE
  8
_0-0_計極細
  6
CONTINUOUS
 62
    2
 10
955.41713956286094
 20
638.88211407049107
 40
1.0953188836088352
  0
CIRCLE
  8
_0-0_計極細
  6
CONTINUOUS
 62
    2
 10
933.83047289619424
 20
641.04211407049115
 40
1.0953188836088352
  0
CIRCLE
  8
_0-0_計極細
  6
CONTINUOUS
 62
    2
 10
901.91047289619462
 20
648.72211407049122
 40
1.0953188836088352
  0
CIRCLE
  8
_0-0_計極細
  6
CONTINUOUS
 62
    2
 10
913.67047289619461
 20
671.52211407049083
 40
1.0953188836088352
  0
CIRCLE
  8
_0-0_計極細
  6
CONTINUOUS
 62
    2
 10
897.746534408667
 20
689.35988263530953
 40
1.0953188836088352
  0
CIRCLE
  8
_0-0_計極細
  6
CONTINUOUS
 62
    2
 10
928.80380622952782
 20
685.20211407049078
 40
1.0953188836088352
  0
CIRCLE
  8
_0-0_計極細
  6
CONTINUOUS
 62
    2
 10
940.97713956286134
 20
672.01174370012041
 40
0.3318518518518431
  0
CIRCLE
  8
_0-0_計極細
  6
CONTINUOUS
 62
    2
 10
962.12380622952764
 20
654.17174370012049
 40
0.3318518518518431
  0
CIRCLE
  8
_0-0_計極細
  6
CONTINUOUS
 62
    2
 10
961.80380622952771
 20
664.9450770334538
 40
0.3318518518518431
  0
CIRCLE
  8
_0-0_計極細
  6
CONTINUOUS
 62
    2
 10
952.73713956286133
 20
670.91841036678716
 40
0.3318518518518431
  0
CIRCLE
  8
_0-0_計極細
  6
CONTINUOUS
 62
    2
 10
943.88380622952786
 20
650.43841036678737
 40
0.3318518518518431
  0
CIRCLE
  8
_0-0_計極細
  6
CONTINUOUS
 62
    2
 10
953.88380622952786
 20
624.26952147789848
 40
0.3318518518518431
  0
CIRCLE
  8
_0-0_計極細
  6
CONTINUOUS
 62
    2
 10
958.04380622952795
 20
633.22952147789829
 40
0.3318518518518431
  0
CIRCLE
  8
_0-0_計極細
  6
CONTINUOUS
 62
    2
 10
949.83047289619446
 20
642.18952147789832
 40
0.3318518518518431
  0
CIRCLE
  8
_0-0_計極細
  6
CONTINUOUS
 62
    2
 10
942.04380622952783
 20
640.26952147789859
 40
0.3318518518518431
  0
CIRCLE
  8
_0-0_計極細
  6
CONTINUOUS
 62
    2
 10
930.09713956286134
 20
639.62952147789861
 40
0.3318518518518431
  0
CIRCLE
  8
_0-0_計極細
  6
CONTINUOUS
 62
    2
 10
928.49713956286155
 20
646.66952147789846
 40
0.3318518518518431
  0
CIRCLE
  8
_0-0_計極細
  6
CONTINUOUS
 62
    2
 10
935.21713956286135
 20
649.97618814456519
 40
0.3318518518518431
  0
CIRCLE
  8
_0-0_計極細
  6
CONTINUOUS
 62
    2
 10
911.63713956286131
 20
639.24285481123184
 40
0.3318518518518431
  0
CIRCLE
  8
_0-0_計極細
  6
CONTINUOUS
 62
    2
 10
907.9038062295283
 20
644.36285481123173
 40
0.3318518518518431
  0
CIRCLE
  8
_0-0_計極細
  6
CONTINUOUS
 62
    2
 10
902.67713956286127
 20
640.30952147789844
 40
0.3318518518518431
  0
CIRCLE
  8
_0-0_計極細
  6
CONTINUOUS
 62
    2
 10
906.09047289619468
 20
651.08285481123164
 40
0.3318518518518431
  0
CIRCLE
  8
_0-0_計極細
  6
CONTINUOUS
 62
    2
 10
914.33047289619492
 20
662.97618814456496
 40
0.3318518518518431
  0
CIRCLE
  8
_0-0_計極細
  6
CONTINUOUS
 62
    2
 10
923.18380622952805
 20
671.08285481123164
 40
0.3318518518518431
  0
CIRCLE
  8
_0-0_計極細
  6
CONTINUOUS
 62
    2
 10
930.7571395628612
 20
674.49618814456471
 40
0.3318518518518431
  0
CIRCLE
  8
_0-0_計極細
  6
CONTINUOUS
 62
    2
 10
915.71713956286135
 20
676.73618814456506
 40
0.3318518518518431
  0
CIRCLE
  8
_0-0_計極細
  6
CONTINUOUS
 62
    2
 10
903.45047289619492
 20
677.4828548112315
 40
0.3318518518518431
  0
CIRCLE
  8
_0-0_計極細
  6
CONTINUOUS
 62
    2
 10
919.76380622952786
 20
684.82285481123131
 40
0.3318518518518431
  0
CIRCLE
  8
_0-0_計極細
  6
CONTINUOUS
 62
    2
 10
934.69713956286125
 20
685.14285481123147
 40
0.3318518518518431
  0
CIRCLE
  8
_0-0_計極細
  6
CONTINUOUS
 62
    2
 10
899.2838062295283
 20
681.83618814456497
 40
0.3318518518518431
  0
CIRCLE
  8
_0-0_計極細
  6
CONTINUOUS
 62
    2
 10
885.34602845175073
 20
680.0228548112317
 40
0.3318518518518431
  0
CIRCLE
  8
_0-0_計極細
  6
CONTINUOUS
 62
    2
 10
891.54454697026893
 20
685.99618814456471
 40
0.3318518518518431
  0
LINE
  8
_0-0_計極細
  6
CONTINUOUS
 62
    2
 10
926.86047781244361
 20
620.12918178756354
 11
942.60543791944895
 21
635.87414189456877
  0
LINE
  8
_0-0_計極細
  6
CONTINUOUS
 62
    2
 10
884.43407107325868
 20
620.12918191957147
 11
900.17903104825621
 21
635.87414189456877
  0
LINE
  8
_0-0_計極細
  6
CONTINUOUS
 62
    2
 10
880.8070142643686
 20
658.92853198187413
 11
898.75262417706324
 21
676.87414189456854
  0
LINE
  8
_0-0_計極細
  6
CONTINUOUS
 62
    2
 10
922.61783713852515
 20
620.12918180076417
 11
938.36279723232963
 21
635.87414189456877
  0
LINE
  8
_0-0_計極細
  6
CONTINUOUS
 62
    2
 10
880.8070142643686
 20
620.74476579780071
 11
899.31366255143735
 21
639.25141408486934
  0
LINE
  8
_0-0_計極細
  6
CONTINUOUS
 62
    2
 10
880.8070142643686
 20
663.17117266899345
 11
894.50998348994403
 21
676.87414189456854
  0
LINE
  8
_0-0_計極細
  6
CONTINUOUS
 62
    2
 10
918.37519646460692
 20
620.12918181396481
 11
934.12015654521042
 21
635.87414189456877
  0
LINE
  8
_0-0_計極細
  6
CONTINUOUS
 62
    2
 10
880.8070142643686
 20
624.98740648491957
 11
899.31366255143735
 21
643.49405477198866
  0
LINE
  8
_0-0_計極細
  6
CONTINUOUS
 62
    2
 10
880.8070142643686
 20
667.41381335611254
 11
890.26734280282471
 21
676.87414189456854
  0
LINE
  8
_0-0_計極細
  6
CONTINUOUS
 62
    2
 10
949.31366255143735
 20
635.87414189456877
 11
949.31366255143735
 21
620.12918171770116
  0
LINE
  8
_0-0_計極細
  6
CONTINUOUS
 62
    2
 10
899.31366255143735
 20
676.87414189456854
 11
880.8070142643686
 21
676.87414189456854
  0
LINE
  8
_0-0_計極細
  6
CONTINUOUS
 62
    2
 10
949.31366255143735
 20
635.87414189456877
 11
899.31366255143735
 21
635.87414189456877
  0
LINE
  8
_0-0_計極細
  6
CONTINUOUS
 62
    2
 10
899.31366255143735
 20
676.87414189456854
 11
899.31366255143735
 21
635.87414189456877
  0
ARC
  8
_0-1_計細線
  6
CONTINUOUS
 62
    3
 10
942.31366255143757
 20
683.87414189456877
 40
3.0000000000000004
 50
179.99999999999983
 51
269.99999999999977
  0
LINE
  8
_0-1_計細線
  6
CONTINUOUS
 62
    3
 10
939.31366255143757
 20
683.87414189456877
 11
939.31366255143757
 21
698.37414189456899
  0
LINE
  8
_0-1_計細線
  6
CONTINUOUS
 62
    3
 10
942.31366255143757
 20
680.87414189456877
 11
968.81366255143735
 21
680.87414189456877
  0
LINE
  8
_0-1_計細線
  6
CONTINUOUS
 62
    3
 10
969.31366255143757
 20
681.37414189456865
 11
968.81366255143735
 21
680.87414189456877
  0
LINE
  8
_0-1_計細線
  6
CONTINUOUS
 62
    3
 10
969.31366255143757
 20
683.37414189456877
 11
969.31366255143757
 21
681.37414189456865
  0
LINE
  8
_0-1_計細線
  6
CONTINUOUS
 62
    3
 10
968.81366255143735
 20
683.87414189456877
 11
969.31366255143757
 21
683.37414189456877
  0
LINE
  8
_0-1_計細線
  6
CONTINUOUS
 62
    3
 10
942.31366255143757
 20
683.87414189456877
 11
968.81366255143735
 21
683.87414189456877
  0
LINE
  8
_0-1_計細線
  6
CONTINUOUS
 62
    3
 10
939.81366255143723
 20
698.87414189456922
 11
939.31366255143757
 21
698.37414189456899
  0
LINE
  8
_0-1_計細線
  6
CONTINUOUS
 62
    3
 10
941.81366255143735
 20
698.87414189456922
 11
939.81366255143723
 21
698.87414189456922
  0
LINE
  8
_0-1_計細線
  6
CONTINUOUS
 62
    3
 10
942.31366255143757
 20
698.37414189456899
 11
941.81366255143735
 21
698.87414189456922
  0
LINE
  8
_0-1_計細線
  6
CONTINUOUS
 62
    3
 10
942.31366255143757
 20
683.87414189456877
 11
942.31366255143757
 21
698.37414189456899
  0
LINE
  8
_0-1_計細線
  6
CONTINUOUS
 62
    3
 10
951.71366254999043
 20
683.87414189456877
 11
948.31366254999023
 21
683.87414189456877
  0
LINE
  8
_0-1_計細線
  6
CONTINUOUS
 62
    3
 10
965.11366254930351
 20
683.87414189456877
 11
968.51366254930338
 21
683.87414189456877
  0
LINE
  8
_0-5_寸法線
  6
CONTINUOUS
 62
    7
 10
939.31366255143757
 20
647.87414189456899
 11
939.31366255143735
 21
583.55164194245822
  0
LINE
  8
_0-5_寸法線
  6
CONTINUOUS
 62
    7
 10
939.31366255143735
 20
588.55164194245822
 11
948.97292081432795
 21
591.1398323934834
  0
LINE
  8
_0-5_寸法線
  6
CONTINUOUS
 62
    7
 10
939.31366255143735
 20
588.55164194245822
 11
948.97292081432795
 21
585.96345149143303
  0
LINE
  8
_0-5_寸法線
  6
CONTINUOUS
 62
    7
 10
969.31366255143746
 20
610.12918171770116
 11
969.31366255143735
 21
583.55164194245822
  0
LINE
  8
_0-5_寸法線
  6
CONTINUOUS
 62
    7
 10
969.31366255143735
 20
588.55164194245822
 11
959.65440428854663
 21
585.96345149143303
  0
LINE
  8
_0-5_寸法線
  6
CONTINUOUS
 62
    7
 10
969.31366255143735
 20
588.55164194245822
 11
959.65440428854663
 21
591.1398323934834
  0
LINE
  8
_0-5_寸法線
  6
CONTINUOUS
 62
    7
 10
939.31366255143735
 20
588.55164194245822
 11
969.31366255143735
 21
588.55164194245822
  0
TEXT
  8
_0-5_寸法線
 62
    7
 10
946.81366255143735
 20
588.55164194245822
 40
15
 41
1
 50
0
  1
30
  0
LINE
  8
_0-5_寸法線
  6
CONTINUOUS
 62
    7
 10
969.31366255143735
 20
588.55164194245822
 11
978.97292081432795
 21
591.1398323934834
  0
LINE
  8
_0-5_寸法線
  6
CONTINUOUS
 62
    7
 10
969.31366255143735
 20
588.55164194245822
 11
978.97292081432795
 21
585.96345149143292
  0
LINE
  8
_0-5_寸法線
  6
CONTINUOUS
 62
    7
 10
1319.3136625514373
 20
610.12918171770116
 11
1319.3136625514373
 21
583.55164194245822
  0
LINE
  8
_0-5_寸法線
  6
CONTINUOUS
 62
    7
 10
1319.3136625514373
 20
588.55164194245822
 11
1309.6544042885466
 21
585.96345149143303
  0
LINE
  8
_0-5_寸法線
  6
CONTINUOUS
 62
    7
 10
1319.3136625514373
 20
588.55164194245822
 11
1309.6544042885466
 21
591.1398323934834
  0
LINE
  8
_0-5_寸法線
  6
CONTINUOUS
 62
    7
 10
969.31366255143735
 20
588.55164194245822
 11
1319.3136625514373
 21
588.55164194245822
  0
TEXT
  8
_0-5_寸法線
 62
    7
 10
1136.8136625514373
 20
588.55164194245822
 40
15
 41
1
 50
0
  1
Ｂ
  0
LINE
  8
_0-5_寸法線
  6
CONTINUOUS
 62
    7
 10
1319.3136625514373
 20
588.55164194245822
 11
1328.9729208143283
 21
591.1398323934834
  0
LINE
  8
_0-5_寸法線
  6
CONTINUOUS
 62
    7
 10
1319.3136625514373
 20
588.55164194245822
 11
1328.9729208143283
 21
585.96345149143292
  0
LINE
  8
_0-5_寸法線
  6
CONTINUOUS
 62
    7
 10
1349.3136625514373
 20
647.87414189456899
 11
1349.3136625514373
 21
583.55164194245822
  0
LINE
  8
_0-5_寸法線
  6
CONTINUOUS
 62
    7
 10
1349.3136625514373
 20
588.55164194245822
 11
1339.6544042885466
 21
585.96345149143303
  0
LINE
  8
_0-5_寸法線
  6
CONTINUOUS
 62
    7
 10
1349.3136625514373
 20
588.55164194245822
 11
1339.6544042885466
 21
591.1398323934834
  0
LINE
  8
_0-5_寸法線
  6
CONTINUOUS
 62
    7
 10
1319.3136625514373
 20
588.55164194245822
 11
1349.3136625514373
 21
588.55164194245822
  0
TEXT
  8
_0-5_寸法線
 62
    7
 10
1326.8136625514373
 20
588.55164194245822
 40
15
 41
1
 50
0
  1
30
  0
LINE
  8
_0-0_計極細
  6
CENTER1
 62
    2
 10
1144.3136625514373
 20
677.56266646209883
 11
1144.3136625514373
 21
710.6326664621032
  0
LINE
  8
_0-5_寸法線
  6
CONTINUOUS
 62
    7
 10
1136.6532181202476
 20
690.30201799143458
 11
1108.914109539958
 21
713.57789377034226
  0
LINE
  8
_0-5_寸法線
  6
CONTINUOUS
 62
    7
 10
1112.7443317555528
 20
710.36395572190952
 11
1110.1561413045279
 21
720.02321398480024
  0
LINE
  8
_0-5_寸法線
  6
CONTINUOUS
 62
    7
 10
1112.7443317555528
 20
710.36395572190952
 11
1115.332522206578
 21
720.02321398480024
  0
LINE
  8
_0-5_寸法線
  6
CONTINUOUS
 62
    7
 10
1136.6532181202476
 20
705.30201799143481
 11
1108.914109539958
 21
728.5778937703426
  0
LINE
  8
_0-5_寸法線
  6
CONTINUOUS
 62
    7
 10
1112.7443317555528
 20
725.36395572190986
 11
1115.332522206578
 21
715.70469745901914
  0
LINE
  8
_0-5_寸法線
  6
CONTINUOUS
 62
    7
 10
1112.7443317555528
 20
725.36395572190986
 11
1110.1561413045279
 21
715.70469745901914
  0
LINE
  8
_0-5_寸法線
  6
CONTINUOUS
 62
    7
 10
1112.7443317555528
 20
710.36395572190952
 11
1112.7443317555528
 21
725.36395572190986
  0
TEXT
  8
_0-5_寸法線
 62
    7
 10
1112.7443317555528
 20
710.3108112386177
 40
15
 41
1
 50
90
  1
15
  0
LINE
  8
_0-0_計極細
  6
CENTER1
 62
    2
 10
944.31366255143735
 20
691.37414189456922
 11
1344.3136625514373
 21
691.37414189456922
  0
ARC
  8
_0-1_計細線
  6
CONTINUOUS
 62
    3
 10
1144.3136625514371
 20
691.37414189456979
 40
4.25
 50
121.78833061704954
 51
238.21166938295778
  0
ARC
  8
_0-1_計細線
  6
CONTINUOUS
 62
    3
 10
1144.3136625514371
 20
691.37414189456979
 40
4.25
 50
301.78833061704677
 51
58.211669382944891
  0
ARC
  8
_0-1_計細線
  6
CONTINUOUS
 62
    3
 10
1144.313662551451
 20
693.87414189453568
 40
2.4999999999861302
 50
0
 51
179.99999999999983
  0
LINE
  8
_0-1_計細線
  6
CONTINUOUS
 62
    3
 10
1146.8136625514371
 20
688.87414189457002
 11
1146.8136625514371
 21
693.87414189456968
  0
ARC
  8
_0-1_計細線
  6
CONTINUOUS
 62
    3
 10
1144.313662551451
 20
688.87414189462891
 40
2.5000000000138698
 50
179.99999999999983
 51
359.99999999999966
  0
LINE
  8
_0-1_計細線
  6
CONTINUOUS
 62
    3
 10
1141.8136625514371
 20
693.87414189456968
 11
1141.8136625514371
 21
688.87414189457002
  0
ARC
  8
_0-1_計細線
  6
CONTINUOUS
 62
    3
 10
1144.313662551451
 20
693.87414189450465
 40
1.4999999999861302
 50
0
 51
179.99999999999983
  0
LINE
  8
_0-1_計細線
  6
CONTINUOUS
 62
    3
 10
1145.8136625514369
 20
688.87414189457002
 11
1145.8136625514369
 21
693.87414189456968
  0
ARC
  8
_0-1_計細線
  6
CONTINUOUS
 62
    3
 10
1144.3136625514896
 20
688.87414189462106
 40
1.5000000000527507
 50
179.99999999999983
 51
359.99999999999966
  0
LINE
  8
_0-1_計細線
  6
CONTINUOUS
 62
    3
 10
1142.8136625514369
 20
693.87414189456968
 11
1142.8136625514369
 21
688.87414189457002
  0
LINE
  8
_0-1_計細線
  6
CONTINUOUS
 62
    3
 10
948.31366255143746
 20
698.87414189456865
 11
948.31366255143746
 21
683.87414189456865
  0
LINE
  8
_0-1_計細線
  6
CONTINUOUS
 62
    3
 10
948.31366255143746
 20
683.87414189456865
 11
944.31366255143757
 21
683.87414189456865
  0
LINE
  8
_0-1_計細線
  6
CONTINUOUS
 62
    3
 10
944.31366255143757
 20
683.87414189456865
 11
944.31366255143757
 21
698.87414189456865
  0
LINE
  8
_0-1_計細線
  6
CONTINUOUS
 62
    3
 10
944.31366255143757
 20
698.87414189456865
 11
948.31366255143746
 21
698.87414189456865
  0
LINE
  8
_0-1_計細線
  6
CONTINUOUS
 62
    3
 10
1340.3136625514369
 20
698.87414189456922
 11
1340.3136625514369
 21
683.87414189456922
  0
LINE
  8
_0-1_計細線
  6
CONTINUOUS
 62
    3
 10
1340.3136625514369
 20
683.87414189456922
 11
948.31366255143746
 21
683.87414189456865
  0
LINE
  8
_0-1_計細線
  6
CONTINUOUS
 62
    3
 10
948.31366255143746
 20
683.87414189456865
 11
948.31366255143746
 21
698.87414189456865
  0
LINE
  8
_0-1_計細線
  6
CONTINUOUS
 62
    3
 10
948.31366255143746
 20
698.87414189456865
 11
1340.3136625514369
 21
698.87414189456922
  0
LINE
  8
_0-1_計細線
  6
CONTINUOUS
 62
    3
 10
948.31366255143746
 20
696.87414189456854
 11
1340.3136625514369
 21
696.87414189456933
  0
ARC
  8
_0-1_計細線
  6
CONTINUOUS
 62
    3
 10
1319.313662551451
 20
693.87414189458218
 40
1.4999999999861302
 50
0
 51
179.99999999999983
  0
LINE
  8
_0-1_計細線
  6
CONTINUOUS
 62
    3
 10
1320.8136625514371
 20
688.87414189456888
 11
1320.8136625514371
 21
693.87414189456865
  0
ARC
  8
_0-1_計細線
  6
CONTINUOUS
 62
    3
 10
1319.3136625514123
 20
688.87414189454353
 40
1.4999999999749889
 50
179.99999999999983
 51
359.99999999999966
  0
LINE
  8
_0-1_計細線
  6
CONTINUOUS
 62
    3
 10
1317.8136625514369
 20
693.87414189456865
 11
1317.8136625514369
 21
688.87414189456888
  0
ARC
  8
_0-1_計細線
  6
CONTINUOUS
 62
    3
 10
1319.313662551428
 20
693.87414189455899
 40
2.5000000000093223
 50
0
 51
179.99999999999983
  0
LINE
  8
_0-1_計細線
  6
CONTINUOUS
 62
    3
 10
1321.8136625514371
 20
688.87414189456888
 11
1321.8136625514371
 21
693.87414189456865
  0
ARC
  8
_0-1_計細線
  6
CONTINUOUS
 62
    3
 10
1319.313662551451
 20
688.87414189448907
 40
2.5000000000138698
 50
179.99999999999983
 51
359.99999999999966
  0
LINE
  8
_0-1_計細線
  6
CONTINUOUS
 62
    3
 10
1316.8136625514371
 20
693.87414189456865
 11
1316.8136625514371
 21
688.87414189456888
  0
ARC
  8
_0-1_計細線
  6
CONTINUOUS
 62
    3
 10
1319.3136625514371
 20
691.37414189456854
 40
4.25
 50
301.78833061704756
 51
58.211669382944891
  0
ARC
  8
_0-1_計細線
  6
CONTINUOUS
 62
    3
 10
1319.3136625514371
 20
691.37414189456854
 40
4.25
 50
121.78833061704954
 51
238.21166938295696
  0
ARC
  8
_0-1_計細線
  6
CONTINUOUS
 62
    3
 10
969.31366255145122
 20
693.87414189458173
 40
1.4999999999864713
 50
0
 51
179.99999999999983
  0
LINE
  8
_0-1_計細線
  6
CONTINUOUS
 62
    3
 10
970.81366255143746
 20
688.87414189456854
 11
970.81366255143746
 21
693.87414189456808
  0
ARC
  8
_0-1_計細線
  6
CONTINUOUS
 62
    3
 10
969.31366255143166
 20
688.8741418945234
 40
1.4999999999940883
 50
179.99999999999983
 51
359.99999999999966
  0
LINE
  8
_0-1_計細線
  6
CONTINUOUS
 62
    3
 10
967.81366255143757
 20
693.87414189456808
 11
967.81366255143757
 21
688.87414189456854
  0
ARC
  8
_0-1_計細線
  6
CONTINUOUS
 62
    3
 10
969.31366255144837
 20
693.87414189456547
 40
2.4999999999891998
 50
0
 51
179.99999999999983
  0
LINE
  8
_0-1_計細線
  6
CONTINUOUS
 62
    3
 10
971.81366255143757
 20
688.87414189456854
 11
971.81366255143757
 21
693.87414189456808
  0
ARC
  8
_0-1_計細線
  6
CONTINUOUS
 62
    3
 10
969.31366255143655
 20
688.87414189455956
 40
2.4999999999989768
 50
179.99999999999983
 51
359.99999999999966
  0
LINE
  8
_0-1_計細線
  6
CONTINUOUS
 62
    3
 10
966.81366255143757
 20
693.87414189456808
 11
966.81366255143757
 21
688.87414189456854
  0
ARC
  8
_0-1_計細線
  6
CONTINUOUS
 62
    3
 10
969.31366255143757
 20
691.37414189456808
 40
4.25
 50
301.78833061704074
 51
58.211669382944891
  0
ARC
  8
_0-1_計細線
  6
CONTINUOUS
 62
    3
 10
969.31366255143757
 20
691.37414189456808
 40
4.25
 50
121.78833061705475
 51
238.21166938295852
  0
LINE
  8
_0-1_計細線
  6
CONTINUOUS
 62
    3
 10
1340.3136625514369
 20
698.87414189456922
 11
1340.3136625514369
 21
683.87414189456922
  0
LINE
  8
_0-1_計細線
  6
CONTINUOUS
 62
    3
 10
1340.3136625514369
 20
683.87414189456922
 11
1344.3136625514371
 21
683.87414189456922
  0
LINE
  8
_0-1_計細線
  6
CONTINUOUS
 62
    3
 10
1344.3136625514371
 20
683.87414189456922
 11
1344.3136625514371
 21
698.87414189456922
  0
LINE
  8
_0-1_計細線
  6
CONTINUOUS
 62
    3
 10
1344.3136625514371
 20
698.87414189456922
 11
1340.3136625514369
 21
698.87414189456922
  0
LINE
  8
_0-5_寸法線
  6
CONTINUOUS
 62
    7
 10
939.31366255143757
 20
708.37414189456899
 11
939.3136625514378
 21
858.87414189456865
  0
LINE
  8
_0-5_寸法線
  6
CONTINUOUS
 62
    7
 10
939.3136625514378
 20
853.87414189456865
 11
948.97292081432852
 21
856.46233234559372
  0
LINE
  8
_0-5_寸法線
  6
CONTINUOUS
 62
    7
 10
939.3136625514378
 20
853.87414189456865
 11
948.97292081432852
 21
851.28595144354335
  0
LINE
  8
_0-5_寸法線
  6
CONTINUOUS
 62
    7
 10
1349.3136625514378
 20
708.37414189456899
 11
1349.3136625514385
 21
858.87414189456865
  0
LINE
  8
_0-5_寸法線
  6
CONTINUOUS
 62
    7
 10
1349.3136625514385
 20
853.87414189456865
 11
1339.6544042885475
 21
851.28595144354335
  0
LINE
  8
_0-5_寸法線
  6
CONTINUOUS
 62
    7
 10
1349.3136625514385
 20
853.87414189456865
 11
1339.6544042885475
 21
856.46233234559372
  0
LINE
  8
_0-5_寸法線
  6
CONTINUOUS
 62
    7
 10
939.3136625514378
 20
853.87414189456865
 11
1349.3136625514385
 21
853.87414189456865
  0
TEXT
  8
_0-5_寸法線
 62
    7
 10
1136.8136625514378
 20
853.87414189456865
 40
15
 41
1
 50
0
  1
Ｗ
  0
LINE
  8
_0-5_寸法線
  6
CONTINUOUS
 62
    7
 10
1344.3136625514373
 20
708.37414189456968
 11
1344.3136625514373
 21
788.87414189456865
  0
LINE
  8
_0-5_寸法線
  6
CONTINUOUS
 62
    7
 10
1344.3136625514373
 20
783.87414189456865
 11
1334.6544042885466
 21
781.28595144354335
  0
LINE
  8
_0-5_寸法線
  6
CONTINUOUS
 62
    7
 10
1344.3136625514373
 20
783.87414189456865
 11
1334.6544042885466
 21
786.46233234559372
  0
LINE
  8
_0-5_寸法線
  6
CONTINUOUS
 62
    7
 10
944.31366255143803
 20
708.37414189456899
 11
944.31366255143803
 21
788.87414189456865
  0
LINE
  8
_0-5_寸法線
  6
CONTINUOUS
 62
    7
 10
944.31366255143803
 20
783.87414189456865
 11
953.97292081432863
 21
786.46233234559372
  0
LINE
  8
_0-5_寸法線
  6
CONTINUOUS
 62
    7
 10
944.31366255143803
 20
783.87414189456865
 11
953.97292081432863
 21
781.28595144354335
  0
LINE
  8
_0-5_寸法線
  6
CONTINUOUS
 62
    7
 10
1344.3136625514373
 20
783.87414189456865
 11
944.31366255143803
 21
783.87414189456865
  0
TEXT
  8
_0-5_寸法線
 62
    7
 10
1136.8136625514378
 20
783.87414189456763
 40
15
 41
1
 50
0
  1
Ａ
  0
LINE
  8
_0-5_寸法線
  6
CONTINUOUS
 62
    7
 10
944.31366255143757
 20
708.87414189456865
 11
944.31366255143757
 21
753.87414189456865
  0
LINE
  8
_0-5_寸法線
  6
CONTINUOUS
 62
    7
 10
944.31366255143757
 20
748.87414189456865
 11
953.9729208143284
 21
751.46233234559372
  0
LINE
  8
_0-5_寸法線
  6
CONTINUOUS
 62
    7
 10
944.31366255143757
 20
748.87414189456865
 11
953.9729208143284
 21
746.28595144354335
  0
LINE
  8
_0-5_寸法線
  6
CONTINUOUS
 62
    7
 10
969.31366255143757
 20
708.87414189456888
 11
969.31366255143757
 21
753.87414189456865
  0
LINE
  8
_0-5_寸法線
  6
CONTINUOUS
 62
    7
 10
969.31366255143757
 20
748.87414189456865
 11
959.65440428854686
 21
746.28595144354335
  0
LINE
  8
_0-5_寸法線
  6
CONTINUOUS
 62
    7
 10
969.31366255143757
 20
748.87414189456865
 11
959.65440428854686
 21
751.46233234559372
  0
LINE
  8
_0-5_寸法線
  6
CONTINUOUS
 62
    7
 10
944.31366255143757
 20
748.87414189456865
 11
969.31366255143757
 21
748.87414189456865
  0
TEXT
  8
_0-5_寸法線
 62
    7
 10
949.31366255143757
 20
748.87414189456865
 40
15
 41
1
 50
0
  1
25
  0
LINE
  8
_0-5_寸法線
  6
CONTINUOUS
 62
    7
 10
969.31366255143757
 20
748.87414189456865
 11
978.9729208143284
 21
751.46233234559372
  0
LINE
  8
_0-5_寸法線
  6
CONTINUOUS
 62
    7
 10
969.31366255143757
 20
748.87414189456865
 11
978.9729208143284
 21
746.28595144354324
  0
LINE
  8
_0-5_寸法線
  6
CONTINUOUS
 62
    7
 10
1319.3136625514373
 20
708.87414189456888
 11
1319.3136625514373
 21
753.87414189456865
  0
LINE
  8
_0-5_寸法線
  6
CONTINUOUS
 62
    7
 10
1319.3136625514373
 20
748.87414189456865
 11
1309.6544042885466
 21
746.28595144354335
  0
LINE
  8
_0-5_寸法線
  6
CONTINUOUS
 62
    7
 10
1319.3136625514373
 20
748.87414189456865
 11
1309.6544042885466
 21
751.46233234559372
  0
LINE
  8
_0-5_寸法線
  6
CONTINUOUS
 62
    7
 10
969.31366255143757
 20
748.87414189456865
 11
1319.3136625514373
 21
748.87414189456865
  0
TEXT
  8
_0-5_寸法線
 62
    7
 10
1136.8136625514373
 20
748.87414189456865
 40
15
 41
1
 50
0
  1
Ｐ
  0
LINE
  8
_0-5_寸法線
  6
CONTINUOUS
 62
    7
 10
1319.3136625514373
 20
748.87414189456865
 11
1328.9729208143283
 21
751.46233234559372
  0
LINE
  8
_0-5_寸法線
  6
CONTINUOUS
 62
    7
 10
1319.3136625514373
 20
748.87414189456865
 11
1328.9729208143283
 21
746.28595144354324
  0
LINE
  8
_0-5_寸法線
  6
CONTINUOUS
 62
    7
 10
1344.3136625514371
 20
708.87414189456865
 11
1344.3136625514371
 21
753.87414189456865
  0
LINE
  8
_0-5_寸法線
  6
CONTINUOUS
 62
    7
 10
1344.3136625514371
 20
748.87414189456865
 11
1334.6544042885464
 21
746.28595144354335
  0
LINE
  8
_0-5_寸法線
  6
CONTINUOUS
 62
    7
 10
1344.3136625514371
 20
748.87414189456865
 11
1334.6544042885464
 21
751.46233234559372
  0
LINE
  8
_0-5_寸法線
  6
CONTINUOUS
 62
    7
 10
1319.3136625514373
 20
748.87414189456865
 11
1344.3136625514371
 21
748.87414189456865
  0
TEXT
  8
_0-5_寸法線
 62
    7
 10
1324.3136625514373
 20
748.87414189456865
 40
15
 41
1
 50
0
  1
25
  0
LINE
  8
_0-1_計細線
  6
CONTINUOUS
 62
    3
 10
1349.3136625514373
 20
692.87414189456877
 11
1349.3136625514373
 21
657.87414189456899
  0
LINE
  8
_0-1_計細線
  6
CONTINUOUS
 62
    3
 10
1349.3136625514373
 20
657.87414189456899
 11
1351.6136625514375
 21
657.87414189456899
  0
LINE
  8
_0-1_計細線
  6
CONTINUOUS
 62
    3
 10
1351.6136625514375
 20
657.87414189456899
 11
1351.6136625514375
 21
692.87414189456877
  0
LINE
  8
_0-1_計細線
  6
CONTINUOUS
 62
    3
 10
1351.6136625514375
 20
692.87414189456877
 11
1349.3136625514373
 21
692.87414189456877
  0
LINE
  8
_0-0_計極細
  6
CONTINUOUS
 62
    2
 10
1351.6136625514375
 20
676.87414189456899
 11
1349.3136625514373
 21
676.87414189456899
  0
LINE
  8
_0-0_計極細
  6
CONTINUOUS
 62
    2
 10
1351.6136625514375
 20
678.87414189456899
 11
1349.3136625514373
 21
678.87414189456899
  0
LINE
  8
_0-0_計極細
  6
CONTINUOUS
 62
    2
 10
1351.6136625514375
 20
674.87414189456888
 11
1349.3136625514373
 21
674.87414189456888
  0
LINE
  8
_0-0_計極細
  6
CONTINUOUS
 62
    2
 10
1351.6136625514375
 20
680.87414189456877
 11
1349.3136625514373
 21
680.87414189456877
  0
LINE
  8
_0-0_計極細
  6
CONTINUOUS
 62
    2
 10
1349.3136625514373
 20
660.87414189456911
 11
1351.6136625514375
 21
660.87414189456911
  0
LINE
  8
_0-0_計極細
  6
CONTINUOUS
 62
    2
 10
1351.6136625514375
 20
690.87414189456911
 11
1349.3136625514373
 21
690.87414189456911
  0
LINE
  8
_0-1_計細線
  6
CONTINUOUS
 62
    3
 10
939.31366255143757
 20
692.87414189456877
 11
939.31366255143757
 21
657.87414189456899
  0
LINE
  8
_0-1_計細線
  6
CONTINUOUS
 62
    3
 10
939.31366255143757
 20
657.87414189456899
 11
937.01366255143751
 21
657.87414189456899
  0
LINE
  8
_0-1_計細線
  6
CONTINUOUS
 62
    3
 10
937.01366255143751
 20
657.87414189456899
 11
937.01366255143751
 21
692.87414189456877
  0
LINE
  8
_0-1_計細線
  6
CONTINUOUS
 62
    3
 10
937.01366255143751
 20
692.87414189456877
 11
939.31366255143757
 21
692.87414189456877
  0
LINE
  8
_0-0_計極細
  6
CONTINUOUS
 62
    2
 10
937.01366255143751
 20
676.87414189456899
 11
939.31366255143757
 21
676.87414189456899
  0
LINE
  8
_0-0_計極細
  6
CONTINUOUS
 62
    2
 10
937.01366255143751
 20
678.87414189456899
 11
939.31366255143757
 21
678.87414189456899
  0
LINE
  8
_0-0_計極細
  6
CONTINUOUS
 62
    2
 10
937.01366255143751
 20
674.87414189456888
 11
939.31366255143757
 21
674.87414189456888
  0
LINE
  8
_0-0_計極細
  6
CONTINUOUS
 62
    2
 10
937.01366255143751
 20
680.87414189456877
 11
939.31366255143757
 21
680.87414189456877
  0
LINE
  8
_0-0_計極細
  6
CONTINUOUS
 62
    2
 10
939.31366255143757
 20
660.87414189456911
 11
937.01366255143751
 21
660.87414189456911
  0
LINE
  8
_0-0_計極細
  6
CONTINUOUS
 62
    2
 10
937.01366255143751
 20
690.87414189456911
 11
939.31366255143757
 21
690.87414189456911
  0
LINE
  8
_0-5_寸法線
  6
CONTINUOUS
 62
    7
 10
927.01366255143751
 20
680.87414189456877
 11
850.08036872624416
 21
680.87414189456911
  0
LINE
  8
_0-5_寸法線
  6
CONTINUOUS
 62
    7
 10
855.08036872624416
 20
680.87414189456911
 11
857.66855917726934
 21
671.21488363167839
  0
LINE
  8
_0-5_寸法線
  6
CONTINUOUS
 62
    7
 10
855.08036872624416
 20
680.87414189456911
 11
852.49217827521886
 21
671.21488363167839
  0
LINE
  8
_0-5_寸法線
  6
CONTINUOUS
 62
    7
 10
927.01366255143751
 20
657.87414189456899
 11
850.08036872624416
 21
657.87414189456945
  0
LINE
  8
_0-5_寸法線
  6
CONTINUOUS
 62
    7
 10
855.08036872624416
 20
657.87414189456945
 11
852.49217827521886
 21
667.53340015746005
  0
LINE
  8
_0-5_寸法線
  6
CONTINUOUS
 62
    7
 10
855.08036872624416
 20
657.87414189456945
 11
857.66855917726934
 21
667.53340015746005
  0
LINE
  8
_0-5_寸法線
  6
CONTINUOUS
 62
    7
 10
855.08036872624416
 20
680.87414189456911
 11
855.08036872624416
 21
657.87414189456945
  0
TEXT
  8
_0-5_寸法線
 62
    7
 10
855.08036872624416
 20
661.87414189456933
 40
15
 41
1
 50
90
  1
23
  0
LINE
  8
_0-5_寸法線
  6
CONTINUOUS
 62
    7
 10
870.8070142643686
 20
698.87414189456922
 11
850.08036872624416
 21
698.87414189456922
  0
LINE
  8
_0-5_寸法線
  6
CONTINUOUS
 62
    7
 10
855.08036872624416
 20
698.87414189456922
 11
857.66855917726934
 21
689.21488363167839
  0
LINE
  8
_0-5_寸法線
  6
CONTINUOUS
 62
    7
 10
855.08036872624416
 20
698.87414189456922
 11
852.49217827521886
 21
689.21488363167839
  0
LINE
  8
_0-5_寸法線
  6
CONTINUOUS
 62
    7
 10
927.01366255143751
 20
680.87414189456877
 11
850.08036872624416
 21
680.87414189456911
  0
LINE
  8
_0-5_寸法線
  6
CONTINUOUS
 62
    7
 10
855.08036872624416
 20
680.87414189456911
 11
852.49217827521886
 21
690.53340015745994
  0
LINE
  8
_0-5_寸法線
  6
CONTINUOUS
 62
    7
 10
855.08036872624416
 20
680.87414189456911
 11
857.66855917726934
 21
690.53340015745994
  0
LINE
  8
_0-5_寸法線
  6
CONTINUOUS
 62
    7
 10
855.08036872624416
 20
698.87414189456922
 11
855.08036872624416
 21
680.87414189456911
  0
TEXT
  8
_0-5_寸法線
 62
    7
 10
855.08036872624416
 20
682.37414189456922
 40
15
 41
1
 50
90
  1
18
  0
LINE
  8
_0-7_枠細線
  6
CONTINUOUS
 62
    5
 10
1369.0571839380812
 20
673.70435352210723
 11
1361.5571839380812
 21
688.70435352210723
  0
LINE
  8
_0-7_枠細線
  6
CONTINUOUS
 62
    5
 10
1354.0571839380812
 20
673.70435352210723
 11
1369.0571839380812
 21
673.70435352210723
  0
LINE
  8
_0-7_枠細線
  6
CONTINUOUS
 62
    5
 10
1361.5571839380812
 20
688.70435352210723
 11
1354.0571839380812
 21
673.70435352210723
  0
TEXT
  8
_0-7_枠細線
 62
    5
 10
1356.4223352062295
 20
673.39735127672657
 40
12.5
 41
0.8
 50
0
  1
１
  0
TEXT
  8
_0-7_枠細線
 62
    5
 10
1095.2663887298581
 20
542.42553257779127
 40
25.000000000000007
 41
0.8
 50
0
  1
断面詳細図
  0
TEXT
  8
_0-7_枠細線
 62
    5
 10
1221.3923549203687
 20
543.43485786658732
 40
20.000000000000004
 41
0.5999999999999999
 50
0
  1
Ｓ＝１：５
  0
LINE
  8
_0-5_寸法線
  6
CONTINUOUS
 62
    7
 10
231.91999999999643
 20
798.49999999999898
 11
231.91999999999652
 21
878.49999999999898
  0
LINE
  8
_0-5_寸法線
  6
CONTINUOUS
 62
    7
 10
231.91999999999652
 20
873.49999999999898
 11
222.26074173710586
 21
870.91180954897368
  0
LINE
  8
_0-5_寸法線
  6
CONTINUOUS
 62
    7
 10
231.91999999999652
 20
873.49999999999898
 11
222.26074173710586
 21
876.08819045102405
  0
LINE
  8
_0-5_寸法線
  6
CONTINUOUS
 62
    7
 10
234.91999999999649
 20
798.49999999999898
 11
234.91999999999655
 21
878.49999999999898
  0
LINE
  8
_0-5_寸法線
  6
CONTINUOUS
 62
    7
 10
206.91999999999652
 20
873.49999999999898
 11
234.91999999999655
 21
873.49999999999898
  0
TEXT
  8
_0-5_寸法線
 62
    7
 10
209.25841517300128
 20
873.49999999999898
 40
15
 41
1
 50
0
  1
3
  0
LINE
  8
_0-5_寸法線
  6
CONTINUOUS
 62
    7
 10
234.91999999999655
 20
873.49999999999898
 11
244.57925826288729
 21
876.08819045102405
  0
LINE
  8
_0-5_寸法線
  6
CONTINUOUS
 62
    7
 10
234.91999999999655
 20
873.49999999999898
 11
244.57925826288721
 21
870.91180954897368
  0
LINE
  8
_0-5_寸法線
  6
CONTINUOUS
 62
    7
 10
638.91999999999587
 20
798.49999999999898
 11
638.91999999999598
 21
878.49999999999898
  0
LINE
  8
_0-5_寸法線
  6
CONTINUOUS
 62
    7
 10
638.91999999999598
 20
873.49999999999898
 11
629.26074173710526
 21
870.91180954897368
  0
LINE
  8
_0-5_寸法線
  6
CONTINUOUS
 62
    7
 10
638.91999999999598
 20
873.49999999999898
 11
629.26074173710526
 21
876.08819045102405
  0
LINE
  8
_0-5_寸法線
  6
CONTINUOUS
 62
    7
 10
234.91999999999655
 20
873.49999999999898
 11
638.91999999999598
 21
873.49999999999898
  0
TEXT
  8
_0-5_寸法線
 62
    7
 10
421.91999999999621
 20
873.49999999999898
 40
15
 41
1
 50
0
  1
Ｗ-6
  0
LINE
  8
_0-5_寸法線
  6
CONTINUOUS
 62
    7
 10
641.91999999999564
 20
798.49999999999898
 11
641.91999999999575
 21
878.49999999999898
  0
LINE
  8
_0-5_寸法線
  6
CONTINUOUS
 62
    7
 10
641.91999999999575
 20
873.49999999999898
 11
651.57925826288647
 21
876.08819045102405
  0
LINE
  8
_0-5_寸法線
  6
CONTINUOUS
 62
    7
 10
641.91999999999575
 20
873.49999999999898
 11
651.57925826288647
 21
870.91180954897368
  0
LINE
  8
_0-5_寸法線
  6
CONTINUOUS
 62
    7
 10
638.91999999999598
 20
873.49999999999898
 11
666.91999999999575
 21
873.49999999999898
  0
TEXT
  8
_0-5_寸法線
 62
    7
 10
656.09136683254792
 20
873.49999999999898
 40
15
 41
1
 50
0
  1
3
  0
LINE
  8
_0-5_寸法線
  6
CONTINUOUS
 62
    7
 10
221.91999999999643
 20
378.49999999999937
 11
141.91999999999643
 21
378.4999999999996
  0
LINE
  8
_0-5_寸法線
  6
CONTINUOUS
 62
    7
 10
146.91999999999643
 20
378.4999999999996
 11
149.50819045102156
 21
368.84074173710894
  0
LINE
  8
_0-5_寸法線
  6
CONTINUOUS
 62
    7
 10
146.91999999999643
 20
378.4999999999996
 11
144.33180954897119
 21
368.84074173710894
  0
LINE
  8
_0-5_寸法線
  6
CONTINUOUS
 62
    7
 10
221.91999999999643
 20
381.49999999999989
 11
141.91999999999643
 21
381.50000000000011
  0
LINE
  8
_0-5_寸法線
  6
CONTINUOUS
 62
    7
 10
146.91999999999643
 20
353.4999999999996
 11
146.91999999999643
 21
381.50000000000011
  0
TEXT
  8
_0-5_寸法線
 62
    7
 10
146.91999999999643
 20
358.21089189334742
 40
15
 41
1
 50
90
  1
3
  0
LINE
  8
_0-5_寸法線
  6
CONTINUOUS
 62
    7
 10
146.91999999999643
 20
381.50000000000011
 11
144.33180954897125
 21
391.15925826289077
  0
LINE
  8
_0-5_寸法線
  6
CONTINUOUS
 62
    7
 10
146.91999999999643
 20
381.50000000000011
 11
149.50819045102165
 21
391.15925826289077
  0
LINE
  8
_0-5_寸法線
  6
CONTINUOUS
 62
    7
 10
221.91999999999643
 20
785.49999999999898
 11
141.91999999999643
 21
785.49999999999909
  0
LINE
  8
_0-5_寸法線
  6
CONTINUOUS
 62
    7
 10
146.91999999999643
 20
785.49999999999909
 11
149.50819045102165
 21
775.84074173710849
  0
LINE
  8
_0-5_寸法線
  6
CONTINUOUS
 62
    7
 10
146.91999999999643
 20
785.49999999999909
 11
144.33180954897125
 21
775.84074173710849
  0
LINE
  8
_0-5_寸法線
  6
CONTINUOUS
 62
    7
 10
146.91999999999643
 20
381.50000000000011
 11
146.91999999999643
 21
785.49999999999909
  0
TEXT
  8
_0-5_寸法線
 62
    7
 10
146.91999999999638
 20
568.49999999999955
 40
15
 41
1
 50
89.999999999999872
  1
Ｗ-6
  0
LINE
  8
_0-5_寸法線
  6
CONTINUOUS
 62
    7
 10
221.91999999999643
 20
788.49999999999898
 11
141.91999999999643
 21
788.49999999999909
  0
LINE
  8
_0-5_寸法線
  6
CONTINUOUS
 62
    7
 10
146.91999999999643
 20
788.49999999999909
 11
144.33180954897125
 21
798.15925826288992
  0
LINE
  8
_0-5_寸法線
  6
CONTINUOUS
 62
    7
 10
146.91999999999643
 20
788.49999999999909
 11
149.50819045102165
 21
798.15925826288992
  0
LINE
  8
_0-5_寸法線
  6
CONTINUOUS
 62
    7
 10
146.91999999999643
 20
785.49999999999909
 11
146.91999999999643
 21
813.49999999999909
  0
TEXT
  8
_0-5_寸法線
 62
    7
 10
146.91999999999643
 20
801.9234156867924
 40
15
 41
1
 50
90
  1
3
  0
LINE
  8
_0-0_計極細
  6
CENTER2
 62
    2
 10
228.93784589186978
 20
583.49999999999864
 11
645.71877003175689
 21
583.49999999999864
  0
LINE
  8
_0-5_寸法線
  6
CONTINUOUS
 62
    7
 10
939.31366255143757
 20
818.87414189456865
 11
929.65440428854686
 21
816.28595144354335
  0
LINE
  8
_0-5_寸法線
  6
CONTINUOUS
 62
    7
 10
939.31366255143757
 20
818.87414189456865
 11
929.65440428854686
 21
821.46233234559372
  0
LINE
  8
_0-5_寸法線
  6
CONTINUOUS
 62
    7
 10
942.31366255143757
 20
708.37414189456899
 11
942.31366255143769
 21
823.87414189456865
  0
LINE
  8
_0-5_寸法線
  6
CONTINUOUS
 62
    7
 10
914.31366255143757
 20
818.87414189456865
 11
942.31366255143769
 21
818.87414189456865
  0
TEXT
  8
_0-5_寸法線
 62
    7
 10
919.25651495949126
 20
818.87414189456865
 40
15
 41
1
 50
0
  1
3
  0
LINE
  8
_0-5_寸法線
  6
CONTINUOUS
 62
    7
 10
942.31366255143769
 20
818.87414189456865
 11
951.97292081432829
 21
821.46233234559372
  0
LINE
  8
_0-5_寸法線
  6
CONTINUOUS
 62
    7
 10
942.31366255143769
 20
818.87414189456865
 11
951.97292081432829
 21
816.28595144354335
  0
LINE
  8
_0-5_寸法線
  6
CONTINUOUS
 62
    7
 10
1346.3136625514378
 20
708.37414189456899
 11
1346.3136625514383
 21
823.87414189456865
  0
LINE
  8
_0-5_寸法線
  6
CONTINUOUS
 62
    7
 10
1346.3136625514383
 20
818.87414189456865
 11
1336.6544042885475
 21
816.28595144354335
  0
LINE
  8
_0-5_寸法線
  6
CONTINUOUS
 62
    7
 10
1346.3136625514383
 20
818.87414189456865
 11
1336.6544042885475
 21
821.46233234559372
  0
LINE
  8
_0-5_寸法線
  6
CONTINUOUS
 62
    7
 10
942.31366255143769
 20
818.87414189456865
 11
1346.3136625514383
 21
818.87414189456865
  0
TEXT
  8
_0-5_寸法線
 62
    7
 10
1129.3136625514378
 20
818.87414189456865
 40
15
 41
1
 50
0
  1
Ｗ-6
  0
LINE
  8
_0-5_寸法線
  6
CONTINUOUS
 62
    7
 10
1349.3136625514385
 20
818.87414189456865
 11
1358.972920814329
 21
821.46233234559372
  0
LINE
  8
_0-5_寸法線
  6
CONTINUOUS
 62
    7
 10
1349.3136625514385
 20
818.87414189456865
 11
1358.972920814329
 21
816.28595144354335
  0
LINE
  8
_0-5_寸法線
  6
CONTINUOUS
 62
    7
 10
1346.3136625514383
 20
818.87414189456865
 11
1374.3136625514385
 21
818.87414189456865
  0
TEXT
  8
_0-5_寸法線
 62
    7
 10
1361.5304221736153
 20
818.87414189456865
 40
15
 41
1
 50
0
  1
3
  0
ENDSEC
  0
EOF
